  0
SECTION
  2
HEADER
  9
$ACADVER
  1
AC1015
  9
$ACADMAINTVER
 70
    10
  9
$DWGCODEPAGE
  3
ANSI_1252
  9
$INSBASE
 10
0.0
 20
0.0
 30
0.0
  9
$EXTMIN
 10
-3.941205
 20
-5.232602
 30
0.0
  9
$EXTMAX
 10
5.129344295080328
 20
5.148194904761907
 30
0.0
  9
$LIMMIN
 10
0.0
 20
0.0
  9
$LIMMAX
 10
12.0
 20
9.0
  9
$ORTHOMODE
 70
     0
  9
$REGENMODE
 70
     1
  9
$FILLMODE
 70
     1
  9
$QTEXTMODE
 70
     0
  9
$MIRRTEXT
 70
     1
  9
$LTSCALE
 40
0.000394
  9
$ATTMODE
 70
     1
  9
$TEXTSIZE
 40
0.2
  9
$TRACEWID
 40
0.05
  9
$TEXTSTYLE
  7
Standard
  9
$CLAYER
  8
0
  9
$CELTYPE
  6
CONTINUOUS
  9
$CECOLOR
 62
   256
  9
$CELTSCALE
 40
1.0
  9
$DISPSILH
 70
     0
  9
$DIMSCALE
 40
1.0
  9
$DIMASZ
 40
0.18
  9
$DIMEXO
 40
0.0625
  9
$DIMDLI
 40
0.38
  9
$DIMRND
 40
0.0
  9
$DIMDLE
 40
0.0
  9
$DIMEXE
 40
0.18
  9
$DIMTP
 40
0.0
  9
$DIMTM
 40
0.0
  9
$DIMTXT
 40
0.18
  9
$DIMCEN
 40
0.09
  9
$DIMTSZ
 40
0.0
  9
$DIMTOL
 70
     0
  9
$DIMLIM
 70
     0
  9
$DIMTIH
 70
     1
  9
$DIMTOH
 70
     1
  9
$DIMSE1
 70
     0
  9
$DIMSE2
 70
     0
  9
$DIMTAD
 70
     0
  9
$DIMZIN
 70
     0
  9
$DIMBLK
  1

  9
$DIMASO
 70
     1
  9
$DIMSHO
 70
     1
  9
$DIMPOST
  1

  9
$DIMAPOST
  1

  9
$DIMALT
 70
     0
  9
$DIMALTD
 70
     2
  9
$DIMALTF
 40
25.4
  9
$DIMLFAC
 40
1.0
  9
$DIMTOFL
 70
     0
  9
$DIMTVP
 40
0.0
  9
$DIMTIX
 70
     0
  9
$DIMSOXD
 70
     0
  9
$DIMSAH
 70
     0
  9
$DIMBLK1
  1

  9
$DIMBLK2
  1

  9
$DIMSTYLE
  2
Standard
  9
$DIMCLRD
 70
     0
  9
$DIMCLRE
 70
     0
  9
$DIMCLRT
 70
     0
  9
$DIMTFAC
 40
1.0
  9
$DIMGAP
 40
0.09
  9
$DIMJUST
 70
     0
  9
$DIMSD1
 70
     0
  9
$DIMSD2
 70
     0
  9
$DIMTOLJ
 70
     1
  9
$DIMTZIN
 70
     0
  9
$DIMALTZ
 70
     0
  9
$DIMALTTZ
 70
     0
  9
$DIMUPT
 70
     0
  9
$DIMDEC
 70
     4
  9
$DIMTDEC
 70
     4
  9
$DIMALTU
 70
     2
  9
$DIMALTTD
 70
     2
  9
$DIMTXSTY
  7
Standard
  9
$DIMAUNIT
 70
     0
  9
$DIMADEC
 70
     0
  9
$DIMALTRND
 40
0.0
  9
$DIMAZIN
 70
     0
  9
$DIMDSEP
 70
    46
  9
$DIMATFIT
 70
     3
  9
$DIMFRAC
 70
     0
  9
$DIMLDRBLK
  1

  9
$DIMLUNIT
 70
     2
  9
$DIMLWD
 70
    -2
  9
$DIMLWE
 70
    -2
  9
$DIMTMOVE
 70
     0
  9
$LUNITS
 70
     2
  9
$LUPREC
 70
     4
  9
$SKETCHINC
 40
0.1
  9
$FILLETRAD
 40
0.0
  9
$AUNITS
 70
     0
  9
$AUPREC
 70
     0
  9
$MENU
  1
.
  9
$ELEVATION
 40
0.0
  9
$PELEVATION
 40
0.0
  9
$THICKNESS
 40
0.0
  9
$LIMCHECK
 70
     0
  9
$CHAMFERA
 40
0.0
  9
$CHAMFERB
 40
0.0
  9
$CHAMFERC
 40
0.0
  9
$CHAMFERD
 40
0.0
  9
$SKPOLY
 70
     0
  9
$TDCREATE
 40
2453215.880722893
  9
$TDUCREATE
 40
2453216.047389560
  9
$TDUPDATE
 40
2453215.880977315
  9
$TDUUPDATE
 40
2453216.047643981
  9
$TDINDWG
 40
0.0002548843
  9
$TDUSRTIMER
 40
0.0002548843
  9
$USRTIMER
 70
     1
  9
$ANGBASE
 50
0.0
  9
$ANGDIR
 70
     0
  9
$PDMODE
 70
    35
  9
$PDSIZE
 40
0.000315
  9
$PLINEWID
 40
0.0
  9
$SPLFRAME
 70
     0
  9
$SPLINETYPE
 70
     6
  9
$SPLINESEGS
 70
     8
  9
$HANDSEED
  5
1485
  9
$SURFTAB1
 70
     6
  9
$SURFTAB2
 70
     6
  9
$SURFTYPE
 70
     6
  9
$SURFU
 70
     6
  9
$SURFV
 70
     6
  9
$UCSBASE
  2

  9
$UCSNAME
  2

  9
$UCSORG
 10
0.0
 20
0.0
 30
0.0
  9
$UCSXDIR
 10
1.0
 20
0.0
 30
0.0
  9
$UCSYDIR
 10
0.0
 20
1.0
 30
0.0
  9
$UCSORTHOREF
  2

  9
$UCSORTHOVIEW
 70
     0
  9
$UCSORGTOP
 10
0.0
 20
0.0
 30
0.0
  9
$UCSORGBOTTOM
 10
0.0
 20
0.0
 30
0.0
  9
$UCSORGLEFT
 10
0.0
 20
0.0
 30
0.0
  9
$UCSORGRIGHT
 10
0.0
 20
0.0
 30
0.0
  9
$UCSORGFRONT
 10
0.0
 20
0.0
 30
0.0
  9
$UCSORGBACK
 10
0.0
 20
0.0
 30
0.0
  9
$PUCSBASE
  2

  9
$PUCSNAME
  2

  9
$PUCSORG
 10
0.0
 20
0.0
 30
0.0
  9
$PUCSXDIR
 10
1.0
 20
0.0
 30
0.0
  9
$PUCSYDIR
 10
0.0
 20
1.0
 30
0.0
  9
$PUCSORTHOREF
  2

  9
$PUCSORTHOVIEW
 70
     0
  9
$PUCSORGTOP
 10
0.0
 20
0.0
 30
0.0
  9
$PUCSORGBOTTOM
 10
0.0
 20
0.0
 30
0.0
  9
$PUCSORGLEFT
 10
0.0
 20
0.0
 30
0.0
  9
$PUCSORGRIGHT
 10
0.0
 20
0.0
 30
0.0
  9
$PUCSORGFRONT
 10
0.0
 20
0.0
 30
0.0
  9
$PUCSORGBACK
 10
0.0
 20
0.0
 30
0.0
  9
$USERI1
 70
     0
  9
$USERI2
 70
     0
  9
$USERI3
 70
     0
  9
$USERI4
 70
     0
  9
$USERI5
 70
     0
  9
$USERR1
 40
0.0
  9
$USERR2
 40
0.0
  9
$USERR3
 40
0.0
  9
$USERR4
 40
0.0
  9
$USERR5
 40
0.0
  9
$WORLDVIEW
 70
     1
  9
$SHADEDGE
 70
     3
  9
$SHADEDIF
 70
    70
  9
$TILEMODE
 70
     1
  9
$MAXACTVP
 70
    64
  9
$PINSBASE
 10
0.0
 20
0.0
 30
0.0
  9
$PLIMCHECK
 70
     0
  9
$PEXTMIN
 10
1.000000000000000E+20
 20
1.000000000000000E+20
 30
1.000000000000000E+20
  9
$PEXTMAX
 10
-1.000000000000000E+20
 20
-1.000000000000000E+20
 30
-1.000000000000000E+20
  9
$PLIMMIN
 10
0.0
 20
0.0
  9
$PLIMMAX
 10
12.0
 20
9.0
  9
$UNITMODE
 70
     0
  9
$VISRETAIN
 70
     1
  9
$PLINEGEN
 70
     0
  9
$PSLTSCALE
 70
     1
  9
$TREEDEPTH
 70
  3020
  9
$CMLSTYLE
  2
Standard
  9
$CMLJUST
 70
     0
  9
$CMLSCALE
 40
1.0
  9
$PROXYGRAPHICS
 70
     1
  9
$MEASUREMENT
 70
     0
  9
$CELWEIGHT
370
    -1
  9
$ENDCAPS
280
     0
  9
$JOINSTYLE
280
     0
  9
$LWDISPLAY
290
     0
  9
$INSUNITS
 70
     0
  9
$HYPERLINKBASE
  1

  9
$STYLESHEET
  1

  9
$XEDIT
290
     1
  9
$CEPSNTYPE
380
     0
  9
$PSTYLEMODE
290
     1
  9
$FINGERPRINTGUID
  2
{FBCD0F53-BADA-43F8-9AE7-856F2EA3E55E}
  9
$VERSIONGUID
  2
{4E072B15-4A39-48D9-BFEF-DBFB332F4650}
  9
$EXTNAMES
290
     1
  9
$PSVPSCALE
 40
0.0
  9
$OLESTARTUP
290
     0
  0
ENDSEC
  0
SECTION
  2
CLASSES
  0
CLASS
  1
ACDBDICTIONARYWDFLT
  2
AcDbDictionaryWithDefault
  3
AutoCAD 2000
 90
        0
280
     0
281
     0
  0
CLASS
  1
ACDBPLACEHOLDER
  2
AcDbPlaceHolder
  3
AutoCAD 2000
 90
        0
280
     0
281
     0
  0
CLASS
  1
LAYOUT
  2
AcDbLayout
  3
AutoCAD 2000
 90
        0
280
     0
281
     0
  0
ENDSEC
  0
SECTION
  2
TABLES
  0
TABLE
  2
VPORT
  5
8
330
0
100
AcDbSymbolTable
 70
     2
  0
VPORT
  5
1484
330
8
100
AcDbSymbolTableRecord
100
AcDbViewportTableRecord
  2
*Active
 70
     0
 10
0.0
 20
0.0
 11
1.0
 21
1.0
 12
2.395647240841991
 22
0.2210455530634103
 13
0.0
 23
0.0
 14
1.0
 24
1.0
 15
0.0
 25
0.0
 16
0.0
 26
0.0
 36
1.0
 17
0.0
 27
0.0
 37
0.0
 40
12.84697473387841
 41
1.760330578512396
 42
50.0
 43
0.0
 44
0.0
 50
0.0
 51
0.0
 71
     0
 72
   100
 73
     1
 74
     1
 75
     0
 76
     0
 77
     0
 78
     0
281
     0
 65
     1
110
0.0
120
0.0
130
0.0
111
1.0
121
0.0
131
0.0
112
0.0
122
1.0
132
0.0
 79
     0
146
0.0
  0
ENDTAB
  0
TABLE
  2
LTYPE
  5
5
330
0
100
AcDbSymbolTable
 70
    10
  0
LTYPE
  5
13
330
5
100
AcDbSymbolTableRecord
100
AcDbLinetypeTableRecord
  2
ByBlock
 70
     0
  3

 72
    65
 73
     0
 40
0.0
  0
LTYPE
  5
14
330
5
100
AcDbSymbolTableRecord
100
AcDbLinetypeTableRecord
  2
ByLayer
 70
     0
  3

 72
    65
 73
     0
 40
0.0
  0
LTYPE
  5
15
330
5
100
AcDbSymbolTableRecord
100
AcDbLinetypeTableRecord
  2
CONTINUOUS
 70
     0
  3
Solid line
 72
    65
 73
     0
 40
0.0
  0
LTYPE
  5
22
330
5
100
AcDbSymbolTableRecord
100
AcDbLinetypeTableRecord
  2
DASHED
 70
     0
  3
__ __ __ __ __ __ __ __ __ __ __ __ __ __ __
 72
    65
 73
     2
 40
0.000003
 49
0.000002
 74
     0
 49
-0.000001
 74
     0
  0
LTYPE
  5
23
330
5
100
AcDbSymbolTableRecord
100
AcDbLinetypeTableRecord
  2
HIDDEN
 70
     0
  3
 _ _ _ _ _ _ _ _ _ _ _ _ _ _ _ _ _ _ _ _ _ _
 72
    65
 73
     2
 40
0.000001
 49
0.000001
 74
     0
 49
0.0
 74
     0
  0
LTYPE
  5
24
330
5
100
AcDbSymbolTableRecord
100
AcDbLinetypeTableRecord
  2
CENTER
 70
     0
  3
____ _ ____ _ ____ _ ____ _ ____ _ ____ _ ____
 72
    65
 73
     4
 40
0.000008
 49
0.000005
 74
     0
 49
-0.000001
 74
     0
 49
0.000001
 74
     0
 49
-0.000001
 74
     0
  0
LTYPE
  5
25
330
5
100
AcDbSymbolTableRecord
100
AcDbLinetypeTableRecord
  2
PHANTOM
 70
     0
  3
_____ _ _ _____ _ _ _____ _ _ _____ _ _ ____
 72
    65
 73
     6
 40
0.00001
 49
0.000005
 74
     0
 49
-0.000001
 74
     0
 49
0.000001
 74
     0
 49
-0.000001
 74
     0
 49
0.000001
 74
     0
 49
-0.000001
 74
     0
  0
LTYPE
  5
26
330
5
100
AcDbSymbolTableRecord
100
AcDbLinetypeTableRecord
  2
DOT
 70
     0
  3
...............................................
 72
    65
 73
     2
 40
0.000001
 49
0.0
 74
     0
 49
-0.000001
 74
     0
  0
LTYPE
  5
27
330
5
100
AcDbSymbolTableRecord
100
AcDbLinetypeTableRecord
  2
DASHDOT
 70
     0
  3
__ . __ . __ . __ . __ . __ . __ . __ . __ . __
 72
    65
 73
     4
 40
0.000004
 49
0.000002
 74
     0
 49
-0.000001
 74
     0
 49
0.0
 74
     0
 49
-0.000001
 74
     0
  0
LTYPE
  5
28
330
5
100
AcDbSymbolTableRecord
100
AcDbLinetypeTableRecord
  2
BORDER
 70
     0
  3
__ __ . __ __ . __ __ . __ __ . __ __ . __ __
 72
    65
 73
     6
 40
0.000007
 49
0.000002
 74
     0
 49
-0.000001
 74
     0
 49
0.000002
 74
     0
 49
-0.000001
 74
     0
 49
0.0
 74
     0
 49
-0.000001
 74
     0
  0
LTYPE
  5
29
330
5
100
AcDbSymbolTableRecord
100
AcDbLinetypeTableRecord
  2
DIVIDE
 70
     0
  3
__ . . __ . . __ . . __ . . __ . . __ . . __
 72
    65
 73
     6
 40
0.000005
 49
0.000002
 74
     0
 49
-0.000001
 74
     0
 49
0.0
 74
     0
 49
-0.000001
 74
     0
 49
0.0
 74
     0
 49
-0.000001
 74
     0
  0
LTYPE
  5
2A
330
5
100
AcDbSymbolTableRecord
100
AcDbLinetypeTableRecord
  2
DOTDOT
 70
     0
  3
 . .  . .  . .  . .  . .  . . 
 72
    65
 73
     5
 40
0.000002
 49
-0.000001
 74
     0
 49
0.0
 74
     0
 49
-0.000001
 74
     0
 49
0.0
 74
     0
 49
-0.000001
 74
     0
  0
ENDTAB
  0
TABLE
  2
LAYER
  5
2
330
0
100
AcDbSymbolTable
 70
     4
  0
LAYER
  5
10
330
2
100
AcDbSymbolTableRecord
100
AcDbLayerTableRecord
  2
0
 70
     0
 62
     7
  6
CONTINUOUS
370
    -3
390
F
  0
LAYER
  5
33
330
2
100
AcDbSymbolTableRecord
100
AcDbLayerTableRecord
  2
FOREGROUND
 70
     0
 62
     7
  6
CONTINUOUS
370
    -3
390
F
  0
LAYER
  5
34
330
2
100
AcDbSymbolTableRecord
100
AcDbLayerTableRecord
  2
BACKGROUND
 70
     1
 62
    -7
  6
CONTINUOUS
370
    -3
390
F
  0
LAYER
  5
35
330
2
100
AcDbSymbolTableRecord
100
AcDbLayerTableRecord
  2
LAYER_1
 70
     0
 62
     7
  6
CONTINUOUS
370
    -3
390
F
  0
ENDTAB
  0
TABLE
  2
STYLE
  5
3
330
0
100
AcDbSymbolTable
 70
     9
  0
STYLE
  5
11
330
3
100
AcDbSymbolTableRecord
100
AcDbTextStyleTableRecord
  2
Standard
 70
     0
 40
0.0
 41
1.0
 50
0.0
 71
     0
 42
0.2
  3
txt
  4

  0
STYLE
  5
2B
330
3
100
AcDbSymbolTableRecord
100
AcDbTextStyleTableRecord
  2
SN0
 70
     0
 40
0.0
 41
0.000004
 50
0.0
 71
     0
 42
0.0
  3
ROMAND
  4

  0
STYLE
  5
2C
330
3
100
AcDbSymbolTableRecord
100
AcDbTextStyleTableRecord
  2
SV0
 70
     4
 40
0.0
 41
0.000004
 50
0.0
 71
     0
 42
0.0
  3
ROMAND
  4

  0
STYLE
  5
2D
330
3
100
AcDbSymbolTableRecord
100
AcDbTextStyleTableRecord
  2
SN1
 70
     0
 40
0.0
 41
0.000004
 50
0.0
 71
     0
 42
0.0
  3
ROMAND
  4

  0
STYLE
  5
2E
330
3
100
AcDbSymbolTableRecord
100
AcDbTextStyleTableRecord
  2
SV1
 70
     4
 40
0.0
 41
0.000004
 50
0.0
 71
     0
 42
0.0
  3
ROMAND
  4

  0
STYLE
  5
2F
330
3
100
AcDbSymbolTableRecord
100
AcDbTextStyleTableRecord
  2
SN2
 70
     0
 40
0.0
 41
0.000004
 50
0.0
 71
     0
 42
0.0
  3
ROMAND
  4

  0
STYLE
  5
30
330
3
100
AcDbSymbolTableRecord
100
AcDbTextStyleTableRecord
  2
SV2
 70
     4
 40
0.0
 41
0.000004
 50
0.0
 71
     0
 42
0.0
  3
ROMAND
  4

  0
STYLE
  5
31
330
3
100
AcDbSymbolTableRecord
100
AcDbTextStyleTableRecord
  2
SN3
 70
     0
 40
0.0
 41
0.000004
 50
0.0
 71
     0
 42
0.0
  3
ROMAND
  4

  0
STYLE
  5
32
330
3
100
AcDbSymbolTableRecord
100
AcDbTextStyleTableRecord
  2
SV3
 70
     4
 40
0.0
 41
0.000004
 50
0.0
 71
     0
 42
0.0
  3
ROMAND
  4

  0
ENDTAB
  0
TABLE
  2
VIEW
  5
6
330
0
100
AcDbSymbolTable
 70
     0
  0
ENDTAB
  0
TABLE
  2
UCS
  5
7
330
0
100
AcDbSymbolTable
 70
     0
  0
ENDTAB
  0
TABLE
  2
APPID
  5
9
330
0
100
AcDbSymbolTable
 70
     1
  0
APPID
  5
12
330
9
100
AcDbSymbolTableRecord
100
AcDbRegAppTableRecord
  2
ACAD
 70
     0
  0
ENDTAB
  0
TABLE
  2
DIMSTYLE
  5
A
330
0
100
AcDbSymbolTable
 70
     1
100
AcDbDimStyleTable
 71
     0
  0
DIMSTYLE
105
1482
330
A
100
AcDbSymbolTableRecord
100
AcDbDimStyleTableRecord
  2
Standard
 70
     0
340
11
  0
ENDTAB
  0
TABLE
  2
BLOCK_RECORD
  5
1
330
0
100
AcDbSymbolTable
 70
     0
  0
BLOCK_RECORD
  5
1E
330
1
100
AcDbSymbolTableRecord
100
AcDbBlockTableRecord
  2
*Model_Space
340
21
  0
BLOCK_RECORD
  5
1A
330
1
100
AcDbSymbolTableRecord
100
AcDbBlockTableRecord
  2
*Paper_Space
340
1D
  0
ENDTAB
  0
ENDSEC
  0
SECTION
  2
BLOCKS
  0
BLOCK
  5
1F
330
1E
100
AcDbEntity
  8
0
100
AcDbBlockBegin
  2
*Model_Space
 70
     0
 10
0.0
 20
0.0
 30
0.0
  3
*Model_Space
  1

  0
ENDBLK
  5
20
330
1E
100
AcDbEntity
  8
0
100
AcDbBlockEnd
  0
BLOCK
  5
1B
330
1A
100
AcDbEntity
 67
     1
  8
0
100
AcDbBlockBegin
  2
*Paper_Space
 70
     0
 10
0.0
 20
0.0
 30
0.0
  3
*Paper_Space
  1

  0
ENDBLK
  5
1C
330
1A
100
AcDbEntity
 67
     1
  8
0
100
AcDbBlockEnd
  0
ENDSEC
  0
SECTION
  2
ENTITIES
  0
SOLID
  5
39
330
1E
100
AcDbEntity
  8
LAYER_1
  6
Continuous
 62
   253
100
AcDbTrace
 10
1.724957
 20
-1.992995999999999
 30
0.0
 11
2.287122
 21
-1.974566999999999
 31
0.0
 12
1.728027999999999
 22
-2.274083
 32
0.0
 13
2.304011999999999
 23
-2.264858
 33
0.0
  0
LWPOLYLINE
  5
3A
330
1E
100
AcDbEntity
  8
LAYER_1
  6
Continuous
 62
   253
100
AcDbPolyline
 90
        4
 70
     1
 43
0.0
 10
1.724957
 20
-1.992995999999999
 10
2.287122
 20
-1.974566999999999
 10
2.304011999999999
 20
-2.264858
 10
1.728027999999999
 20
-2.274083
  0
LWPOLYLINE
  5
40
330
1E
100
AcDbEntity
  8
LAYER_1
  6
Continuous
 62
     7
100
AcDbPolyline
 90
        4
 70
     1
 43
0.0
 10
1.724957
 20
-1.992995999999999
 10
2.287122
 20
-1.974566999999999
 10
2.304011999999999
 20
-2.264858
 10
1.728027999999999
 20
-2.274083
  0
SOLID
  5
46
330
1E
100
AcDbEntity
  8
LAYER_1
  6
Continuous
 62
   153
100
AcDbTrace
 10
1.715732
 20
-1.532204999999999
 30
0.0
 11
2.277902
 21
-1.513776
 31
0.0
 12
1.712665
 22
-1.989929
 32
0.0
 13
2.302484
 23
-1.971495999999999
 33
0.0
  0
LWPOLYLINE
  5
47
330
1E
100
AcDbEntity
  8
LAYER_1
  6
Continuous
 62
   153
100
AcDbPolyline
 90
        4
 70
     1
 43
0.0
 10
1.715732
 20
-1.532204999999999
 10
2.277902
 20
-1.513776
 10
2.302484
 20
-1.971495999999999
 10
1.712665
 20
-1.989929
  0
LWPOLYLINE
  5
4D
330
1E
100
AcDbEntity
  8
LAYER_1
  6
Continuous
 62
     7
100
AcDbPolyline
 90
        4
 70
     1
 43
0.0
 10
1.715732
 20
-1.532204999999999
 10
2.277902
 20
-1.513776
 10
2.302484
 20
-1.971495999999999
 10
1.712665
 20
-1.989929
  0
LWPOLYLINE
  5
53
330
1E
100
AcDbEntity
  8
LAYER_1
  6
Continuous
 62
     7
100
AcDbPolyline
 90
        4
 70
     0
 43
0.0
 10
-0.075886
 20
1.298748
 10
-0.075918
 20
1.298445
 10
-0.076146
 20
1.296324
 10
-0.076764
 20
1.290567
  0
LWPOLYLINE
  5
59
330
1E
100
AcDbEntity
  8
LAYER_1
  6
Continuous
 62
     7
100
AcDbPolyline
 90
        4
 70
     0
 43
0.0
 10
-0.076764
 20
1.290567
 10
-0.077924
 20
1.279631999999999
 10
-0.079691
 20
1.263095
 10
-0.082067
 20
1.240819
  0
LWPOLYLINE
  5
5F
330
1E
100
AcDbEntity
  8
LAYER_1
  6
Continuous
 62
     7
100
AcDbPolyline
 90
        4
 70
     0
 43
0.0
 10
-0.082067
 20
1.240819
 10
-0.085028
 20
1.213006
 10
-0.088408
 20
1.181104
 10
-0.091996
 20
1.146912999999999
  0
LWPOLYLINE
  5
65
330
1E
100
AcDbEntity
  8
LAYER_1
  6
Continuous
 62
     7
100
AcDbPolyline
 90
        4
 70
     0
 43
0.0
 10
-0.091996
 20
1.146912999999999
 10
-0.095622
 20
1.111945999999999
 10
-0.099248
 20
1.076645999999999
 10
-0.102874
 20
1.041177
  0
LWPOLYLINE
  5
6B
330
1E
100
AcDbEntity
  8
LAYER_1
  6
Continuous
 62
     7
100
AcDbPolyline
 90
        4
 70
     0
 43
0.0
 10
-0.102874
 20
1.041177
 10
-0.106495
 20
1.005686999999999
 10
-0.110106
 20
0.970179
 10
-0.113693
 20
0.9346499999999998
  0
LWPOLYLINE
  5
71
330
1E
100
AcDbEntity
  8
LAYER_1
  6
Continuous
 62
     7
100
AcDbPolyline
 90
        4
 70
     0
 43
0.0
 10
-0.113693
 20
0.9346499999999998
 10
-0.117232
 20
0.8990679999999999
 10
-0.120746
 20
0.8634639999999999
 10
-0.124248
 20
0.8278459999999999
  0
LWPOLYLINE
  5
77
330
1E
100
AcDbEntity
  8
LAYER_1
  6
Continuous
 62
     7
100
AcDbPolyline
 90
        4
 70
     0
 43
0.0
 10
-0.124248
 20
0.8278459999999999
 10
-0.127745
 20
0.792235
 10
-0.131227
 20
0.7566390000000001
 10
-0.134677
 20
0.7210670000000001
  0
LWPOLYLINE
  5
7D
330
1E
100
AcDbEntity
  8
LAYER_1
  6
Continuous
 62
     7
100
AcDbPolyline
 90
        4
 70
     0
 43
0.0
 10
-0.134677
 20
0.7210670000000001
 10
-0.138099
 20
0.685526
 10
-0.141475
 20
0.649998
 10
-0.144803
 20
0.6144569999999999
  0
LWPOLYLINE
  5
83
330
1E
100
AcDbEntity
  8
LAYER_1
  6
Continuous
 62
     7
100
AcDbPolyline
 90
        4
 70
     0
 43
0.0
 10
-0.144803
 20
0.6144569999999999
 10
-0.148093
 20
0.578892
 10
-0.151357
 20
0.543342
 10
-0.15461
 20
0.5078580000000001
  0
LWPOLYLINE
  5
89
330
1E
100
AcDbEntity
  8
LAYER_1
  6
Continuous
 62
     7
100
AcDbPolyline
 90
        4
 70
     0
 43
0.0
 10
-0.15461
 20
0.5078580000000001
 10
-0.157855
 20
0.47249
 10
-0.161072
 20
0.437233
 10
-0.164232
 20
0.402067
  0
LWPOLYLINE
  5
8F
330
1E
100
AcDbEntity
  8
LAYER_1
  6
Continuous
 62
     7
100
AcDbPolyline
 90
        4
 70
     0
 43
0.0
 10
-0.164232
 20
0.402067
 10
-0.167321
 20
0.366978
 10
-0.170354
 20
0.33187
 10
-0.173358
 20
0.29665
  0
LWPOLYLINE
  5
95
330
1E
100
AcDbEntity
  8
LAYER_1
  6
Continuous
 62
     7
100
AcDbPolyline
 90
        4
 70
     0
 43
0.0
 10
-0.173358
 20
0.29665
 10
-0.176358
 20
0.261254
 10
-0.179358
 20
0.225722
 10
-0.182358
 20
0.190122
  0
LWPOLYLINE
  5
9B
330
1E
100
AcDbEntity
  8
LAYER_1
  6
Continuous
 62
     7
100
AcDbPolyline
 90
        4
 70
     0
 43
0.0
 10
-0.182358
 20
0.190122
 10
-0.185358
 20
0.154502
 10
-0.188358
 20
0.118884
 10
-0.191358
 20
0.083264
  0
LWPOLYLINE
  5
A1
330
1E
100
AcDbEntity
  8
LAYER_1
  6
Continuous
 62
     7
100
AcDbPolyline
 90
        4
 70
     0
 43
0.0
 10
-0.191358
 20
0.083264
 10
-0.194356
 20
0.047648
 10
-0.197338
 20
0.012031
 10
-0.200291
 20
-0.023583
  0
LWPOLYLINE
  5
A7
330
1E
100
AcDbEntity
  8
LAYER_1
  6
Continuous
 62
     7
100
AcDbPolyline
 90
        4
 70
     0
 43
0.0
 10
-0.200291
 20
-0.023583
 10
-0.203207
 20
-0.059197
 10
-0.206079
 20
-0.094815
 10
-0.208913
 20
-0.130429
  0
LWPOLYLINE
  5
AD
330
1E
100
AcDbEntity
  8
LAYER_1
  6
Continuous
 62
     7
100
AcDbPolyline
 90
        4
 70
     0
 43
0.0
 10
-0.208913
 20
-0.130429
 10
-0.21171
 20
-0.166051
 10
-0.214461
 20
-0.201669
 10
-0.217165
 20
-0.237291
  0
LWPOLYLINE
  5
B3
330
1E
100
AcDbEntity
  8
LAYER_1
  6
Continuous
 62
     7
100
AcDbPolyline
 90
        4
 70
     0
 43
0.0
 10
-0.217165
 20
-0.237291
 10
-0.219829
 20
-0.272904
 10
-0.222467
 20
-0.308507
 10
-0.225094
 20
-0.344083
  0
LWPOLYLINE
  5
B9
330
1E
100
AcDbEntity
  8
LAYER_1
  6
Continuous
 62
     7
100
AcDbPolyline
 90
        4
 70
     0
 43
0.0
 10
-0.225094
 20
-0.344083
 10
-0.227714
 20
-0.379617
 10
-0.230293
 20
-0.415124
 10
-0.232791
 20
-0.450622
  0
LWPOLYLINE
  5
BF
330
1E
100
AcDbEntity
  8
LAYER_1
  6
Continuous
 62
     7
100
AcDbPolyline
 90
        4
 70
     0
 43
0.0
 10
-0.232791
 20
-0.450622
 10
-0.235167
 20
-0.4861100000000001
 10
-0.237463
 20
-0.521599
 10
-0.23972
 20
-0.5570940000000001
  0
LWPOLYLINE
  5
C5
330
1E
100
AcDbEntity
  8
LAYER_1
  6
Continuous
 62
     7
100
AcDbPolyline
 90
        4
 70
     0
 43
0.0
 10
-0.23972
 20
-0.5570940000000001
 10
-0.241962
 20
-0.592586
 10
-0.244162
 20
-0.628078
 10
-0.246276
 20
-0.6635670000000001
  0
LWPOLYLINE
  5
CB
330
1E
100
AcDbEntity
  8
LAYER_1
  6
Continuous
 62
     7
100
AcDbPolyline
 90
        4
 70
     0
 43
0.0
 10
-0.246276
 20
-0.6635670000000001
 10
-0.248286
 20
-0.699064
 10
-0.250193
 20
-0.734558
 10
-0.252028
 20
-0.7700550000000001
  0
LWPOLYLINE
  5
D1
330
1E
100
AcDbEntity
  8
LAYER_1
  6
Continuous
 62
     7
100
AcDbPolyline
 90
        4
 70
     0
 43
0.0
 10
-0.252028
 20
-0.7700550000000001
 10
-0.253821
 20
-0.805541
 10
-0.255556
 20
-0.8410309999999999
 10
-0.25722
 20
-0.876528
  0
LWPOLYLINE
  5
D7
330
1E
100
AcDbEntity
  8
LAYER_1
  6
Continuous
 62
     7
100
AcDbPolyline
 90
        4
 70
     0
 43
0.0
 10
-0.25722
 20
-0.876528
 10
-0.258804
 20
-0.9120139999999999
 10
-0.260304
 20
-0.9474909999999999
 10
-0.26172
 20
-0.9829409999999999
  0
LWPOLYLINE
  5
DD
330
1E
100
AcDbEntity
  8
LAYER_1
  6
Continuous
 62
     7
100
AcDbPolyline
 90
        4
 70
     0
 43
0.0
 10
-0.26172
 20
-0.9829409999999999
 10
-0.263051
 20
-1.018353
 10
-0.264284
 20
-1.053735
 10
-0.265402
 20
-1.08911
  0
LWPOLYLINE
  5
E3
330
1E
100
AcDbEntity
  8
LAYER_1
  6
Continuous
 62
     7
100
AcDbPolyline
 90
        4
 70
     0
 43
0.0
 10
-0.265402
 20
-1.08911
 10
-0.266405
 20
-1.124473999999999
 10
-0.267281
 20
-1.159840999999999
 10
-0.2680280000000001
 20
-1.195204999999999
  0
LWPOLYLINE
  5
E9
330
1E
100
AcDbEntity
  8
LAYER_1
  6
Continuous
 62
     7
100
AcDbPolyline
 90
        4
 70
     0
 43
0.0
 10
-0.2680280000000001
 20
-1.195204999999999
 10
-0.268656
 20
-1.230574999999999
 10
-0.269156
 20
-1.265924999999999
 10
-0.269528
 20
-1.301247999999999
  0
LWPOLYLINE
  5
EF
330
1E
100
AcDbEntity
  8
LAYER_1
  6
Continuous
 62
     7
100
AcDbPolyline
 90
        4
 70
     0
 43
0.0
 10
-0.269528
 20
-1.301247999999999
 10
-0.269781
 20
-1.336532
 10
-0.269905
 20
-1.371770999999999
 10
-0.269902
 20
-1.406969
  0
LWPOLYLINE
  5
F5
330
1E
100
AcDbEntity
  8
LAYER_1
  6
Continuous
 62
     7
100
AcDbPolyline
 90
        4
 70
     0
 43
0.0
 10
-0.269902
 20
-1.406969
 10
-0.269779
 20
-1.442132999999999
 10
-0.269514
 20
-1.477268999999999
 10
-0.269094
 20
-1.512386
  0
LWPOLYLINE
  5
FB
330
1E
100
AcDbEntity
  8
LAYER_1
  6
Continuous
 62
     7
100
AcDbPolyline
 90
        4
 70
     0
 43
0.0
 10
-0.269094
 20
-1.512386
 10
-0.268509
 20
-1.547495999999999
 10
-0.267742
 20
-1.582581999999999
 10
-0.266776
 20
-1.617609999999999
  0
LWPOLYLINE
  5
101
330
1E
100
AcDbEntity
  8
LAYER_1
  6
Continuous
 62
     7
100
AcDbPolyline
 90
        4
 70
     0
 43
0.0
 10
-0.266776
 20
-1.617609999999999
 10
-0.265614
 20
-1.652563999999999
 10
-0.264239
 20
-1.687432
 10
-0.26265
 20
-1.72222
  0
LWPOLYLINE
  5
107
330
1E
100
AcDbEntity
  8
LAYER_1
  6
Continuous
 62
     7
100
AcDbPolyline
 90
        4
 70
     0
 43
0.0
 10
-0.26265
 20
-1.72222
 10
-0.26086
 20
-1.756918999999999
 10
-0.258846
 20
-1.791536999999999
 10
-0.256594
 20
-1.826066999999999
  0
LWPOLYLINE
  5
10D
330
1E
100
AcDbEntity
  8
LAYER_1
  6
Continuous
 62
     7
100
AcDbPolyline
 90
        4
 70
     0
 43
0.0
 10
-0.256594
 20
-1.826066999999999
 10
-0.254088
 20
-1.860515
 10
-0.251291
 20
-1.894833
 10
-0.248165
 20
-1.928983999999999
  0
LWPOLYLINE
  5
113
330
1E
100
AcDbEntity
  8
LAYER_1
  6
Continuous
 62
     7
100
AcDbPolyline
 90
        4
 70
     0
 43
0.0
 10
-0.248165
 20
-1.928983999999999
 10
-0.24466
 20
-1.962931
 10
-0.240781
 20
-1.996656
 10
-0.236528
 20
-2.030149999999999
  0
LWPOLYLINE
  5
119
330
1E
100
AcDbEntity
  8
LAYER_1
  6
Continuous
 62
     7
100
AcDbPolyline
 90
        4
 70
     0
 43
0.0
 10
-0.236528
 20
-2.030149999999999
 10
-0.231895
 20
-2.063375999999999
 10
-0.226818
 20
-2.096271999999999
 10
-0.221232
 20
-2.128747999999999
  0
LWPOLYLINE
  5
11F
330
1E
100
AcDbEntity
  8
LAYER_1
  6
Continuous
 62
     7
100
AcDbPolyline
 90
        4
 70
     0
 43
0.0
 10
-0.221232
 20
-2.128747999999999
 10
-0.215059
 20
-2.160722999999999
 10
-0.208294
 20
-2.192069
 10
-0.200913
 20
-2.222665
  0
LWPOLYLINE
  5
125
330
1E
100
AcDbEntity
  8
LAYER_1
  6
Continuous
 62
     7
100
AcDbPolyline
 90
        4
 70
     0
 43
0.0
 10
-0.200913
 20
-2.222665
 10
-0.192925
 20
-2.252349999999999
 10
-0.184351
 20
-2.2808
 10
-0.175232
 20
-2.30765
  0
LWPOLYLINE
  5
12B
330
1E
100
AcDbEntity
  8
LAYER_1
  6
Continuous
 62
     7
100
AcDbPolyline
 90
        4
 70
     0
 43
0.0
 10
-0.175232
 20
-2.30765
 10
-0.165659
 20
-2.33254
 10
-0.155895
 20
-2.355081999999999
 10
-0.146248
 20
-2.374886
  0
LWPOLYLINE
  5
131
330
1E
100
AcDbEntity
  8
LAYER_1
  6
Continuous
 62
     7
100
AcDbPolyline
 90
        4
 70
     0
 43
0.0
 10
-0.146248
 20
-2.374886
 10
-0.136978
 20
-2.391672
 10
-0.128251
 20
-2.405571
 10
-0.120193
 20
-2.416818999999999
  0
LWPOLYLINE
  5
137
330
1E
100
AcDbEntity
  8
LAYER_1
  6
Continuous
 62
     7
100
AcDbPolyline
 90
        4
 70
     0
 43
0.0
 10
-0.120193
 20
-2.416818999999999
 10
-0.112882
 20
-2.425679999999999
 10
-0.106286
 20
-2.432541
 10
-0.100319
 20
-2.437818999999999
  0
LWPOLYLINE
  5
13D
330
1E
100
AcDbEntity
  8
LAYER_1
  6
Continuous
 62
     7
100
AcDbPolyline
 90
        4
 70
     0
 43
0.0
 10
-0.100319
 20
-2.437818999999999
 10
-0.094882
 20
-2.441875999999999
 10
-0.08991
 20
-2.444925999999999
 10
-0.085319
 20
-2.447122
  0
LWPOLYLINE
  5
143
330
1E
100
AcDbEntity
  8
LAYER_1
  6
Continuous
 62
     7
100
AcDbPolyline
 90
        4
 70
     0
 43
0.0
 10
-0.085319
 20
-2.447122
 10
-0.081014
 20
-2.448566999999999
 10
-0.076937
 20
-2.449251999999999
 10
-0.073012
 20
-2.449122
  0
LWPOLYLINE
  5
149
330
1E
100
AcDbEntity
  8
LAYER_1
  6
Continuous
 62
     7
100
AcDbPolyline
 90
        4
 70
     0
 43
0.0
 10
-0.073012
 20
-2.449122
 10
-0.069186
 20
-2.448109
 10
-0.065486
 20
-2.446168999999999
 10
-0.061957
 20
-2.443248
  0
LWPOLYLINE
  5
14F
330
1E
100
AcDbEntity
  8
LAYER_1
  6
Continuous
 62
     7
100
AcDbPolyline
 90
        4
 70
     0
 43
0.0
 10
-0.061957
 20
-2.443248
 10
-0.058606
 20
-2.43927
 10
-0.055399
 20
-2.434092999999999
 10
-0.052264
 20
-2.427566999999999
  0
LWPOLYLINE
  5
155
330
1E
100
AcDbEntity
  8
LAYER_1
  6
Continuous
 62
     7
100
AcDbPolyline
 90
        4
 70
     0
 43
0.0
 10
-0.052264
 20
-2.427566999999999
 10
-0.04913
 20
-2.419468999999999
 10
-0.045929
 20
-2.409274
 10
-0.042583
 20
-2.396386
  0
LWPOLYLINE
  5
15B
330
1E
100
AcDbEntity
  8
LAYER_1
  6
Continuous
 62
     7
100
AcDbPolyline
 90
        4
 70
     0
 43
0.0
 10
-0.042583
 20
-2.396386
 10
-0.039065
 20
-2.380283
 10
-0.035463
 20
-2.360786
 10
-0.031902
 20
-2.337775999999999
  0
LWPOLYLINE
  5
161
330
1E
100
AcDbEntity
  8
LAYER_1
  6
Continuous
 62
     7
100
AcDbPolyline
 90
        4
 70
     0
 43
0.0
 10
-0.031902
 20
-2.337775999999999
 10
-0.028506
 20
-2.311297
 10
-0.025403
 20
-2.282040999999999
 10
-0.02272
 20
-2.250858
  0
LWPOLYLINE
  5
167
330
1E
100
AcDbEntity
  8
LAYER_1
  6
Continuous
 62
     7
100
AcDbPolyline
 90
        4
 70
     0
 43
0.0
 10
-0.02272
 20
-2.250858
 10
-0.020534
 20
-2.218481999999999
 10
-0.018808
 20
-2.185262999999999
 10
-0.017457
 20
-2.151441
  0
LWPOLYLINE
  5
16D
330
1E
100
AcDbEntity
  8
LAYER_1
  6
Continuous
 62
     7
100
AcDbPolyline
 90
        4
 70
     0
 43
0.0
 10
-0.017457
 20
-2.151441
 10
-0.016418
 20
-2.117211
 10
-0.015653
 20
-2.082688
 10
-0.01515
 20
-2.047956999999999
  0
LWPOLYLINE
  5
173
330
1E
100
AcDbEntity
  8
LAYER_1
  6
Continuous
 62
     7
100
AcDbPolyline
 90
        4
 70
     0
 43
0.0
 10
-0.01515
 20
-2.047956999999999
 10
-0.014893
 20
-2.013091999999999
 10
-0.014843
 20
-1.978116999999999
 10
-0.014957
 20
-1.943038999999999
  0
LWPOLYLINE
  5
179
330
1E
100
AcDbEntity
  8
LAYER_1
  6
Continuous
 62
     7
100
AcDbPolyline
 90
        4
 70
     0
 43
0.0
 10
-0.014957
 20
-1.943038999999999
 10
-0.015211
 20
-1.907886999999999
 10
-0.01559
 20
-1.872647
 10
-0.016094
 20
-1.837318999999999
  0
LWPOLYLINE
  5
17F
330
1E
100
AcDbEntity
  8
LAYER_1
  6
Continuous
 62
     7
100
AcDbPolyline
 90
        4
 70
     0
 43
0.0
 10
-0.016094
 20
-1.837318999999999
 10
-0.016714
 20
-1.801916
 10
-0.017461
 20
-1.766454999999999
 10
-0.018331
 20
-1.730968999999999
  0
LWPOLYLINE
  5
185
330
1E
100
AcDbEntity
  8
LAYER_1
  6
Continuous
 62
     7
100
AcDbPolyline
 90
        4
 70
     0
 43
0.0
 10
-0.018331
 20
-1.730968999999999
 10
-0.019331
 20
-1.695470999999999
 10
-0.020425
 20
-1.659963999999999
 10
-0.021583
 20
-1.624429
  0
LWPOLYLINE
  5
18B
330
1E
100
AcDbEntity
  8
LAYER_1
  6
Continuous
 62
     7
100
AcDbPolyline
 90
        4
 70
     0
 43
0.0
 10
-0.021583
 20
-1.624429
 10
-0.022793
 20
-1.588853999999999
 10
-0.024029
 20
-1.55325
 10
-0.025276
 20
-1.517637999999999
  0
LWPOLYLINE
  5
191
330
1E
100
AcDbEntity
  8
LAYER_1
  6
Continuous
 62
     7
100
AcDbPolyline
 90
        4
 70
     0
 43
0.0
 10
-0.025276
 20
-1.517637999999999
 10
-0.026531
 20
-1.482013999999999
 10
-0.027813
 20
-1.446380999999999
 10
-0.02915
 20
-1.410719999999999
  0
LWPOLYLINE
  5
197
330
1E
100
AcDbEntity
  8
LAYER_1
  6
Continuous
 62
     7
100
AcDbPolyline
 90
        4
 70
     0
 43
0.0
 10
-0.02915
 20
-1.410719999999999
 10
-0.030564
 20
-1.375020999999999
 10
-0.032032
 20
-1.339280999999999
 10
-0.033528
 20
-1.3035
  0
LWPOLYLINE
  5
19D
330
1E
100
AcDbEntity
  8
LAYER_1
  6
Continuous
 62
     7
100
AcDbPolyline
 90
        4
 70
     0
 43
0.0
 10
-0.033528
 20
-1.3035
 10
-0.035021
 20
-1.267676
 10
-0.036524
 20
-1.231836
 10
-0.038028
 20
-1.196012
  0
LWPOLYLINE
  5
1A3
330
1E
100
AcDbEntity
  8
LAYER_1
  6
Continuous
 62
     7
100
AcDbPolyline
 90
        4
 70
     0
 43
0.0
 10
-0.038028
 20
-1.196012
 10
-0.039528
 20
-1.160229999999999
 10
-0.041028
 20
-1.124454999999999
 10
-0.042528
 20
-1.088664999999999
  0
LWPOLYLINE
  5
1A9
330
1E
100
AcDbEntity
  8
LAYER_1
  6
Continuous
 62
     7
100
AcDbPolyline
 90
        4
 70
     0
 43
0.0
 10
-0.042528
 20
-1.088664999999999
 10
-0.044024
 20
-1.052844
 10
-0.045521
 20
-1.017012
 10
-0.047028
 20
-0.981193
  0
LWPOLYLINE
  5
1AF
330
1E
100
AcDbEntity
  8
LAYER_1
  6
Continuous
 62
     7
100
AcDbPolyline
 90
        4
 70
     0
 43
0.0
 10
-0.047028
 20
-0.981193
 10
-0.04852
 20
-0.945404
 10
-0.050019
 20
-0.909628
 10
-0.051512
 20
-0.8738309999999998
  0
LWPOLYLINE
  5
1B5
330
1E
100
AcDbEntity
  8
LAYER_1
  6
Continuous
 62
     7
100
AcDbPolyline
 90
        4
 70
     0
 43
0.0
 10
-0.051512
 20
-0.8738309999999998
 10
-0.053019
 20
-0.8380169999999999
 10
-0.054515
 20
-0.8021819999999999
 10
-0.056012
 20
-0.766358
  0
LWPOLYLINE
  5
1BB
330
1E
100
AcDbEntity
  8
LAYER_1
  6
Continuous
 62
     7
100
AcDbPolyline
 90
        4
 70
     0
 43
0.0
 10
-0.056012
 20
-0.766358
 10
-0.05751
 20
-0.730574
 10
-0.058995
 20
-0.6948170000000001
 10
-0.060457
 20
-0.659067
  0
LWPOLYLINE
  5
1C1
330
1E
100
AcDbEntity
  8
LAYER_1
  6
Continuous
 62
     7
100
AcDbPolyline
 90
        4
 70
     0
 43
0.0
 10
-0.060457
 20
-0.659067
 10
-0.061871
 20
-0.6233260000000001
 10
-0.063261
 20
-0.5875690000000001
 10
-0.064638
 20
-0.5517910000000001
  0
LWPOLYLINE
  5
1C7
330
1E
100
AcDbEntity
  8
LAYER_1
  6
Continuous
 62
     7
100
AcDbPolyline
 90
        4
 70
     0
 43
0.0
 10
-0.064638
 20
-0.5517910000000001
 10
-0.066012
 20
-0.5159600000000001
 10
-0.067387
 20
-0.480124
 10
-0.068764
 20
-0.444303
  0
LWPOLYLINE
  5
1CD
330
1E
100
AcDbEntity
  8
LAYER_1
  6
Continuous
 62
     7
100
AcDbPolyline
 90
        4
 70
     0
 43
0.0
 10
-0.068764
 20
-0.444303
 10
-0.070136
 20
-0.408519
 10
-0.071495
 20
-0.372762
 10
-0.072831
 20
-0.337012
  0
LWPOLYLINE
  5
1D3
330
1E
100
AcDbEntity
  8
LAYER_1
  6
Continuous
 62
     7
100
AcDbPolyline
 90
        4
 70
     0
 43
0.0
 10
-0.072831
 20
-0.337012
 10
-0.07412
 20
-0.301273
 10
-0.075385
 20
-0.265531
 10
-0.076638
 20
-0.229791
  0
LWPOLYLINE
  5
1D9
330
1E
100
AcDbEntity
  8
LAYER_1
  6
Continuous
 62
     7
100
AcDbPolyline
 90
        4
 70
     0
 43
0.0
 10
-0.076638
 20
-0.229791
 10
-0.077879
 20
-0.194044
 10
-0.079114
 20
-0.158304
 10
-0.080319
 20
-0.122567
  0
LWPOLYLINE
  5
1DF
330
1E
100
AcDbEntity
  8
LAYER_1
  6
Continuous
 62
     7
100
AcDbPolyline
 90
        4
 70
     0
 43
0.0
 10
-0.080319
 20
-0.122567
 10
-0.081486
 20
-0.086822
 10
-0.082628
 20
-0.051078
 10
-0.083748
 20
-0.015331
  0
LWPOLYLINE
  5
1E5
330
1E
100
AcDbEntity
  8
LAYER_1
  6
Continuous
 62
     7
100
AcDbPolyline
 90
        4
 70
     0
 43
0.0
 10
-0.083748
 20
-0.015331
 10
-0.084874
 20
0.020406
 10
-0.085988
 20
0.056147
 10
-0.087067
 20
0.091886
  0
LWPOLYLINE
  5
1EB
330
1E
100
AcDbEntity
  8
LAYER_1
  6
Continuous
 62
     7
100
AcDbPolyline
 90
        4
 70
     0
 43
0.0
 10
-0.087067
 20
0.091886
 10
-0.088107
 20
0.127617
 10
-0.089111
 20
0.163295
 10
-0.090067
 20
0.198858
  0
LWPOLYLINE
  5
1F1
330
1E
100
AcDbEntity
  8
LAYER_1
  6
Continuous
 62
     7
100
AcDbPolyline
 90
        4
 70
     0
 43
0.0
 10
-0.090067
 20
0.198858
 10
-0.090972
 20
0.234211
 10
-0.091801
 20
0.2690329999999999
 10
-0.092512
 20
0.302969
  0
LWPOLYLINE
  5
1F7
330
1E
100
AcDbEntity
  8
LAYER_1
  6
Continuous
 62
     7
100
AcDbPolyline
 90
        4
 70
     0
 43
0.0
 10
-0.092512
 20
0.302969
 10
-0.093037
 20
0.335846
 10
-0.093362
 20
0.368297
 10
-0.093441
 20
0.401138
  0
LWPOLYLINE
  5
1FD
330
1E
100
AcDbEntity
  8
LAYER_1
  6
Continuous
 62
     7
100
AcDbPolyline
 90
        4
 70
     0
 43
0.0
 10
-0.093441
 20
0.401138
 10
-0.093246
 20
0.4349870000000001
 10
-0.092847
 20
0.469699
 10
-0.092319
 20
0.504929
  0
LWPOLYLINE
  5
203
330
1E
100
AcDbEntity
  8
LAYER_1
  6
Continuous
 62
     7
100
AcDbPolyline
 90
        4
 70
     0
 43
0.0
 10
-0.092319
 20
0.504929
 10
-0.091732
 20
0.5403700000000001
 10
-0.09112
 20
0.5759370000000001
 10
-0.090496
 20
0.611583
  0
LWPOLYLINE
  5
209
330
1E
100
AcDbEntity
  8
LAYER_1
  6
Continuous
 62
     7
100
AcDbPolyline
 90
        4
 70
     0
 43
0.0
 10
-0.090496
 20
0.611583
 10
-0.089874
 20
0.647288
 10
-0.089239
 20
0.683013
 10
-0.088567
 20
0.7187479999999999
  0
LWPOLYLINE
  5
20F
330
1E
100
AcDbEntity
  8
LAYER_1
  6
Continuous
 62
     7
100
AcDbPolyline
 90
        4
 70
     0
 43
0.0
 10
-0.088567
 20
0.7187479999999999
 10
-0.087855
 20
0.754495
 10
-0.087105
 20
0.790237
 10
-0.086319
 20
0.825984
  0
LWPOLYLINE
  5
215
330
1E
100
AcDbEntity
  8
LAYER_1
  6
Continuous
 62
     7
100
AcDbPolyline
 90
        4
 70
     0
 43
0.0
 10
-0.086319
 20
0.825984
 10
-0.085486
 20
0.861721
 10
-0.084607
 20
0.897446
 10
-0.083693
 20
0.9331379999999999
  0
LWPOLYLINE
  5
21B
330
1E
100
AcDbEntity
  8
LAYER_1
  6
Continuous
 62
     7
100
AcDbPolyline
 90
        4
 70
     0
 43
0.0
 10
-0.083693
 20
0.9331379999999999
 10
-0.082742
 20
0.968804
 10
-0.081756
 20
1.004456
 10
-0.080748
 20
1.040121999999999
  0
LWPOLYLINE
  5
221
330
1E
100
AcDbEntity
  8
LAYER_1
  6
Continuous
 62
     7
100
AcDbPolyline
 90
        4
 70
     0
 43
0.0
 10
-0.080748
 20
1.040121999999999
 10
-0.079756
 20
1.07579
 10
-0.078742
 20
1.111302
 10
-0.077693
 20
1.146468999999999
  0
LWPOLYLINE
  5
227
330
1E
100
AcDbEntity
  8
LAYER_1
  6
Continuous
 62
     7
100
AcDbPolyline
 90
        4
 70
     0
 43
0.0
 10
-0.077693
 20
1.146468999999999
 10
-0.076628
 20
1.180833
 10
-0.0756
 20
1.212863999999999
 10
-0.074693
 20
1.240763999999999
  0
LWPOLYLINE
  5
22D
330
1E
100
AcDbEntity
  8
LAYER_1
  6
Continuous
 62
     7
100
AcDbPolyline
 90
        4
 70
     0
 43
0.0
 10
-0.074693
 20
1.240763999999999
 10
-0.073986
 20
1.263079
 10
-0.073472
 20
1.279629999999999
 10
-0.073138
 20
1.290567
  0
LWPOLYLINE
  5
233
330
1E
100
AcDbEntity
  8
LAYER_1
  6
Continuous
 62
     7
100
AcDbPolyline
 90
        4
 70
     0
 43
0.0
 10
-0.073138
 20
1.290567
 10
-0.07296
 20
1.296324
 10
-0.072895
 20
1.298445
 10
-0.072886
 20
1.298748
  0
SOLID
  5
239
330
1E
100
AcDbEntity
  8
LAYER_1
  6
Continuous
100
AcDbTrace
 10
-0.179665
 20
0.349374
 30
0.0
 11
-0.156622
 21
0.349374
 31
0.0
 12
-0.177358
 22
0.39622
 32
0.0
 13
-0.153539
 23
0.39315
 33
0.0
  0
LWPOLYLINE
  5
23A
330
1E
100
AcDbEntity
  8
LAYER_1
  6
Continuous
100
AcDbPolyline
 90
        4
 70
     1
 43
0.0
 10
-0.179665
 20
0.349374
 10
-0.156622
 20
0.349374
 10
-0.153539
 20
0.39315
 10
-0.177358
 20
0.39622
  0
LWPOLYLINE
  5
240
330
1E
100
AcDbEntity
  8
LAYER_1
  6
Continuous
 62
     7
100
AcDbPolyline
 90
        4
 70
     0
 43
0.0
 10
0.351764
 20
2.364177
 10
0.351706
 20
2.363688
 10
0.351298
 20
2.360263
 10
0.350193
 20
2.350969
  0
LWPOLYLINE
  5
246
330
1E
100
AcDbEntity
  8
LAYER_1
  6
Continuous
 62
     7
100
AcDbPolyline
 90
        4
 70
     0
 43
0.0
 10
0.350193
 20
2.350969
 10
0.348075
 20
2.333300999999999
 10
0.344843
 20
2.306494999999999
 10
0.340429
 20
2.270232
  0
LWPOLYLINE
  5
24C
330
1E
100
AcDbEntity
  8
LAYER_1
  6
Continuous
 62
     7
100
AcDbPolyline
 90
        4
 70
     0
 43
0.0
 10
0.340429
 20
2.270232
 10
0.334826
 20
2.224720999999999
 10
0.328363
 20
2.172251999999999
 10
0.321429
 20
2.115638
  0
LWPOLYLINE
  5
252
330
1E
100
AcDbEntity
  8
LAYER_1
  6
Continuous
 62
     7
100
AcDbPolyline
 90
        4
 70
     0
 43
0.0
 10
0.321429
 20
2.115638
 10
0.314369
 20
2.057301999999999
 10
0.307259
 20
1.998072
 10
0.300122
 20
1.938358
  0
LWPOLYLINE
  5
258
330
1E
100
AcDbEntity
  8
LAYER_1
  6
Continuous
 62
     7
100
AcDbPolyline
 90
        4
 70
     0
 43
0.0
 10
0.300122
 20
1.938358
 10
0.292985
 20
1.878498
 10
0.28585
 20
1.818574
 10
0.2787199999999999
 20
1.758583
  0
LWPOLYLINE
  5
25E
330
1E
100
AcDbEntity
  8
LAYER_1
  6
Continuous
 62
     7
100
AcDbPolyline
 90
        4
 70
     0
 43
0.0
 10
0.2787199999999999
 20
1.758583
 10
0.271572
 20
1.698517999999999
 10
0.26443
 20
1.638436
 10
0.257291
 20
1.578373999999999
  0
LWPOLYLINE
  5
264
330
1E
100
AcDbEntity
  8
LAYER_1
  6
Continuous
 62
     7
100
AcDbPolyline
 90
        4
 70
     0
 43
0.0
 10
0.257291
 20
1.578373999999999
 10
0.250162
 20
1.518379
 10
0.243081
 20
1.458429999999999
 10
0.236083
 20
1.3985
  0
LWPOLYLINE
  5
26A
330
1E
100
AcDbEntity
  8
LAYER_1
  6
Continuous
 62
     7
100
AcDbPolyline
 90
        4
 70
     0
 43
0.0
 10
0.236083
 20
1.3985
 10
0.229222
 20
1.338569
 10
0.222445
 20
1.278640999999999
 10
0.215705
 20
1.21872
  0
LWPOLYLINE
  5
270
330
1E
100
AcDbEntity
  8
LAYER_1
  6
Continuous
 62
     7
100
AcDbPolyline
 90
        4
 70
     0
 43
0.0
 10
0.215705
 20
1.21872
 10
0.208999
 20
1.15881
 10
0.202333
 20
1.099015999999999
 10
0.195764
 20
1.039457
  0
LWPOLYLINE
  5
276
330
1E
100
AcDbEntity
  8
LAYER_1
  6
Continuous
 62
     7
100
AcDbPolyline
 90
        4
 70
     0
 43
0.0
 10
0.195764
 20
1.039457
 10
0.189311
 20
0.980227
 10
0.183008
 20
0.9214209999999999
 10
0.176846
 20
0.8631099999999999
  0
LWPOLYLINE
  5
27C
330
1E
100
AcDbEntity
  8
LAYER_1
  6
Continuous
 62
     7
100
AcDbPolyline
 90
        4
 70
     0
 43
0.0
 10
0.176846
 20
0.8631099999999999
 10
0.170806
 20
0.805255
 10
0.164838
 20
0.7474920000000001
 10
0.158874
 20
0.689358
  0
LWPOLYLINE
  5
282
330
1E
100
AcDbEntity
  8
LAYER_1
  6
Continuous
 62
     7
100
AcDbPolyline
 90
        4
 70
     0
 43
0.0
 10
0.158874
 20
0.689358
 10
0.152853
 20
0.630512
 10
0.146834
 20
0.57109
 10
0.140886
 20
0.511346
  0
LWPOLYLINE
  5
288
330
1E
100
AcDbEntity
  8
LAYER_1
  6
Continuous
 62
     7
100
AcDbPolyline
 90
        4
 70
     0
 43
0.0
 10
0.140886
 20
0.511346
 10
0.135061
 20
0.451494
 10
0.129326
 20
0.391591
 10
0.123638
 20
0.331665
  0
LWPOLYLINE
  5
28E
330
1E
100
AcDbEntity
  8
LAYER_1
  6
Continuous
 62
     7
100
AcDbPolyline
 90
        4
 70
     0
 43
0.0
 10
0.123638
 20
0.331665
 10
0.117964
 20
0.271734
 10
0.112334
 20
0.211807
 10
0.106791
 20
0.151886
  0
LWPOLYLINE
  5
294
330
1E
100
AcDbEntity
  8
LAYER_1
  6
Continuous
 62
     7
100
AcDbPolyline
 90
        4
 70
     0
 43
0.0
 10
0.106791
 20
0.151886
 10
0.101394
 20
0.091957
 10
0.096127
 20
0.032028
 10
0.091
 20
-0.027902
  0
LWPOLYLINE
  5
29A
330
1E
100
AcDbEntity
  8
LAYER_1
  6
Continuous
 62
     7
100
AcDbPolyline
 90
        4
 70
     0
 43
0.0
 10
0.091
 20
-0.027902
 10
0.086004
 20
-0.087832
 10
0.081102
 20
-0.147763
 10
0.076248
 20
-0.207693
  0
LWPOLYLINE
  5
2A0
330
1E
100
AcDbEntity
  8
LAYER_1
  6
Continuous
 62
     7
100
AcDbPolyline
 90
        4
 70
     0
 43
0.0
 10
0.076248
 20
-0.207693
 10
0.071409
 20
-0.267619
 10
0.066612
 20
-0.327521
 10
0.061902
 20
-0.387374
  0
LWPOLYLINE
  5
2A6
330
1E
100
AcDbEntity
  8
LAYER_1
  6
Continuous
 62
     7
100
AcDbPolyline
 90
        4
 70
     0
 43
0.0
 10
0.061902
 20
-0.387374
 10
0.057332
 20
-0.447168
 10
0.052901
 20
-0.506944
 10
0.04861
 20
-0.566748
  0
LWPOLYLINE
  5
2AC
330
1E
100
AcDbEntity
  8
LAYER_1
  6
Continuous
 62
     7
100
AcDbPolyline
 90
        4
 70
     0
 43
0.0
 10
0.04861
 20
-0.566748
 10
0.044456
 20
-0.6266010000000001
 10
0.040439
 20
-0.686503
 10
0.036555
 20
-0.746429
  0
LWPOLYLINE
  5
2B2
330
1E
100
AcDbEntity
  8
LAYER_1
  6
Continuous
 62
     7
100
AcDbPolyline
 90
        4
 70
     0
 43
0.0
 10
0.036555
 20
-0.746429
 10
0.032814
 20
-0.8063550000000001
 10
0.029186
 20
-0.866258
 10
0.02565
 20
-0.9261099999999998
  0
LWPOLYLINE
  5
2B8
330
1E
100
AcDbEntity
  8
LAYER_1
  6
Continuous
 62
     7
100
AcDbPolyline
 90
        4
 70
     0
 43
0.0
 10
0.02565
 20
-0.9261099999999998
 10
0.022198
 20
-0.985909
 10
0.018832
 20
-1.04566
 10
0.015583
 20
-1.105385999999999
  0
LWPOLYLINE
  5
2BE
330
1E
100
AcDbEntity
  8
LAYER_1
  6
Continuous
 62
     7
100
AcDbPolyline
 90
        4
 70
     0
 43
0.0
 10
0.015583
 20
-1.105385999999999
 10
0.012475
 20
-1.165108999999999
 10
0.009528
 20
-1.224831999999999
 10
0.006764
 20
-1.284554999999999
  0
LWPOLYLINE
  5
2C4
330
1E
100
AcDbEntity
  8
LAYER_1
  6
Continuous
 62
     7
100
AcDbPolyline
 90
        4
 70
     0
 43
0.0
 10
0.006764
 20
-1.284554999999999
 10
0.004198
 20
-1.344273
 10
0.001844
 20
-1.40397
 10
-0.000291
 20
-1.463621999999999
  0
LWPOLYLINE
  5
2CA
330
1E
100
AcDbEntity
  8
LAYER_1
  6
Continuous
 62
     7
100
AcDbPolyline
 90
        4
 70
     0
 43
0.0
 10
-0.000291
 20
-1.463621999999999
 10
-0.002226
 20
-1.523203999999999
 10
-0.003956
 20
-1.582721999999999
 10
-0.005484
 20
-1.642165
  0
LWPOLYLINE
  5
2D0
330
1E
100
AcDbEntity
  8
LAYER_1
  6
Continuous
 62
     7
100
AcDbPolyline
 90
        4
 70
     0
 43
0.0
 10
-0.005484
 20
-1.642165
 10
-0.006788
 20
-1.701549
 10
-0.007889
 20
-1.760883
 10
-0.008776
 20
-1.820192999999999
  0
LWPOLYLINE
  5
2D6
330
1E
100
AcDbEntity
  8
LAYER_1
  6
Continuous
 62
     7
100
AcDbPolyline
 90
        4
 70
     0
 43
0.0
 10
-0.008776
 20
-1.820192999999999
 10
-0.009462
 20
-1.879504999999999
 10
-0.009919
 20
-1.938788999999999
 10
-0.010122
 20
-1.998027999999999
  0
LWPOLYLINE
  5
2DC
330
1E
100
AcDbEntity
  8
LAYER_1
  6
Continuous
 62
     7
100
AcDbPolyline
 90
        4
 70
     0
 43
0.0
 10
-0.010122
 20
-1.998027999999999
 10
-0.010036
 20
-2.057196999999999
 10
-0.009654
 20
-2.116298
 10
-0.008957
 20
-2.175331
  0
LWPOLYLINE
  5
2E2
330
1E
100
AcDbEntity
  8
LAYER_1
  6
Continuous
 62
     7
100
AcDbPolyline
 90
        4
 70
     0
 43
0.0
 10
-0.008957
 20
-2.175331
 10
-0.007903
 20
-2.234288999999999
 10
-0.006531
 20
-2.293184999999999
 10
-0.004858
 20
-2.352011999999999
  0
LWPOLYLINE
  5
2E8
330
1E
100
AcDbEntity
  8
LAYER_1
  6
Continuous
 62
     7
100
AcDbPolyline
 90
        4
 70
     0
 43
0.0
 10
-0.004858
 20
-2.352011999999999
 10
-0.002907
 20
-2.410766
 10
-0.000627
 20
-2.469427
 10
0.002028
 20
-2.527968999999999
  0
LWPOLYLINE
  5
2EE
330
1E
100
AcDbEntity
  8
LAYER_1
  6
Continuous
 62
     7
100
AcDbPolyline
 90
        4
 70
     0
 43
0.0
 10
0.002028
 20
-2.527968999999999
 10
0.005085
 20
-2.586381
 10
0.008559
 20
-2.644625999999999
 10
0.012441
 20
-2.702676999999999
  0
LWPOLYLINE
  5
2F4
330
1E
100
AcDbEntity
  8
LAYER_1
  6
Continuous
 62
     7
100
AcDbPolyline
 90
        4
 70
     0
 43
0.0
 10
0.012441
 20
-2.702676999999999
 10
0.016766
 20
-2.760543
 10
0.021545
 20
-2.818196999999999
 10
0.026831
 20
-2.875638
  0
LWPOLYLINE
  5
2FA
330
1E
100
AcDbEntity
  8
LAYER_1
  6
Continuous
 62
     7
100
AcDbPolyline
 90
        4
 70
     0
 43
0.0
 10
0.026831
 20
-2.875638
 10
0.032675
 20
-2.932859999999999
 10
0.039068
 20
-2.989832999999999
 10
0.046012
 20
-3.046511999999999
  0
LWPOLYLINE
  5
300
330
1E
100
AcDbEntity
  8
LAYER_1
  6
Continuous
 62
     7
100
AcDbPolyline
 90
        4
 70
     0
 43
0.0
 10
0.046012
 20
-3.046511999999999
 10
0.053523
 20
-3.102831999999999
 10
0.061663
 20
-3.158741999999999
 10
0.0705
 20
-3.214164999999999
  0
LWPOLYLINE
  5
306
330
1E
100
AcDbEntity
  8
LAYER_1
  6
Continuous
 62
     7
100
AcDbPolyline
 90
        4
 70
     0
 43
0.0
 10
0.0705
 20
-3.214164999999999
 10
0.080094
 20
-3.269020999999999
 10
0.090495
 20
-3.323183999999999
 10
0.101748
 20
-3.376512
  0
LWPOLYLINE
  5
30C
330
1E
100
AcDbEntity
  8
LAYER_1
  6
Continuous
 62
     7
100
AcDbPolyline
 90
        4
 70
     0
 43
0.0
 10
0.101748
 20
-3.376512
 10
0.113906
 20
-3.42885
 10
0.126961
 20
-3.479916999999999
 10
0.140913
 20
-3.529412999999999
  0
LWPOLYLINE
  5
312
330
1E
100
AcDbEntity
  8
LAYER_1
  6
Continuous
 62
     7
100
AcDbPolyline
 90
        4
 70
     0
 43
0.0
 10
0.140913
 20
-3.529412999999999
 10
0.155749
 20
-3.576979
 10
0.17128
 20
-3.622018
 10
0.187291
 20
-3.663886
  0
LWPOLYLINE
  5
318
330
1E
100
AcDbEntity
  8
LAYER_1
  6
Continuous
 62
     7
100
AcDbPolyline
 90
        4
 70
     0
 43
0.0
 10
0.187291
 20
-3.663886
 10
0.20355
 20
-3.701995999999999
 10
0.219649
 20
-3.735897
 10
0.23515
 20
-3.765193
  0
LWPOLYLINE
  5
31E
330
1E
100
AcDbEntity
  8
LAYER_1
  6
Continuous
 62
     7
100
AcDbPolyline
 90
        4
 70
     0
 43
0.0
 10
0.23515
 20
-3.765193
 10
0.249686
 20
-3.789655
 10
0.263111
 20
-3.809722
 10
0.275358
 20
-3.826
  0
LWPOLYLINE
  5
324
330
1E
100
AcDbEntity
  8
LAYER_1
  6
Continuous
 62
     7
100
AcDbPolyline
 90
        4
 70
     0
 43
0.0
 10
0.275358
 20
-3.826
 10
0.286412
 20
-3.839069999999999
 10
0.296428
 20
-3.849455999999999
 10
0.30561
 20
-3.857665
  0
LWPOLYLINE
  5
32A
330
1E
100
AcDbEntity
  8
LAYER_1
  6
Continuous
 62
     7
100
AcDbPolyline
 90
        4
 70
     0
 43
0.0
 10
0.30561
 20
-3.857665
 10
0.314143
 20
-3.864154
 10
0.322126
 20
-3.869162
 10
0.329622
 20
-3.872873999999999
  0
LWPOLYLINE
  5
330
330
1E
100
AcDbEntity
  8
LAYER_1
  6
Continuous
 62
     7
100
AcDbPolyline
 90
        4
 70
     0
 43
0.0
 10
0.329622
 20
-3.872873999999999
 10
0.336711
 20
-3.875430999999999
 10
0.343479
 20
-3.876787999999999
 10
0.350012
 20
-3.876846
  0
LWPOLYLINE
  5
336
330
1E
100
AcDbEntity
  8
LAYER_1
  6
Continuous
 62
     7
100
AcDbPolyline
 90
        4
 70
     0
 43
0.0
 10
0.350012
 20
-3.876846
 10
0.356383
 20
-3.875528
 10
0.362575
 20
-3.872773999999999
 10
0.368539
 20
-3.868538999999999
  0
LWPOLYLINE
  5
33C
330
1E
100
AcDbEntity
  8
LAYER_1
  6
Continuous
 62
     7
100
AcDbPolyline
 90
        4
 70
     0
 43
0.0
 10
0.368539
 20
-3.868538999999999
 10
0.374251
 20
-3.862766999999999
 10
0.379779
 20
-3.855326999999999
 10
0.38522
 20
-3.846083
  0
LWPOLYLINE
  5
342
330
1E
100
AcDbEntity
  8
LAYER_1
  6
Continuous
 62
     7
100
AcDbPolyline
 90
        4
 70
     0
 43
0.0
 10
0.38522
 20
-3.846083
 10
0.390654
 20
-3.834806999999999
 10
0.396182
 20
-3.820920999999999
 10
0.401902
 20
-3.803748
  0
LWPOLYLINE
  5
348
330
1E
100
AcDbEntity
  8
LAYER_1
  6
Continuous
 62
     7
100
AcDbPolyline
 90
        4
 70
     0
 43
0.0
 10
0.401902
 20
-3.803748
 10
0.4078840000000001
 20
-3.782619999999999
 10
0.414104
 20
-3.756816
 10
0.420512
 20
-3.725621999999999
  0
LWPOLYLINE
  5
34E
330
1E
100
AcDbEntity
  8
LAYER_1
  6
Continuous
 62
     7
100
AcDbPolyline
 90
        4
 70
     0
 43
0.0
 10
0.420512
 20
-3.725621999999999
 10
0.4270220000000001
 20
-3.688598
 10
0.433373
 20
-3.646317999999999
 10
0.439264
 20
-3.599637999999999
  0
LWPOLYLINE
  5
354
330
1E
100
AcDbEntity
  8
LAYER_1
  6
Continuous
 62
     7
100
AcDbPolyline
 90
        4
 70
     0
 43
0.0
 10
0.439264
 20
-3.599637999999999
 10
0.4444520000000001
 20
-3.549420999999999
 10
0.448904
 20
-3.496475
 10
0.4526500000000001
 20
-3.441609999999999
  0
LWPOLYLINE
  5
35A
330
1E
100
AcDbEntity
  8
LAYER_1
  6
Continuous
 62
     7
100
AcDbPolyline
 90
        4
 70
     0
 43
0.0
 10
0.4526500000000001
 20
-3.441609999999999
 10
0.455703
 20
-3.385530999999999
 10
0.4581300000000001
 20
-3.328599999999999
 10
0.4600000000000001
 20
-3.271066999999999
  0
LWPOLYLINE
  5
360
330
1E
100
AcDbEntity
  8
LAYER_1
  6
Continuous
 62
     7
100
AcDbPolyline
 90
        4
 70
     0
 43
0.0
 10
0.4600000000000001
 20
-3.271066999999999
 10
0.4613870000000001
 20
-3.21315
 10
0.462337
 20
-3.154908
 10
0.4629020000000001
 20
-3.096358
  0
LWPOLYLINE
  5
366
330
1E
100
AcDbEntity
  8
LAYER_1
  6
Continuous
 62
     7
100
AcDbPolyline
 90
        4
 70
     0
 43
0.0
 10
0.4629020000000001
 20
-3.096358
 10
0.463103
 20
-3.037546999999999
 10
0.4630100000000001
 20
-2.978504
 10
0.462665
 20
-2.919275999999999
  0
LWPOLYLINE
  5
36C
330
1E
100
AcDbEntity
  8
LAYER_1
  6
Continuous
 62
     7
100
AcDbPolyline
 90
        4
 70
     0
 43
0.0
 10
0.462665
 20
-2.919275999999999
 10
0.462104
 20
-2.859891
 10
0.4613590000000001
 20
-2.800373
 10
0.460457
 20
-2.74072
  0
LWPOLYLINE
  5
372
330
1E
100
AcDbEntity
  8
LAYER_1
  6
Continuous
 62
     7
100
AcDbPolyline
 90
        4
 70
     0
 43
0.0
 10
0.460457
 20
-2.74072
 10
0.459401
 20
-2.680927
 10
0.4581890000000001
 20
-2.621043
 10
0.4567910000000001
 20
-2.561109999999999
  0
LWPOLYLINE
  5
378
330
1E
100
AcDbEntity
  8
LAYER_1
  6
Continuous
 62
     7
100
AcDbPolyline
 90
        4
 70
     0
 43
0.0
 10
0.4567910000000001
 20
-2.561109999999999
 10
0.4552
 20
-2.501174
 10
0.453473
 20
-2.441213999999999
 10
0.4516770000000001
 20
-2.381205
  0
LWPOLYLINE
  5
37E
330
1E
100
AcDbEntity
  8
LAYER_1
  6
Continuous
 62
     7
100
AcDbPolyline
 90
        4
 70
     0
 43
0.0
 10
0.4516770000000001
 20
-2.381205
 10
0.449855
 20
-2.321127999999999
 10
0.4479890000000001
 20
-2.260982999999999
 10
0.446028
 20
-2.200775999999999
  0
LWPOLYLINE
  5
384
330
1E
100
AcDbEntity
  8
LAYER_1
  6
Continuous
 62
     7
100
AcDbPolyline
 90
        4
 70
     0
 43
0.0
 10
0.446028
 20
-2.200775999999999
 10
0.4439580000000001
 20
-2.140490999999999
 10
0.441786
 20
-2.080136999999999
 10
0.439567
 20
-2.019719999999999
  0
LWPOLYLINE
  5
38A
330
1E
100
AcDbEntity
  8
LAYER_1
  6
Continuous
 62
     7
100
AcDbPolyline
 90
        4
 70
     0
 43
0.0
 10
0.439567
 20
-2.019719999999999
 10
0.437341
 20
-1.959236999999999
 10
0.43509
 20
-1.898731
 10
0.4327910000000001
 20
-1.838247999999999
  0
LWPOLYLINE
  5
390
330
1E
100
AcDbEntity
  8
LAYER_1
  6
Continuous
 62
     7
100
AcDbPolyline
 90
        4
 70
     0
 43
0.0
 10
0.4327910000000001
 20
-1.838247999999999
 10
0.430432
 20
-1.777816
 10
0.428052
 20
-1.717402999999999
 10
0.4256930000000001
 20
-1.656968999999999
  0
LWPOLYLINE
  5
396
330
1E
100
AcDbEntity
  8
LAYER_1
  6
Continuous
 62
     7
100
AcDbPolyline
 90
        4
 70
     0
 43
0.0
 10
0.4256930000000001
 20
-1.656968999999999
 10
0.423388
 20
-1.59649
 10
0.421108
 20
-1.535956999999999
 10
0.418803
 20
-1.475402
  0
LWPOLYLINE
  5
39C
330
1E
100
AcDbEntity
  8
LAYER_1
  6
Continuous
 62
     7
100
AcDbPolyline
 90
        4
 70
     0
 43
0.0
 10
0.418803
 20
-1.475402
 10
0.4164410000000001
 20
-1.414835
 10
0.414036
 20
-1.354276
 10
0.4116100000000001
 20
-1.293719999999999
  0
LWPOLYLINE
  5
3A2
330
1E
100
AcDbEntity
  8
LAYER_1
  6
Continuous
 62
     7
100
AcDbPolyline
 90
        4
 70
     0
 43
0.0
 10
0.4116100000000001
 20
-1.293719999999999
 10
0.409178
 20
-1.233160999999999
 10
0.406748
 20
-1.172595
 10
0.404319
 20
-1.112028
  0
LWPOLYLINE
  5
3A8
330
1E
100
AcDbEntity
  8
LAYER_1
  6
Continuous
 62
     7
100
AcDbPolyline
 90
        4
 70
     0
 43
0.0
 10
0.404319
 20
-1.112028
 10
0.4018780000000001
 20
-1.051472999999999
 10
0.399443
 20
-0.990943
 10
0.397012
 20
-0.930457
  0
LWPOLYLINE
  5
3AE
330
1E
100
AcDbEntity
  8
LAYER_1
  6
Continuous
 62
     7
100
AcDbPolyline
 90
        4
 70
     0
 43
0.0
 10
0.397012
 20
-0.930457
 10
0.394575
 20
-0.8700309999999999
 10
0.392166
 20
-0.809651
 10
0.389803
 20
-0.7492910000000001
  0
LWPOLYLINE
  5
3B4
330
1E
100
AcDbEntity
  8
LAYER_1
  6
Continuous
 62
     7
100
AcDbPolyline
 90
        4
 70
     0
 43
0.0
 10
0.389803
 20
-0.7492910000000001
 10
0.387499
 20
-0.6889350000000001
 10
0.385223
 20
-0.628552
 10
0.382929
 20
-0.568122
  0
LWPOLYLINE
  5
3BA
330
1E
100
AcDbEntity
  8
LAYER_1
  6
Continuous
 62
     7
100
AcDbPolyline
 90
        4
 70
     0
 43
0.0
 10
0.382929
 20
-0.568122
 10
0.38057
 20
-0.507648
 10
0.37819
 20
-0.4471420000000001
 10
0.375831
 20
-0.38665
  0
LWPOLYLINE
  5
3C0
330
1E
100
AcDbEntity
  8
LAYER_1
  6
Continuous
 62
     7
100
AcDbPolyline
 90
        4
 70
     0
 43
0.0
 10
0.375831
 20
-0.38665
 10
0.373531
 20
-0.326231
 10
0.371276
 20
-0.265853
 10
0.369039
 20
-0.2055
  0
LWPOLYLINE
  5
3C6
330
1E
100
AcDbEntity
  8
LAYER_1
  6
Continuous
 62
     7
100
AcDbPolyline
 90
        4
 70
     0
 43
0.0
 10
0.369039
 20
-0.2055
 10
0.366821
 20
-0.145142
 10
0.364624
 20
-0.084787
 10
0.362469
 20
-0.024429
  0
LWPOLYLINE
  5
3CC
330
1E
100
AcDbEntity
  8
LAYER_1
  6
Continuous
 62
     7
100
AcDbPolyline
 90
        4
 70
     0
 43
0.0
 10
0.362469
 20
-0.024429
 10
0.360374
 20
0.03592
 10
0.358302
 20
0.096296
 10
0.356205
 20
0.15672
  0
LWPOLYLINE
  5
3D2
330
1E
100
AcDbEntity
  8
LAYER_1
  6
Continuous
 62
     7
100
AcDbPolyline
 90
        4
 70
     0
 43
0.0
 10
0.356205
 20
0.15672
 10
0.354065
 20
0.217203
 10
0.351898
 20
0.277708
 10
0.349748
 20
0.338193
  0
LWPOLYLINE
  5
3D8
330
1E
100
AcDbEntity
  8
LAYER_1
  6
Continuous
 62
     7
100
AcDbPolyline
 90
        4
 70
     0
 43
0.0
 10
0.349748
 20
0.338193
 10
0.347659
 20
0.398603
 10
0.345642
 20
0.4588710000000001
 10
0.343693
 20
0.518929
  0
LWPOLYLINE
  5
3DE
330
1E
100
AcDbEntity
  8
LAYER_1
  6
Continuous
 62
     7
100
AcDbPolyline
 90
        4
 70
     0
 43
0.0
 10
0.343693
 20
0.518929
 10
0.341823
 20
0.5786150000000001
 10
0.340093
 20
0.6373260000000001
 10
0.338567
 20
0.694374
  0
LWPOLYLINE
  5
3E4
330
1E
100
AcDbEntity
  8
LAYER_1
  6
Continuous
 62
     7
100
AcDbPolyline
 90
        4
 70
     0
 43
0.0
 10
0.338567
 20
0.694374
 10
0.337317
 20
0.749409
 10
0.336385
 20
0.80347
 10
0.335831
 20
0.8579409999999999
  0
LWPOLYLINE
  5
3EA
330
1E
100
AcDbEntity
  8
LAYER_1
  6
Continuous
 62
     7
100
AcDbPolyline
 90
        4
 70
     0
 43
0.0
 10
0.335831
 20
0.8579409999999999
 10
0.335662
 20
0.9139389999999998
 10
0.3358219999999999
 20
0.9714159999999999
 10
0.33622
 20
1.030054999999999
  0
LWPOLYLINE
  5
3F0
330
1E
100
AcDbEntity
  8
LAYER_1
  6
Continuous
 62
     7
100
AcDbPolyline
 90
        4
 70
     0
 43
0.0
 10
0.33622
 20
1.030054999999999
 10
0.336758
 20
1.089521999999999
 10
0.33739
 20
1.149545
 10
0.338067
 20
1.209845999999999
  0
LWPOLYLINE
  5
3F6
330
1E
100
AcDbEntity
  8
LAYER_1
  6
Continuous
 62
     7
100
AcDbPolyline
 90
        4
 70
     0
 43
0.0
 10
0.338067
 20
1.209845999999999
 10
0.338759
 20
1.270193
 10
0.339446
 20
1.330543999999999
 10
0.340138
 20
1.390902
  0
LWPOLYLINE
  5
3FC
330
1E
100
AcDbEntity
  8
LAYER_1
  6
Continuous
 62
     7
100
AcDbPolyline
 90
        4
 70
     0
 43
0.0
 10
0.340138
 20
1.390902
 10
0.34083
 20
1.451247999999999
 10
0.341571
 20
1.511594
 10
0.342402
 20
1.571940999999999
  0
LWPOLYLINE
  5
402
330
1E
100
AcDbEntity
  8
LAYER_1
  6
Continuous
 62
     7
100
AcDbPolyline
 90
        4
 70
     0
 43
0.0
 10
0.342402
 20
1.571940999999999
 10
0.343362
 20
1.63229
 10
0.344412
 20
1.692638
 10
0.345512
 20
1.752984
  0
LWPOLYLINE
  5
408
330
1E
100
AcDbEntity
  8
LAYER_1
  6
Continuous
 62
     7
100
AcDbPolyline
 90
        4
 70
     0
 43
0.0
 10
0.345512
 20
1.752984
 10
0.346613
 20
1.813341999999999
 10
0.347717
 20
1.873691999999999
 10
0.348819
 20
1.934038999999999
  0
LWPOLYLINE
  5
40E
330
1E
100
AcDbEntity
  8
LAYER_1
  6
Continuous
 62
     7
100
AcDbPolyline
 90
        4
 70
     0
 43
0.0
 10
0.348819
 20
1.934038999999999
 10
0.34993
 20
1.994313
 10
0.351059
 20
2.054149
 10
0.352232
 20
2.113109999999999
  0
LWPOLYLINE
  5
414
330
1E
100
AcDbEntity
  8
LAYER_1
  6
Continuous
 62
     7
100
AcDbPolyline
 90
        4
 70
     0
 43
0.0
 10
0.352232
 20
2.113109999999999
 10
0.3534489999999999
 20
2.170345
 10
0.354643
 20
2.223392
 10
0.35572
 20
2.269385999999999
  0
LWPOLYLINE
  5
41A
330
1E
100
AcDbEntity
  8
LAYER_1
  6
Continuous
 62
     7
100
AcDbPolyline
 90
        4
 70
     0
 43
0.0
 10
0.35572
 20
2.269385999999999
 10
0.356586
 20
2.306008999999999
 10
0.3572389999999999
 20
2.333051999999999
 10
0.357677
 20
2.350858
  0
LWPOLYLINE
  5
420
330
1E
100
AcDbEntity
  8
LAYER_1
  6
Continuous
 62
     7
100
AcDbPolyline
 90
        4
 70
     0
 43
0.0
 10
0.357677
 20
2.350858
 10
0.357904
 20
2.360231
 10
0.357988
 20
2.363684
 10
0.358
 20
2.364177
  0
SOLID
  5
426
330
1E
100
AcDbEntity
  8
LAYER_1
  6
Continuous
100
AcDbTrace
 10
0.15211
 20
0.788665
 30
0.0
 11
0.182067
 21
0.790969
 31
0.0
 12
0.161331
 22
0.8669999999999999
 32
0.0
 13
0.191276
 23
0.8585549999999999
 33
0.0
  0
LWPOLYLINE
  5
427
330
1E
100
AcDbEntity
  8
LAYER_1
  6
Continuous
100
AcDbPolyline
 90
        4
 70
     1
 43
0.0
 10
0.15211
 20
0.788665
 10
0.182067
 20
0.790969
 10
0.191276
 20
0.8585549999999999
 10
0.161331
 20
0.8669999999999999
  0
SOLID
  5
42D
330
1E
100
AcDbEntity
  8
LAYER_1
  6
Continuous
 62
   253
100
AcDbTrace
 10
2.738528
 20
-1.510495999999999
 30
0.0
 11
3.371164999999999
 21
-1.486554999999999
 31
0.0
 12
2.745066999999999
 22
-2.260027999999999
 32
0.0
 13
3.399205
 23
-2.235886
 33
0.0
  0
LWPOLYLINE
  5
42E
330
1E
100
AcDbEntity
  8
LAYER_1
  6
Continuous
 62
   253
100
AcDbPolyline
 90
        4
 70
     1
 43
0.0
 10
2.738528
 20
-1.510495999999999
 10
3.371164999999999
 20
-1.486554999999999
 10
3.399205
 20
-2.235886
 10
2.745066999999999
 20
-2.260027999999999
  0
LWPOLYLINE
  5
434
330
1E
100
AcDbEntity
  8
LAYER_1
  6
Continuous
 62
     7
100
AcDbPolyline
 90
        4
 70
     1
 43
0.0
 10
2.738528
 20
-1.510495999999999
 10
3.371164999999999
 20
-1.486554999999999
 10
3.399205
 20
-2.235886
 10
2.745066999999999
 20
-2.260027999999999
  0
LWPOLYLINE
  5
43A
330
1E
100
AcDbEntity
  8
LAYER_1
  6
Continuous
 62
     7
100
AcDbPolyline
 90
        2
 70
     0
 43
0.0
 10
-3.941205
 20
-2.628830999999999
 10
-3.841701
 20
-2.628830999999999
  0
LWPOLYLINE
  5
43E
330
1E
100
AcDbEntity
  8
LAYER_1
  6
Continuous
 62
     7
100
AcDbPolyline
 90
        2
 70
     0
 43
0.0
 10
-3.941205
 20
-1.378527999999999
 10
-3.841701
 20
-1.378527999999999
  0
LWPOLYLINE
  5
442
330
1E
100
AcDbEntity
  8
LAYER_1
  6
Continuous
 62
     7
100
AcDbPolyline
 90
        2
 70
     0
 43
0.0
 10
-3.900534999999999
 20
-3.253968999999999
 10
-3.83835
 20
-3.253968999999999
  0
LWPOLYLINE
  5
446
330
1E
100
AcDbEntity
  8
LAYER_1
  6
Continuous
 62
     7
100
AcDbPolyline
 90
        2
 70
     0
 43
0.0
 10
-3.900534999999999
 20
-2.006928999999999
 10
-3.83835
 20
-2.006928999999999
  0
LWPOLYLINE
  5
44A
330
1E
100
AcDbEntity
  8
LAYER_1
  6
Continuous
 62
     7
100
AcDbPolyline
 90
        2
 70
     0
 43
0.0
 10
-3.863133999999999
 20
-3.754732
 10
-3.838255999999999
 20
-3.754732
  0
LWPOLYLINE
  5
44E
330
1E
100
AcDbEntity
  8
LAYER_1
  6
Continuous
 62
     7
100
AcDbPolyline
 90
        2
 70
     0
 43
0.0
 10
-3.863133999999999
 20
-3.630358
 10
-3.838255999999999
 20
-3.630358
  0
LWPOLYLINE
  5
452
330
1E
100
AcDbEntity
  8
LAYER_1
  6
Continuous
 62
     7
100
AcDbPolyline
 90
        2
 70
     0
 43
0.0
 10
-3.863133999999999
 20
-3.505983999999999
 10
-3.838255999999999
 20
-3.505983999999999
  0
LWPOLYLINE
  5
456
330
1E
100
AcDbEntity
  8
LAYER_1
  6
Continuous
 62
     7
100
AcDbPolyline
 90
        2
 70
     0
 43
0.0
 10
-3.863133999999999
 20
-3.381609999999999
 10
-3.838255999999999
 20
-3.381609999999999
  0
LWPOLYLINE
  5
45A
330
1E
100
AcDbEntity
  8
LAYER_1
  6
Continuous
 62
     7
100
AcDbPolyline
 90
        2
 70
     0
 43
0.0
 10
-3.863133999999999
 20
-3.129583
 10
-3.838255999999999
 20
-3.129583
  0
LWPOLYLINE
  5
45E
330
1E
100
AcDbEntity
  8
LAYER_1
  6
Continuous
 62
     7
100
AcDbPolyline
 90
        2
 70
     0
 43
0.0
 10
-3.863133999999999
 20
-3.005205
 10
-3.838255999999999
 20
-3.005205
  0
LWPOLYLINE
  5
462
330
1E
100
AcDbEntity
  8
LAYER_1
  6
Continuous
 62
     7
100
AcDbPolyline
 90
        2
 70
     0
 43
0.0
 10
-3.863133999999999
 20
-2.880831
 10
-3.838255999999999
 20
-2.880831
  0
LWPOLYLINE
  5
466
330
1E
100
AcDbEntity
  8
LAYER_1
  6
Continuous
 62
     7
100
AcDbPolyline
 90
        2
 70
     0
 43
0.0
 10
-3.863133999999999
 20
-2.756457
 10
-3.838255999999999
 20
-2.756457
  0
LWPOLYLINE
  5
46A
330
1E
100
AcDbEntity
  8
LAYER_1
  6
Continuous
 62
     7
100
AcDbPolyline
 90
        2
 70
     0
 43
0.0
 10
-3.863133999999999
 20
-2.504440999999999
 10
-3.838255999999999
 20
-2.504440999999999
  0
LWPOLYLINE
  5
46E
330
1E
100
AcDbEntity
  8
LAYER_1
  6
Continuous
 62
     7
100
AcDbPolyline
 90
        2
 70
     0
 43
0.0
 10
-3.863133999999999
 20
-2.380055
 10
-3.838255999999999
 20
-2.380055
  0
LWPOLYLINE
  5
472
330
1E
100
AcDbEntity
  8
LAYER_1
  6
Continuous
 62
     7
100
AcDbPolyline
 90
        2
 70
     0
 43
0.0
 10
-3.863133999999999
 20
-2.255676999999999
 10
-3.838255999999999
 20
-2.255676999999999
  0
LWPOLYLINE
  5
476
330
1E
100
AcDbEntity
  8
LAYER_1
  6
Continuous
 62
     7
100
AcDbPolyline
 90
        2
 70
     0
 43
0.0
 10
-3.863133999999999
 20
-2.131302999999999
 10
-3.838255999999999
 20
-2.131302999999999
  0
LWPOLYLINE
  5
47A
330
1E
100
AcDbEntity
  8
LAYER_1
  6
Continuous
 62
     7
100
AcDbPolyline
 90
        2
 70
     0
 43
0.0
 10
-3.863133999999999
 20
-1.882554999999999
 10
-3.838255999999999
 20
-1.882554999999999
  0
LWPOLYLINE
  5
47E
330
1E
100
AcDbEntity
  8
LAYER_1
  6
Continuous
 62
     7
100
AcDbPolyline
 90
        2
 70
     0
 43
0.0
 10
-3.863133999999999
 20
-1.754913
 10
-3.838255999999999
 20
-1.754913
  0
LWPOLYLINE
  5
482
330
1E
100
AcDbEntity
  8
LAYER_1
  6
Continuous
 62
     7
100
AcDbPolyline
 90
        2
 70
     0
 43
0.0
 10
-3.863133999999999
 20
-1.630527999999999
 10
-3.838255999999999
 20
-1.630527999999999
  0
LWPOLYLINE
  5
486
330
1E
100
AcDbEntity
  8
LAYER_1
  6
Continuous
 62
     7
100
AcDbPolyline
 90
        2
 70
     0
 43
0.0
 10
-3.863133999999999
 20
-1.50615
 10
-3.838255999999999
 20
-1.50615
  0
TEXT
  5
48A
330
1E
100
AcDbEntity
  8
LAYER_1
 62
     7
100
AcDbText
 10
-3.748692999999999
 20
-3.910374
 30
0.0
 40
0.075434
  1
0
 50
90.0
 41
0.8325634095407075
  7
SN0
 72
     5
 11
-3.748692999999999
 21
-3.859533
 31
0.0
100
AcDbText
  0
TEXT
  5
48B
330
1E
100
AcDbEntity
  8
LAYER_1
 62
     7
100
AcDbText
 10
-3.742141999999999
 20
-2.691299
 30
0.0
 40
0.075434
  1
10
 50
90.0
 41
0.7650507441980793
  7
SN0
 72
     5
 11
-3.742141999999999
 21
-2.589618
 31
0.0
100
AcDbText
  0
LWPOLYLINE
  5
48C
330
1E
100
AcDbEntity
  8
LAYER_1
  6
Continuous
 62
     7
100
AcDbPolyline
 90
        2
 70
     0
 43
0.0
 10
-3.941205
 20
-0.129248
 10
-3.841701
 20
-0.129248
  0
LWPOLYLINE
  5
490
330
1E
100
AcDbEntity
  8
LAYER_1
  6
Continuous
 62
     7
100
AcDbPolyline
 90
        2
 70
     0
 43
0.0
 10
-3.900534999999999
 20
-0.7576649999999999
 10
-3.83835
 20
-0.7576649999999999
  0
LWPOLYLINE
  5
494
330
1E
100
AcDbEntity
  8
LAYER_1
  6
Continuous
 62
     7
100
AcDbPolyline
 90
        2
 70
     0
 43
0.0
 10
-3.863133999999999
 20
-1.255176999999999
 10
-3.838255999999999
 20
-1.255176999999999
  0
LWPOLYLINE
  5
498
330
1E
100
AcDbEntity
  8
LAYER_1
  6
Continuous
 62
     7
100
AcDbPolyline
 90
        2
 70
     0
 43
0.0
 10
-3.863133999999999
 20
-1.130803
 10
-3.838255999999999
 20
-1.130803
  0
LWPOLYLINE
  5
49C
330
1E
100
AcDbEntity
  8
LAYER_1
  6
Continuous
 62
     7
100
AcDbPolyline
 90
        2
 70
     0
 43
0.0
 10
-3.863133999999999
 20
-1.006413
 10
-3.838255999999999
 20
-1.006413
  0
LWPOLYLINE
  5
4A0
330
1E
100
AcDbEntity
  8
LAYER_1
  6
Continuous
 62
     7
100
AcDbPolyline
 90
        2
 70
     0
 43
0.0
 10
-3.863133999999999
 20
-0.8820389999999999
 10
-3.838255999999999
 20
-0.8820389999999999
  0
LWPOLYLINE
  5
4A4
330
1E
100
AcDbEntity
  8
LAYER_1
  6
Continuous
 62
     7
100
AcDbPolyline
 90
        2
 70
     0
 43
0.0
 10
-3.863133999999999
 20
-0.633291
 10
-3.838255999999999
 20
-0.633291
  0
LWPOLYLINE
  5
4A8
330
1E
100
AcDbEntity
  8
LAYER_1
  6
Continuous
 62
     7
100
AcDbPolyline
 90
        2
 70
     0
 43
0.0
 10
-3.863133999999999
 20
-0.5056500000000001
 10
-3.838255999999999
 20
-0.5056500000000001
  0
LWPOLYLINE
  5
4AC
330
1E
100
AcDbEntity
  8
LAYER_1
  6
Continuous
 62
     7
100
AcDbPolyline
 90
        2
 70
     0
 43
0.0
 10
-3.863133999999999
 20
-0.381276
 10
-3.838255999999999
 20
-0.381276
  0
LWPOLYLINE
  5
4B0
330
1E
100
AcDbEntity
  8
LAYER_1
  6
Continuous
 62
     7
100
AcDbPolyline
 90
        2
 70
     0
 43
0.0
 10
-3.863133999999999
 20
-0.256886
 10
-3.838255999999999
 20
-0.256886
  0
TEXT
  5
4B4
330
1E
100
AcDbEntity
  8
LAYER_1
 62
     7
100
AcDbText
 10
-3.742141999999999
 20
-1.440984
 30
0.0
 40
0.075434
  1
20
 50
90.0
 41
0.7650507441980779
  7
SN0
 72
     5
 11
-3.742141999999999
 21
-1.339303
 31
0.0
100
AcDbText
  0
LWPOLYLINE
  5
4B5
330
1E
100
AcDbEntity
  8
LAYER_1
  6
Continuous
 62
     7
100
AcDbPolyline
 90
        2
 70
     0
 43
0.0
 10
-3.941205
 20
1.120402
 10
-3.841701
 20
1.120402
  0
LWPOLYLINE
  5
4B9
330
1E
100
AcDbEntity
  8
LAYER_1
  6
Continuous
 62
     7
100
AcDbPolyline
 90
        2
 70
     0
 43
0.0
 10
-3.900534999999999
 20
0.4919840000000001
 10
-3.83835
 20
0.4919840000000001
  0
LWPOLYLINE
  5
4BD
330
1E
100
AcDbEntity
  8
LAYER_1
  6
Continuous
 62
     7
100
AcDbPolyline
 90
        2
 70
     0
 43
0.0
 10
-3.863133999999999
 20
-0.005512
 10
-3.838255999999999
 20
-0.005512
  0
LWPOLYLINE
  5
4C1
330
1E
100
AcDbEntity
  8
LAYER_1
  6
Continuous
 62
     7
100
AcDbPolyline
 90
        2
 70
     0
 43
0.0
 10
-3.863133999999999
 20
0.118858
 10
-3.838255999999999
 20
0.118858
  0
LWPOLYLINE
  5
4C5
330
1E
100
AcDbEntity
  8
LAYER_1
  6
Continuous
 62
     7
100
AcDbPolyline
 90
        2
 70
     0
 43
0.0
 10
-3.863133999999999
 20
0.243232
 10
-3.838255999999999
 20
0.243232
  0
LWPOLYLINE
  5
4C9
330
1E
100
AcDbEntity
  8
LAYER_1
  6
Continuous
 62
     7
100
AcDbPolyline
 90
        2
 70
     0
 43
0.0
 10
-3.863133999999999
 20
0.36761
 10
-3.838255999999999
 20
0.36761
  0
LWPOLYLINE
  5
4CD
330
1E
100
AcDbEntity
  8
LAYER_1
  6
Continuous
 62
     7
100
AcDbPolyline
 90
        2
 70
     0
 43
0.0
 10
-3.863133999999999
 20
0.616358
 10
-3.838255999999999
 20
0.616358
  0
LWPOLYLINE
  5
4D1
330
1E
100
AcDbEntity
  8
LAYER_1
  6
Continuous
 62
     7
100
AcDbPolyline
 90
        2
 70
     0
 43
0.0
 10
-3.863133999999999
 20
0.7440120000000001
 10
-3.838255999999999
 20
0.7440120000000001
  0
LWPOLYLINE
  5
4D5
330
1E
100
AcDbEntity
  8
LAYER_1
  6
Continuous
 62
     7
100
AcDbPolyline
 90
        2
 70
     0
 43
0.0
 10
-3.863133999999999
 20
0.8683860000000001
 10
-3.838255999999999
 20
0.8683860000000001
  0
LWPOLYLINE
  5
4D9
330
1E
100
AcDbEntity
  8
LAYER_1
  6
Continuous
 62
     7
100
AcDbPolyline
 90
        2
 70
     0
 43
0.0
 10
-3.863133999999999
 20
0.992764
 10
-3.838255999999999
 20
0.992764
  0
TEXT
  5
4DD
330
1E
100
AcDbEntity
  8
LAYER_1
 62
     7
100
AcDbText
 10
-3.74215
 20
-0.19172
 30
0.0
 40
0.075434
  1
30
 50
90.0
 41
0.7650507441980783
  7
SN0
 72
     5
 11
-3.74215
 21
-0.090039
 31
0.0
100
AcDbText
  0
LWPOLYLINE
  5
4DE
330
1E
100
AcDbEntity
  8
LAYER_1
  6
Continuous
 62
     7
100
AcDbPolyline
 90
        2
 70
     0
 43
0.0
 10
-3.941205
 20
-3.878483999999999
 10
-3.841701
 20
-3.878483999999999
  0
LWPOLYLINE
  5
4E2
330
1E
100
AcDbEntity
  8
LAYER_1
  6
DASHED
 62
     7
100
AcDbPolyline
 90
        4
 70
     1
 43
0.0
 10
0.025402
 20
-2.034511999999999
 10
0.008803
 20
-1.559555
 10
0.410094
 20
-1.545538999999999
 10
0.4266930000000001
 20
-2.0205
  0
LWPOLYLINE
  5
4E8
330
1E
100
AcDbEntity
  8
LAYER_1
  6
Continuous
 62
     7
100
AcDbPolyline
 90
        4
 70
     1
 43
0.0
 10
0.021929
 20
-1.798609999999999
 10
0.013567
 20
-1.559231999999999
 10
0.4069570000000001
 20
-1.5455
 10
0.415319
 20
-1.784874
  0
SOLID
  5
4EE
330
1E
100
AcDbEntity
  8
LAYER_1
  6
Continuous
 62
     7
100
AcDbTrace
 10
0.4079690000000001
 20
-1.783790999999999
 30
0.0
 11
0.399665
 21
-1.545731999999999
 31
0.0
 12
0.4205390000000001
 22
-1.783358
 32
0.0
 13
0.41222
 23
-1.545290999999999
 33
0.0
  0
LWPOLYLINE
  5
4EF
330
1E
100
AcDbEntity
  8
LAYER_1
  6
Continuous
 62
     7
100
AcDbPolyline
 90
        4
 70
     1
 43
0.0
 10
0.4079690000000001
 20
-1.783790999999999
 10
0.399665
 20
-1.545731999999999
 10
0.41222
 20
-1.545290999999999
 10
0.4205390000000001
 20
-1.783358
  0
LWPOLYLINE
  5
4F5
330
1E
100
AcDbEntity
  8
LAYER_1
  6
Continuous
 62
     7
100
AcDbPolyline
 90
        4
 70
     1
 43
0.0
 10
0.4079690000000001
 20
-1.783790999999999
 10
0.399665
 20
-1.545731999999999
 10
0.41222
 20
-1.545290999999999
 10
0.4205390000000001
 20
-1.783358
  0
TEXT
  5
4FB
330
1E
100
AcDbEntity
  8
LAYER_1
 62
     7
100
AcDbText
 10
1.273665
 20
4.013803
 30
0.0
 40
0.099938
  1
0
 50
90.0
 41
0.8357375690575178
  7
SN1
 72
     5
 11
1.273665
 21
4.081415999999999
 31
0.0
100
AcDbText
  0
LWPOLYLINE
  5
4FC
330
1E
100
AcDbEntity
  8
LAYER_1
  6
Continuous
 62
     7
100
AcDbPolyline
 90
        2
 70
     0
 43
0.0
 10
-3.941205
 20
2.370066999999999
 10
-3.841701
 20
2.370066999999999
  0
LWPOLYLINE
  5
500
330
1E
100
AcDbEntity
  8
LAYER_1
  6
Continuous
 62
     7
100
AcDbPolyline
 90
        2
 70
     0
 43
0.0
 10
-3.900534999999999
 20
1.741638
 10
-3.83835
 20
1.741638
  0
LWPOLYLINE
  5
504
330
1E
100
AcDbEntity
  8
LAYER_1
  6
Continuous
 62
     7
100
AcDbPolyline
 90
        2
 70
     0
 43
0.0
 10
-3.863133999999999
 20
1.244121999999999
 10
-3.838255999999999
 20
1.244121999999999
  0
LWPOLYLINE
  5
508
330
1E
100
AcDbEntity
  8
LAYER_1
  6
Continuous
 62
     7
100
AcDbPolyline
 90
        2
 70
     0
 43
0.0
 10
-3.863133999999999
 20
1.3685
 10
-3.838255999999999
 20
1.3685
  0
LWPOLYLINE
  5
50C
330
1E
100
AcDbEntity
  8
LAYER_1
  6
Continuous
 62
     7
100
AcDbPolyline
 90
        2
 70
     0
 43
0.0
 10
-3.863133999999999
 20
1.492886
 10
-3.838255999999999
 20
1.492886
  0
LWPOLYLINE
  5
510
330
1E
100
AcDbEntity
  8
LAYER_1
  6
Continuous
 62
     7
100
AcDbPolyline
 90
        2
 70
     0
 43
0.0
 10
-3.863133999999999
 20
1.617264
 10
-3.838255999999999
 20
1.617264
  0
LWPOLYLINE
  5
514
330
1E
100
AcDbEntity
  8
LAYER_1
  6
Continuous
 62
     7
100
AcDbPolyline
 90
        2
 70
     0
 43
0.0
 10
-3.863133999999999
 20
1.866011999999999
 10
-3.838255999999999
 20
1.866011999999999
  0
LWPOLYLINE
  5
518
330
1E
100
AcDbEntity
  8
LAYER_1
  6
Continuous
 62
     7
100
AcDbPolyline
 90
        2
 70
     0
 43
0.0
 10
-3.863133999999999
 20
1.993649999999999
 10
-3.838255999999999
 20
1.993649999999999
  0
LWPOLYLINE
  5
51C
330
1E
100
AcDbEntity
  8
LAYER_1
  6
Continuous
 62
     7
100
AcDbPolyline
 90
        2
 70
     0
 43
0.0
 10
-3.863133999999999
 20
2.118027999999999
 10
-3.838255999999999
 20
2.118027999999999
  0
LWPOLYLINE
  5
520
330
1E
100
AcDbEntity
  8
LAYER_1
  6
Continuous
 62
     7
100
AcDbPolyline
 90
        2
 70
     0
 43
0.0
 10
-3.863133999999999
 20
2.242412999999999
 10
-3.838255999999999
 20
2.242412999999999
  0
LWPOLYLINE
  5
524
330
1E
100
AcDbEntity
  8
LAYER_1
  6
Continuous
 62
     7
100
AcDbPolyline
 90
        2
 70
     0
 43
0.0
 10
-3.941205
 20
3.619719999999999
 10
-3.841701
 20
3.619719999999999
  0
LWPOLYLINE
  5
528
330
1E
100
AcDbEntity
  8
LAYER_1
  6
Continuous
 62
     7
100
AcDbPolyline
 90
        2
 70
     0
 43
0.0
 10
-3.900534999999999
 20
2.991291
 10
-3.83835
 20
2.991291
  0
LWPOLYLINE
  5
52C
330
1E
100
AcDbEntity
  8
LAYER_1
  6
Continuous
 62
     7
100
AcDbPolyline
 90
        2
 70
     0
 43
0.0
 10
-3.863133999999999
 20
2.493790999999999
 10
-3.838255999999999
 20
2.493790999999999
  0
LWPOLYLINE
  5
530
330
1E
100
AcDbEntity
  8
LAYER_1
  6
Continuous
 62
     7
100
AcDbPolyline
 90
        2
 70
     0
 43
0.0
 10
-3.863133999999999
 20
2.618165
 10
-3.838255999999999
 20
2.618165
  0
LWPOLYLINE
  5
534
330
1E
100
AcDbEntity
  8
LAYER_1
  6
Continuous
 62
     7
100
AcDbPolyline
 90
        2
 70
     0
 43
0.0
 10
-3.863133999999999
 20
2.742538999999999
 10
-3.838255999999999
 20
2.742538999999999
  0
LWPOLYLINE
  5
538
330
1E
100
AcDbEntity
  8
LAYER_1
  6
Continuous
 62
     7
100
AcDbPolyline
 90
        2
 70
     0
 43
0.0
 10
-3.863133999999999
 20
2.866913
 10
-3.838255999999999
 20
2.866913
  0
LWPOLYLINE
  5
53C
330
1E
100
AcDbEntity
  8
LAYER_1
  6
Continuous
 62
     7
100
AcDbPolyline
 90
        2
 70
     0
 43
0.0
 10
-3.863133999999999
 20
3.115677
 10
-3.838255999999999
 20
3.115677
  0
LWPOLYLINE
  5
540
330
1E
100
AcDbEntity
  8
LAYER_1
  6
Continuous
 62
     7
100
AcDbPolyline
 90
        2
 70
     0
 43
0.0
 10
-3.863133999999999
 20
3.243319
 10
-3.838255999999999
 20
3.243319
  0
LWPOLYLINE
  5
544
330
1E
100
AcDbEntity
  8
LAYER_1
  6
Continuous
 62
     7
100
AcDbPolyline
 90
        2
 70
     0
 43
0.0
 10
-3.863133999999999
 20
3.367693
 10
-3.838255999999999
 20
3.367693
  0
LWPOLYLINE
  5
548
330
1E
100
AcDbEntity
  8
LAYER_1
  6
Continuous
 62
     7
100
AcDbPolyline
 90
        2
 70
     0
 43
0.0
 10
-3.863133999999999
 20
3.492067
 10
-3.838255999999999
 20
3.492067
  0
TEXT
  5
54C
330
1E
100
AcDbEntity
  8
LAYER_1
 62
     7
100
AcDbText
 10
-3.74215
 20
1.057941
 30
0.0
 40
0.075434
  1
40
 50
90.0
 41
0.7650507441980779
  7
SN0
 72
     5
 11
-3.74215
 21
1.159621999999999
 31
0.0
100
AcDbText
  0
TEXT
  5
54D
330
1E
100
AcDbEntity
  8
LAYER_1
 62
     7
100
AcDbText
 10
-3.74215
 20
1.333795
 30
0.0
 40
0.075434
  1
50
 50
90.0
 41
0.7650507441980777
  7
SN0
 72
     5
 11
-3.74215
 21
1.435475999999999
 31
0.0
100
AcDbText
  0
SOLID
  5
54E
330
1E
100
AcDbEntity
  8
LAYER_1
  6
Continuous
 62
   153
100
AcDbTrace
 10
0.758583
 20
-2.021374
 30
0.0
 11
0.741984
 21
-1.546412999999999
 31
0.0
 12
1.321968999999999
 22
-2.001704999999999
 32
0.0
 13
1.305386
 23
-1.526731999999999
 33
0.0
  0
LWPOLYLINE
  5
54F
330
1E
100
AcDbEntity
  8
LAYER_1
  6
Continuous
 62
   153
100
AcDbPolyline
 90
        4
 70
     1
 43
0.0
 10
0.758583
 20
-2.021374
 10
0.741984
 20
-1.546412999999999
 10
1.305386
 20
-1.526731999999999
 10
1.321968999999999
 20
-2.001704999999999
  0
LWPOLYLINE
  5
555
330
1E
100
AcDbEntity
  8
LAYER_1
  6
Continuous
 62
     7
100
AcDbPolyline
 90
        4
 70
     1
 43
0.0
 10
0.758583
 20
-2.021374
 10
0.741984
 20
-1.546412999999999
 10
1.305386
 20
-1.526731999999999
 10
1.321968999999999
 20
-2.001704999999999
  0
SOLID
  5
55B
330
1E
100
AcDbEntity
  8
LAYER_1
  6
Continuous
 62
     7
100
AcDbTrace
 10
1.299941
 20
-2.001109999999999
 30
0.0
 11
1.283457
 21
-1.528763999999999
 31
0.0
 12
1.342165
 22
-1.999638
 32
0.0
 13
1.325676999999999
 23
-1.527290999999999
 33
0.0
  0
LWPOLYLINE
  5
55C
330
1E
100
AcDbEntity
  8
LAYER_1
  6
Continuous
 62
     7
100
AcDbPolyline
 90
        4
 70
     1
 43
0.0
 10
1.299941
 20
-2.001109999999999
 10
1.283457
 20
-1.528763999999999
 10
1.325676999999999
 20
-1.527290999999999
 10
1.342165
 20
-1.999638
  0
LWPOLYLINE
  5
562
330
1E
100
AcDbEntity
  8
LAYER_1
  6
Continuous
 62
     7
100
AcDbPolyline
 90
        4
 70
     1
 43
0.0
 10
1.299941
 20
-2.001109999999999
 10
1.283457
 20
-1.528763999999999
 10
1.325676999999999
 20
-1.527290999999999
 10
1.342165
 20
-1.999638
  0
LWPOLYLINE
  5
568
330
1E
100
AcDbEntity
  8
LAYER_1
  6
Continuous
 62
   137
100
AcDbPolyline
 90
       16
 70
     1
 43
0.0
 10
1.135054999999999
 20
-1.768291
 10
1.117207999999999
 20
-1.684892999999999
 10
1.073568
 20
-1.617919
 10
1.010585
 20
-1.574068
 10
0.9347049999999999
 20
-1.560038999999999
 10
0.859885
 20
-1.579929999999999
 10
0.7998
 20
-1.628568
 10
0.7604600000000001
 20
-1.698770999999999
 10
0.747874
 20
-1.783358
 10
0.765721
 20
-1.866756
 10
0.80936
 20
-1.933727999999999
 10
0.872343
 20
-1.977575
 10
0.94822
 20
-1.991593999999999
 10
1.023044999999999
 20
-1.971708999999999
 10
1.083132999999999
 20
-1.923072
 10
1.122473999999999
 20
-1.852871
  0
LWPOLYLINE
  5
57A
330
1E
100
AcDbEntity
  8
LAYER_1
  6
Continuous
 62
     7
100
AcDbPolyline
 90
        5
 70
     0
 43
0.0
 10
1.135054999999999
 20
-1.768291
 10
1.117207999999999
 20
-1.684892999999999
 10
1.073568
 20
-1.617919
 10
1.010585
 20
-1.574068
 10
0.9347049999999999
 20
-1.560038999999999
  0
LWPOLYLINE
  5
581
330
1E
100
AcDbEntity
  8
LAYER_1
  6
Continuous
 62
     7
100
AcDbPolyline
 90
        5
 70
     0
 43
0.0
 10
0.9347049999999999
 20
-1.560038999999999
 10
0.859885
 20
-1.579929999999999
 10
0.7998
 20
-1.628568
 10
0.7604600000000001
 20
-1.698770999999999
 10
0.747874
 20
-1.783358
  0
LWPOLYLINE
  5
588
330
1E
100
AcDbEntity
  8
LAYER_1
  6
Continuous
 62
     7
100
AcDbPolyline
 90
        5
 70
     0
 43
0.0
 10
0.747874
 20
-1.783358
 10
0.765721
 20
-1.866756
 10
0.80936
 20
-1.933727999999999
 10
0.872343
 20
-1.977575
 10
0.94822
 20
-1.991593999999999
  0
LWPOLYLINE
  5
58F
330
1E
100
AcDbEntity
  8
LAYER_1
  6
Continuous
 62
     7
100
AcDbPolyline
 90
        5
 70
     0
 43
0.0
 10
0.94822
 20
-1.991593999999999
 10
1.023044999999999
 20
-1.971708999999999
 10
1.083132999999999
 20
-1.923072
 10
1.122473999999999
 20
-1.852871
 10
1.135054999999999
 20
-1.768291
  0
LWPOLYLINE
  5
596
330
1E
100
AcDbEntity
  8
LAYER_1
  6
Continuous
 62
     7
100
AcDbPolyline
 90
       12
 70
     1
 43
0.0
 10
1.109886
 20
-1.769275999999999
 10
1.083927
 20
-1.675416
 10
1.021387
 20
-1.610412
 10
0.9355669999999999
 20
-1.588082999999999
 10
0.8513629999999999
 20
-1.617023999999999
 10
0.7930430000000001
 20
-1.686729999999999
 10
0.7730120000000001
 20
-1.782385999999999
 10
0.798982
 20
-1.876255
 10
0.8615209999999999
 20
-1.941259
 10
0.9473309999999999
 20
-1.963583
 10
1.031543
 20
-1.934643
 10
1.08986
 20
-1.864934
  0
LWPOLYLINE
  5
5A4
330
1E
100
AcDbEntity
  8
LAYER_1
  6
Continuous
 62
     7
100
AcDbPolyline
 90
        4
 70
     0
 43
0.0
 10
1.109886
 20
-1.769275999999999
 10
1.083927
 20
-1.675416
 10
1.021387
 20
-1.610412
 10
0.9355669999999999
 20
-1.588082999999999
  0
LWPOLYLINE
  5
5AA
330
1E
100
AcDbEntity
  8
LAYER_1
  6
Continuous
 62
     7
100
AcDbPolyline
 90
        4
 70
     0
 43
0.0
 10
0.9355669999999999
 20
-1.588082999999999
 10
0.8513629999999999
 20
-1.617023999999999
 10
0.7930430000000001
 20
-1.686729999999999
 10
0.7730120000000001
 20
-1.782385999999999
  0
LWPOLYLINE
  5
5B0
330
1E
100
AcDbEntity
  8
LAYER_1
  6
Continuous
 62
     7
100
AcDbPolyline
 90
        4
 70
     0
 43
0.0
 10
0.7730120000000001
 20
-1.782385999999999
 10
0.798982
 20
-1.876255
 10
0.8615209999999999
 20
-1.941259
 10
0.9473309999999999
 20
-1.963583
  0
LWPOLYLINE
  5
5B6
330
1E
100
AcDbEntity
  8
LAYER_1
  6
Continuous
 62
     7
100
AcDbPolyline
 90
        4
 70
     0
 43
0.0
 10
0.9473309999999999
 20
-1.963583
 10
1.031543
 20
-1.934643
 10
1.08986
 20
-1.864934
 10
1.109886
 20
-1.769275999999999
  0
LWPOLYLINE
  5
5BC
330
1E
100
AcDbEntity
  8
LAYER_1
  6
Continuous
 62
     7
100
AcDbPolyline
 90
        2
 70
     0
 43
0.0
 10
-3.141394
 20
-3.837566999999999
 10
-3.051571
 20
-3.834802999999999
  0
LWPOLYLINE
  5
5C0
330
1E
100
AcDbEntity
  8
LAYER_1
  6
Continuous
 62
     7
100
AcDbPolyline
 90
        2
 70
     0
 43
0.0
 10
-3.14137
 20
-3.828566999999999
 10
-3.051550999999999
 20
-3.825803
  0
LWPOLYLINE
  5
5C4
330
1E
100
AcDbEntity
  8
LAYER_1
  6
Continuous
 62
     7
100
AcDbPolyline
 90
        2
 70
     0
 43
0.0
 10
-3.14135
 20
-3.819555
 10
-3.051527999999999
 20
-3.816791
  0
LWPOLYLINE
  5
5C8
330
1E
100
AcDbEntity
  8
LAYER_1
  6
Continuous
 62
     7
100
AcDbPolyline
 90
        2
 70
     0
 43
0.0
 10
-3.141849999999999
 20
-3.810538999999999
 10
-3.052027999999999
 20
-3.807776
  0
LWPOLYLINE
  5
5CC
330
1E
100
AcDbEntity
  8
LAYER_1
  6
Continuous
 62
     7
100
AcDbPolyline
 90
        2
 70
     0
 43
0.0
 10
-3.141827
 20
-3.801527999999999
 10
-3.052004
 20
-3.798763999999999
  0
TEXT
  5
5D0
330
1E
100
AcDbEntity
  8
LAYER_1
 62
     7
100
AcDbText
 10
-3.791377999999999
 20
-4.640047
 30
0.0
 40
0.128285
  1
1:8 scale
 50
90.0
 41
0.6716171851426638
  7
SN0
 72
     5
 11
-3.791377999999999
 21
-4.020526999999999
 31
0.0
100
AcDbText
  0
LWPOLYLINE
  5
5D1
330
1E
100
AcDbEntity
  8
LAYER_1
  6
Continuous
 62
     7
100
AcDbPolyline
 90
        2
 70
     0
 43
0.0
 10
-2.319831
 20
0.061858
 10
-2.187165
 20
0.061858
  0
LWPOLYLINE
  5
5D5
330
1E
100
AcDbEntity
  8
LAYER_1
  6
Continuous
 62
     7
100
AcDbPolyline
 90
        2
 70
     0
 43
0.0
 10
-2.307857999999999
 20
2.997622
 10
-2.175193
 20
2.997622
  0
TEXT
  5
5D9
330
1E
100
AcDbEntity
  8
LAYER_1
 62
     7
100
AcDbText
 10
-2.145929
 20
0.742346
 30
0.0
 40
0.099938
  1
0.5 deg washout twist
 50
90.0
 41
0.6581550802784589
  7
SN1
 72
     5
 11
-2.145929
 21
1.910629999999999
 31
0.0
100
AcDbText
  0
LWPOLYLINE
  5
5DA
330
1E
100
AcDbEntity
  8
LAYER_1
  6
Continuous
 62
     7
100
AcDbPolyline
 90
        2
 70
     0
 43
0.0
 10
-3.900534999999999
 20
4.240941
 10
-3.83835
 20
4.240941
  0
LWPOLYLINE
  5
5DE
330
1E
100
AcDbEntity
  8
LAYER_1
  6
Continuous
 62
     7
100
AcDbPolyline
 90
        2
 70
     0
 43
0.0
 10
-3.863133999999999
 20
3.743441
 10
-3.838255999999999
 20
3.743441
  0
LWPOLYLINE
  5
5E2
330
1E
100
AcDbEntity
  8
LAYER_1
  6
Continuous
 62
     7
100
AcDbPolyline
 90
        2
 70
     0
 43
0.0
 10
-3.863133999999999
 20
3.867819
 10
-3.838255999999999
 20
3.867819
  0
LWPOLYLINE
  5
5E6
330
1E
100
AcDbEntity
  8
LAYER_1
  6
Continuous
 62
     7
100
AcDbPolyline
 90
        2
 70
     0
 43
0.0
 10
-3.863133999999999
 20
3.992192999999999
 10
-3.838255999999999
 20
3.992192999999999
  0
LWPOLYLINE
  5
5EA
330
1E
100
AcDbEntity
  8
LAYER_1
  6
Continuous
 62
     7
100
AcDbPolyline
 90
        2
 70
     0
 43
0.0
 10
-3.863133999999999
 20
4.116566999999999
 10
-3.838255999999999
 20
4.116566999999999
  0
LWPOLYLINE
  5
5EE
330
1E
100
AcDbEntity
  8
LAYER_1
  6
Continuous
 62
     7
100
AcDbPolyline
 90
        4
 70
     0
 43
0.0
 10
-3.159475999999999
 20
-3.878109999999999
 10
-3.161077999999999
 20
-3.872194
 10
-3.165284
 20
-3.867987
 10
-3.171200999999999
 20
-3.866385999999999
  0
LWPOLYLINE
  5
5F4
330
1E
100
AcDbEntity
  8
LAYER_1
  6
Continuous
 62
     7
100
AcDbPolyline
 90
        4
 70
     0
 43
0.0
 10
-3.171200999999999
 20
-3.866385999999999
 10
-3.177116999999999
 20
-3.867987
 10
-3.181324
 20
-3.872194
 10
-3.182925
 20
-3.878109999999999
  0
LWPOLYLINE
  5
5FA
330
1E
100
AcDbEntity
  8
LAYER_1
  6
Continuous
 62
     7
100
AcDbPolyline
 90
        4
 70
     0
 43
0.0
 10
-3.182925
 20
-3.878109999999999
 10
-3.181324
 20
-3.884026
 10
-3.177116999999999
 20
-3.88823
 10
-3.171200999999999
 20
-3.889830999999999
  0
LWPOLYLINE
  5
600
330
1E
100
AcDbEntity
  8
LAYER_1
  6
Continuous
 62
     7
100
AcDbPolyline
 90
        4
 70
     0
 43
0.0
 10
-3.171200999999999
 20
-3.889830999999999
 10
-3.165284
 20
-3.88823
 10
-3.161077999999999
 20
-3.884026
 10
-3.159475999999999
 20
-3.878109999999999
  0
LWPOLYLINE
  5
606
330
1E
100
AcDbEntity
  8
LAYER_1
  6
Continuous
 62
     7
100
AcDbPolyline
 90
        4
 70
     0
 43
0.0
 10
-3.147752
 20
-3.878122
 10
-3.150952999999999
 20
-3.86629
 10
-3.159365
 20
-3.857879
 10
-3.171200999999999
 20
-3.854676999999999
  0
LWPOLYLINE
  5
60C
330
1E
100
AcDbEntity
  8
LAYER_1
  6
Continuous
 62
     7
100
AcDbPolyline
 90
        4
 70
     0
 43
0.0
 10
-3.171200999999999
 20
-3.854676999999999
 10
-3.183034999999999
 20
-3.857879
 10
-3.191447999999999
 20
-3.86629
 10
-3.19465
 20
-3.878122
  0
LWPOLYLINE
  5
612
330
1E
100
AcDbEntity
  8
LAYER_1
  6
Continuous
 62
     7
100
AcDbPolyline
 90
        4
 70
     0
 43
0.0
 10
-3.19465
 20
-3.878122
 10
-3.191447999999999
 20
-3.889953999999999
 10
-3.183034999999999
 20
-3.898365
 10
-3.171200999999999
 20
-3.901567
  0
LWPOLYLINE
  5
618
330
1E
100
AcDbEntity
  8
LAYER_1
  6
Continuous
 62
     7
100
AcDbPolyline
 90
        4
 70
     0
 43
0.0
 10
-3.171200999999999
 20
-3.901567
 10
-3.159365
 20
-3.898365
 10
-3.150952999999999
 20
-3.889953999999999
 10
-3.147752
 20
-3.878122
  0
LWPOLYLINE
  5
61E
330
1E
100
AcDbEntity
  8
LAYER_1
  6
DASHED
 62
     7
100
AcDbPolyline
 90
        2
 70
     0
 43
0.0
 10
-2.122345999999999
 20
-3.878122
 10
-3.667369999999999
 20
-3.878122
  0
LWPOLYLINE
  5
622
330
1E
100
AcDbEntity
  8
LAYER_1
  6
Continuous
 62
     7
100
AcDbPolyline
 90
        4
 70
     0
 43
0.0
 10
3.258901999999999
 20
4.617066999999999
 10
3.258804999999999
 20
4.616327
 10
3.258131999999999
 20
4.611145999999999
 10
3.256302999999999
 20
4.597083
  0
LWPOLYLINE
  5
628
330
1E
100
AcDbEntity
  8
LAYER_1
  6
Continuous
 62
     7
100
AcDbPolyline
 90
        4
 70
     0
 43
0.0
 10
3.256302999999999
 20
4.597083
 10
3.252809
 20
4.570337
 10
3.247399
 20
4.529694999999999
 10
3.239886
 20
4.474582999999999
  0
LWPOLYLINE
  5
62E
330
1E
100
AcDbEntity
  8
LAYER_1
  6
Continuous
 62
     7
100
AcDbPolyline
 90
        4
 70
     0
 43
0.0
 10
3.239886
 20
4.474582999999999
 10
3.230249
 20
4.405189
 10
3.218987999999999
 20
4.324859
 10
3.206748
 20
4.237705
  0
LWPOLYLINE
  5
634
330
1E
100
AcDbEntity
  8
LAYER_1
  6
Continuous
 62
     7
100
AcDbPolyline
 90
        4
 70
     0
 43
0.0
 10
3.206748
 20
4.237705
 10
3.1941
 20
4.147292
 10
3.181229999999999
 20
4.054964
 10
3.168248
 20
3.961512
  0
LWPOLYLINE
  5
63A
330
1E
100
AcDbEntity
  8
LAYER_1
  6
Continuous
 62
     7
100
AcDbPolyline
 90
        4
 70
     0
 43
0.0
 10
3.168248
 20
3.961512
 10
3.155241999999999
 20
3.867622
 10
3.142202999999999
 20
3.773518
 10
3.129093999999999
 20
3.679302999999999
  0
LWPOLYLINE
  5
640
330
1E
100
AcDbEntity
  8
LAYER_1
  6
Continuous
 62
     7
100
AcDbPolyline
 90
        4
 70
     0
 43
0.0
 10
3.129093999999999
 20
3.679302999999999
 10
3.115889
 20
3.585058999999999
 10
3.102648999999999
 20
3.490748
 10
3.089440999999999
 20
3.396291
  0
LWPOLYLINE
  5
646
330
1E
100
AcDbEntity
  8
LAYER_1
  6
Continuous
 62
     7
100
AcDbPolyline
 90
        4
 70
     0
 43
0.0
 10
3.089440999999999
 20
3.396291
 10
3.076341999999999
 20
3.301648
 10
3.063346
 20
3.206932
 10
3.050456999999999
 20
3.112290999999999
  0
LWPOLYLINE
  5
64C
330
1E
100
AcDbEntity
  8
LAYER_1
  6
Continuous
 62
     7
100
AcDbPolyline
 90
        4
 70
     0
 43
0.0
 10
3.050456999999999
 20
3.112290999999999
 10
3.037673999999999
 20
3.017825999999999
 10
3.024999999999999
 20
2.923470999999999
 10
3.012440999999999
 20
2.82911
  0
LWPOLYLINE
  5
652
330
1E
100
AcDbEntity
  8
LAYER_1
  6
Continuous
 62
     7
100
AcDbPolyline
 90
        4
 70
     0
 43
0.0
 10
3.012440999999999
 20
2.82911
 10
2.99999
 20
2.734677
 10
2.987683
 20
2.640204999999999
 10
2.975554999999999
 20
2.545764
  0
LWPOLYLINE
  5
658
330
1E
100
AcDbEntity
  8
LAYER_1
  6
Continuous
 62
     7
100
AcDbPolyline
 90
        4
 70
     0
 43
0.0
 10
2.975554999999999
 20
2.545764
 10
2.963636999999999
 20
2.45142
 10
2.951895999999999
 20
2.357147
 10
2.940302999999999
 20
2.262913
  0
LWPOLYLINE
  5
65E
330
1E
100
AcDbEntity
  8
LAYER_1
  6
Continuous
 62
     7
100
AcDbPolyline
 90
        4
 70
     0
 43
0.0
 10
2.940302999999999
 20
2.262913
 10
2.928827999999999
 20
2.168686999999999
 10
2.917499
 20
2.074501999999999
 10
2.906346
 20
1.980386
  0
LWPOLYLINE
  5
664
330
1E
100
AcDbEntity
  8
LAYER_1
  6
Continuous
 62
     7
100
AcDbPolyline
 90
        4
 70
     0
 43
0.0
 10
2.906346
 20
1.980386
 10
2.89541
 20
1.886359
 10
2.884688
 20
1.792413999999999
 10
2.874176999999999
 20
1.698499999999999
  0
LWPOLYLINE
  5
66A
330
1E
100
AcDbEntity
  8
LAYER_1
  6
Continuous
 62
     7
100
AcDbPolyline
 90
        4
 70
     0
 43
0.0
 10
2.874176999999999
 20
1.698499999999999
 10
2.863885999999999
 20
1.604594999999999
 10
2.853813
 20
1.510688
 10
2.843956999999999
 20
1.416776
  0
LWPOLYLINE
  5
670
330
1E
100
AcDbEntity
  8
LAYER_1
  6
Continuous
 62
     7
100
AcDbPolyline
 90
        4
 70
     0
 43
0.0
 10
2.843956999999999
 20
1.416776
 10
2.834322
 20
1.322867
 10
2.824943
 20
1.228920999999999
 10
2.815846
 20
1.134902
  0
LWPOLYLINE
  5
676
330
1E
100
AcDbEntity
  8
LAYER_1
  6
Continuous
 62
     7
100
AcDbPolyline
 90
        4
 70
     0
 43
0.0
 10
2.815846
 20
1.134902
 10
2.807064
 20
1.040781999999999
 10
2.798531999999999
 20
0.946593
 10
2.790176999999999
 20
0.852374
  0
LWPOLYLINE
  5
67C
330
1E
100
AcDbEntity
  8
LAYER_1
  6
Continuous
 62
     7
100
AcDbPolyline
 90
        4
 70
     0
 43
0.0
 10
2.790176999999999
 20
0.852374
 10
2.781963999999999
 20
0.758141
 10
2.773925999999999
 20
0.66391
 10
2.766138
 20
0.569677
  0
LWPOLYLINE
  5
682
330
1E
100
AcDbEntity
  8
LAYER_1
  6
Continuous
 62
     7
100
AcDbPolyline
 90
        4
 70
     0
 43
0.0
 10
2.766138
 20
0.569677
 10
2.758659
 20
0.4754450000000001
 10
2.751468999999999
 20
0.381216
 10
2.744527999999999
 20
0.286984
  0
LWPOLYLINE
  5
688
330
1E
100
AcDbEntity
  8
LAYER_1
  6
Continuous
 62
     7
100
AcDbPolyline
 90
        4
 70
     0
 43
0.0
 10
2.744527999999999
 20
0.286984
 10
2.737813
 20
0.192752
 10
2.731316
 20
0.098523
 10
2.725038999999999
 20
0.004291
  0
LWPOLYLINE
  5
68E
330
1E
100
AcDbEntity
  8
LAYER_1
  6
Continuous
 62
     7
100
AcDbPolyline
 90
        4
 70
     0
 43
0.0
 10
2.725038999999999
 20
0.004291
 10
2.718968999999999
 20
-0.089942
 10
2.713118999999999
 20
-0.184174
 10
2.707484
 20
-0.278402
  0
LWPOLYLINE
  5
694
330
1E
100
AcDbEntity
  8
LAYER_1
  6
Continuous
 62
     7
100
AcDbPolyline
 90
        4
 70
     0
 43
0.0
 10
2.707484
 20
-0.278402
 10
2.702074
 20
-0.372634
 10
2.696919999999999
 20
-0.466862
 10
2.692054999999999
 20
-0.561094
  0
LWPOLYLINE
  5
69A
330
1E
100
AcDbEntity
  8
LAYER_1
  6
Continuous
 62
     7
100
AcDbPolyline
 90
        4
 70
     0
 43
0.0
 10
2.692054999999999
 20
-0.561094
 10
2.687504999999999
 20
-0.655321
 10
2.683279
 20
-0.749508
 10
2.679386
 20
-0.843622
  0
LWPOLYLINE
  5
6A0
330
1E
100
AcDbEntity
  8
LAYER_1
  6
Continuous
 62
     7
100
AcDbPolyline
 90
        4
 70
     0
 43
0.0
 10
2.679386
 20
-0.843622
 10
2.675802999999999
 20
-0.937649
 10
2.672553999999999
 20
-1.031637999999999
 10
2.669637999999999
 20
-1.125664999999999
  0
LWPOLYLINE
  5
6A6
330
1E
100
AcDbEntity
  8
LAYER_1
  6
Continuous
 62
     7
100
AcDbPolyline
 90
        4
 70
     0
 43
0.0
 10
2.669637999999999
 20
-1.125664999999999
 10
2.667035999999999
 20
-1.21977
 10
2.664756999999999
 20
-1.313876999999999
 10
2.662802999999999
 20
-1.407874
  0
LWPOLYLINE
  5
6AC
330
1E
100
AcDbEntity
  8
LAYER_1
  6
Continuous
 62
     7
100
AcDbPolyline
 90
        4
 70
     0
 43
0.0
 10
2.662802999999999
 20
-1.407874
 10
2.661184999999999
 20
-1.501687999999999
 10
2.659886
 20
-1.59535
 10
2.658913
 20
-1.688940999999999
  0
LWPOLYLINE
  5
6B2
330
1E
100
AcDbEntity
  8
LAYER_1
  6
Continuous
 62
     7
100
AcDbPolyline
 90
        4
 70
     0
 43
0.0
 10
2.658913
 20
-1.688940999999999
 10
2.658265999999999
 20
-1.78252
 10
2.657983
 20
-1.876060999999999
 10
2.658093999999999
 20
-1.969528
  0
LWPOLYLINE
  5
6B8
330
1E
100
AcDbEntity
  8
LAYER_1
  6
Continuous
 62
     7
100
AcDbPolyline
 90
        4
 70
     0
 43
0.0
 10
2.658093999999999
 20
-1.969528
 10
2.658641999999999
 20
-2.062894
 10
2.659618999999999
 20
-2.15619
 10
2.661027999999999
 20
-2.249457
  0
LWPOLYLINE
  5
6BE
330
1E
100
AcDbEntity
  8
LAYER_1
  6
Continuous
 62
     7
100
AcDbPolyline
 90
        4
 70
     0
 43
0.0
 10
2.661027999999999
 20
-2.249457
 10
2.662873999999999
 20
-2.342690999999999
 10
2.665191
 20
-2.435820999999999
 10
2.668012
 20
-2.528731999999999
  0
LWPOLYLINE
  5
6C4
330
1E
100
AcDbEntity
  8
LAYER_1
  6
Continuous
 62
     7
100
AcDbPolyline
 90
        4
 70
     0
 43
0.0
 10
2.668012
 20
-2.528731999999999
 10
2.671368
 20
-2.621358
 10
2.675266999999999
 20
-2.713768999999999
 10
2.679704999999999
 20
-2.806066999999999
  0
LWPOLYLINE
  5
6CA
330
1E
100
AcDbEntity
  8
LAYER_1
  6
Continuous
 62
     7
100
AcDbPolyline
 90
        4
 70
     0
 43
0.0
 10
2.679704999999999
 20
-2.806066999999999
 10
2.684691999999999
 20
-2.898331
 10
2.690259
 20
-2.99049
 10
2.696441
 20
-3.082429
  0
LWPOLYLINE
  5
6D0
330
1E
100
AcDbEntity
  8
LAYER_1
  6
Continuous
 62
     7
100
AcDbPolyline
 90
        4
 70
     0
 43
0.0
 10
2.696441
 20
-3.082429
 10
2.703265
 20
-3.174059
 10
2.710738
 20
-3.265365
 10
2.718857999999999
 20
-3.356345999999999
  0
LWPOLYLINE
  5
6D6
330
1E
100
AcDbEntity
  8
LAYER_1
  6
Continuous
 62
     7
100
AcDbPolyline
 90
        4
 70
     0
 43
0.0
 10
2.718857999999999
 20
-3.356345999999999
 10
2.727643
 20
-3.446991
 10
2.737152999999999
 20
-3.537237999999999
 10
2.747456999999999
 20
-3.627012
  0
LWPOLYLINE
  5
6DC
330
1E
100
AcDbEntity
  8
LAYER_1
  6
Continuous
 62
     7
100
AcDbPolyline
 90
        4
 70
     0
 43
0.0
 10
2.747456999999999
 20
-3.627012
 10
2.758624
 20
-3.716261
 10
2.770731
 20
-3.80493
 10
2.783846
 20
-3.892983999999999
  0
LWPOLYLINE
  5
6E2
330
1E
100
AcDbEntity
  8
LAYER_1
  6
Continuous
 62
     7
100
AcDbPolyline
 90
        4
 70
     0
 43
0.0
 10
2.783846
 20
-3.892983999999999
 10
2.798038
 20
-3.980361
 10
2.813308999999999
 20
-4.06695
 10
2.829665
 20
-4.152601999999999
  0
LWPOLYLINE
  5
6E8
330
1E
100
AcDbEntity
  8
LAYER_1
  6
Continuous
 62
     7
100
AcDbPolyline
 90
        4
 70
     0
 43
0.0
 10
2.829665
 20
-4.152601999999999
 10
2.847118
 20
-4.237155999999999
 10
2.865764
 20
-4.320412999999999
 10
2.885704999999999
 20
-4.402154
  0
LWPOLYLINE
  5
6EE
330
1E
100
AcDbEntity
  8
LAYER_1
  6
Continuous
 62
     7
100
AcDbPolyline
 90
        4
 70
     0
 43
0.0
 10
2.885704999999999
 20
-4.402154
 10
2.907019
 20
-4.48208
 10
2.929556
 20
-4.559587999999999
 10
2.953138
 20
-4.633992
  0
LWPOLYLINE
  5
6F4
330
1E
100
AcDbEntity
  8
LAYER_1
  6
Continuous
 62
     7
100
AcDbPolyline
 90
        4
 70
     0
 43
0.0
 10
2.953138
 20
-4.633992
 10
2.977541
 20
-4.704545999999999
 10
3.002381
 20
-4.770259999999999
 10
3.02722
 20
-4.830087
  0
LWPOLYLINE
  5
6FA
330
1E
100
AcDbEntity
  8
LAYER_1
  6
Continuous
 62
     7
100
AcDbPolyline
 90
        4
 70
     0
 43
0.0
 10
3.02722
 20
-4.830087
 10
3.051622
 20
-4.88318
 10
3.075121999999999
 20
-4.929446999999999
 10
3.097248
 20
-4.969
  0
LWPOLYLINE
  5
700
330
1E
100
AcDbEntity
  8
LAYER_1
  6
Continuous
 62
     7
100
AcDbPolyline
 90
        4
 70
     0
 43
0.0
 10
3.097248
 20
-4.969
 10
3.117633
 20
-5.002070999999999
 10
3.136322999999999
 20
-5.029401999999999
 10
3.153456999999999
 20
-5.051858
  0
LWPOLYLINE
  5
706
330
1E
100
AcDbEntity
  8
LAYER_1
  6
Continuous
 62
     7
100
AcDbPolyline
 90
        4
 70
     0
 43
0.0
 10
3.153456999999999
 20
-5.051858
 10
3.169195999999999
 20
-5.070257999999999
 10
3.183704
 20
-5.085228999999999
 10
3.197165
 20
-5.097349999999999
  0
LWPOLYLINE
  5
70C
330
1E
100
AcDbEntity
  8
LAYER_1
  6
Continuous
 62
     7
100
AcDbPolyline
 90
        4
 70
     0
 43
0.0
 10
3.197165
 20
-5.097349999999999
 10
3.209754
 20
-5.107133
 10
3.221620999999999
 20
-5.114859
 10
3.232912999999999
 20
-5.120744
  0
LWPOLYLINE
  5
712
330
1E
100
AcDbEntity
  8
LAYER_1
  6
Continuous
 62
     7
100
AcDbPolyline
 90
        4
 70
     0
 43
0.0
 10
3.232912999999999
 20
-5.120744
 10
3.243759999999999
 20
-5.124943
 10
3.254281999999999
 20
-5.127373999999999
 10
3.264583
 20
-5.127894
  0
LWPOLYLINE
  5
718
330
1E
100
AcDbEntity
  8
LAYER_1
  6
Continuous
 62
     7
100
AcDbPolyline
 90
        4
 70
     0
 43
0.0
 10
3.264583
 20
-5.127894
 10
3.274745
 20
-5.126370999999999
 10
3.284691999999999
 20
-5.122754
 10
3.294319
 20
-5.117008
  0
LWPOLYLINE
  5
71E
330
1E
100
AcDbEntity
  8
LAYER_1
  6
Continuous
 62
     7
100
AcDbPolyline
 90
        4
 70
     0
 43
0.0
 10
3.294319
 20
-5.117008
 10
3.303544
 20
-5.109087
 10
3.312483999999999
 20
-5.09893
 10
3.321276
 20
-5.086460999999999
  0
LWPOLYLINE
  5
724
330
1E
100
AcDbEntity
  8
LAYER_1
  6
Continuous
 62
     7
100
AcDbPolyline
 90
        4
 70
     0
 43
0.0
 10
3.321276
 20
-5.086460999999999
 10
3.330071999999999
 20
-5.071524
 10
3.338972
 20
-5.053587
 10
3.348083
 20
-5.032034999999999
  0
LWPOLYLINE
  5
72A
330
1E
100
AcDbEntity
  8
LAYER_1
  6
Continuous
 62
     7
100
AcDbPolyline
 90
        4
 70
     0
 43
0.0
 10
3.348083
 20
-5.032034999999999
 10
3.357519999999999
 20
-5.006178
 10
3.367355999999999
 20
-4.974979
 10
3.377665
 20
-4.937319
  0
LWPOLYLINE
  5
730
330
1E
100
AcDbEntity
  8
LAYER_1
  6
Continuous
 62
     7
100
AcDbPolyline
 90
        4
 70
     0
 43
0.0
 10
3.377665
 20
-4.937319
 10
3.388421
 20
-4.892250999999999
 10
3.399287999999999
 20
-4.839526
 10
3.409830999999999
 20
-4.779074999999999
  0
LWPOLYLINE
  5
736
330
1E
100
AcDbEntity
  8
LAYER_1
  6
Continuous
 62
     7
100
AcDbPolyline
 90
        4
 70
     0
 43
0.0
 10
3.409830999999999
 20
-4.779074999999999
 10
3.419669999999999
 20
-4.711073999999999
 10
3.428641
 20
-4.636680999999999
 10
3.436637999999999
 20
-4.557306999999999
  0
LWPOLYLINE
  5
73C
330
1E
100
AcDbEntity
  8
LAYER_1
  6
Continuous
 62
     7
100
AcDbPolyline
 90
        4
 70
     0
 43
0.0
 10
3.436637999999999
 20
-4.557306999999999
 10
3.443575
 20
-4.474249999999999
 10
3.449465
 20
-4.388377999999999
 10
3.454345999999999
 20
-4.300448999999999
  0
LWPOLYLINE
  5
742
330
1E
100
AcDbEntity
  8
LAYER_1
  6
Continuous
 62
     7
100
AcDbPolyline
 90
        4
 70
     0
 43
0.0
 10
3.454345999999999
 20
-4.300448999999999
 10
3.458262
 20
-4.211126999999999
 10
3.461312
 20
-4.120724
 10
3.463609999999999
 20
-4.029456999999999
  0
LWPOLYLINE
  5
748
330
1E
100
AcDbEntity
  8
LAYER_1
  6
Continuous
 62
     7
100
AcDbPolyline
 90
        4
 70
     0
 43
0.0
 10
3.463609999999999
 20
-4.029456999999999
 10
3.465243
 20
-3.937512
 10
3.466301
 20
-3.84503
 10
3.466858
 20
-3.752121999999999
  0
LWPOLYLINE
  5
74E
330
1E
100
AcDbEntity
  8
LAYER_1
  6
Continuous
 62
     7
100
AcDbPolyline
 90
        4
 70
     0
 43
0.0
 10
3.466858
 20
-3.752121999999999
 10
3.466969999999999
 20
-3.658863999999999
 10
3.466686
 20
-3.56528
 10
3.466038999999999
 20
-3.471373999999999
  0
LWPOLYLINE
  5
754
330
1E
100
AcDbEntity
  8
LAYER_1
  6
Continuous
 62
     7
100
AcDbPolyline
 90
        4
 70
     0
 43
0.0
 10
3.466038999999999
 20
-3.471373999999999
 10
3.465079
 20
-3.377159999999999
 10
3.463864
 20
-3.28273
 10
3.462469
 20
-3.188193
  0
LWPOLYLINE
  5
75A
330
1E
100
AcDbEntity
  8
LAYER_1
  6
Continuous
 62
     7
100
AcDbPolyline
 90
        4
 70
     0
 43
0.0
 10
3.462469
 20
-3.188193
 10
3.460941
 20
-3.093625999999999
 10
3.459226999999999
 20
-2.998986999999999
 10
3.457263999999999
 20
-2.904205
  0
LWPOLYLINE
  5
760
330
1E
100
AcDbEntity
  8
LAYER_1
  6
Continuous
 62
     7
100
AcDbPolyline
 90
        4
 70
     0
 43
0.0
 10
3.457263999999999
 20
-2.904205
 10
3.455001
 20
-2.809222999999999
 10
3.452491
 20
-2.714097999999999
 10
3.449802999999999
 20
-2.618901999999999
  0
LWPOLYLINE
  5
766
330
1E
100
AcDbEntity
  8
LAYER_1
  6
Continuous
 62
     7
100
AcDbPolyline
 90
        4
 70
     0
 43
0.0
 10
3.449802999999999
 20
-2.618901999999999
 10
3.446991
 20
-2.523700999999999
 10
3.444108
 20
-2.428497
 10
3.441193
 20
-2.333291
  0
LWPOLYLINE
  5
76C
330
1E
100
AcDbEntity
  8
LAYER_1
  6
Continuous
 62
     7
100
AcDbPolyline
 90
        4
 70
     0
 43
0.0
 10
3.441193
 20
-2.333291
 10
3.438251
 20
-2.238084999999999
 10
3.435241
 20
-2.142879
 10
3.432094
 20
-2.047665
  0
LWPOLYLINE
  5
772
330
1E
100
AcDbEntity
  8
LAYER_1
  6
Continuous
 62
     7
100
AcDbPolyline
 90
        4
 70
     0
 43
0.0
 10
3.432094
 20
-2.047665
 10
3.428748
 20
-1.952459999999999
 10
3.425255
 20
-1.857211999999999
 10
3.421692999999999
 20
-1.761886
  0
LWPOLYLINE
  5
778
330
1E
100
AcDbEntity
  8
LAYER_1
  6
Continuous
 62
     7
100
AcDbPolyline
 90
        4
 70
     0
 43
0.0
 10
3.421692999999999
 20
-1.761886
 10
3.418108
 20
-1.66647
 10
3.414491
 20
-1.570937999999999
 10
3.410803
 20
-1.475290999999999
  0
LWPOLYLINE
  5
77E
330
1E
100
AcDbEntity
  8
LAYER_1
  6
Continuous
 62
     7
100
AcDbPolyline
 90
        4
 70
     0
 43
0.0
 10
3.410803
 20
-1.475290999999999
 10
3.407017999999999
 20
-1.379562999999999
 10
3.403158999999999
 20
-1.283790999999999
 10
3.399264
 20
-1.188054999999999
  0
LWPOLYLINE
  5
784
330
1E
100
AcDbEntity
  8
LAYER_1
  6
Continuous
 62
     7
100
AcDbPolyline
 90
        4
 70
     0
 43
0.0
 10
3.399264
 20
-1.188054999999999
 10
3.395369
 20
-1.092408
 10
3.391469
 20
-0.996837
 10
3.387566999999999
 20
-0.901303
  0
LWPOLYLINE
  5
78A
330
1E
100
AcDbEntity
  8
LAYER_1
  6
Continuous
 62
     7
100
AcDbPolyline
 90
        4
 70
     0
 43
0.0
 10
3.387566999999999
 20
-0.901303
 10
3.383673999999999
 20
-0.8057689999999999
 10
3.379774999999999
 20
-0.710194
 10
3.375873999999999
 20
-0.6145390000000001
  0
LWPOLYLINE
  5
790
330
1E
100
AcDbEntity
  8
LAYER_1
  6
Continuous
 62
     7
100
AcDbPolyline
 90
        4
 70
     0
 43
0.0
 10
3.375873999999999
 20
-0.6145390000000001
 10
3.371966999999999
 20
-0.5188000000000001
 10
3.368028999999999
 20
-0.4229880000000001
 10
3.364012
 20
-0.327138
  0
LWPOLYLINE
  5
796
330
1E
100
AcDbEntity
  8
LAYER_1
  6
Continuous
 62
     7
100
AcDbPolyline
 90
        4
 70
     0
 43
0.0
 10
3.364012
 20
-0.327138
 10
3.359904
 20
-0.231293
 10
3.355717999999999
 20
-0.135478
 10
3.3515
 20
-0.039732
  0
LWPOLYLINE
  5
79C
330
1E
100
AcDbEntity
  8
LAYER_1
  6
Continuous
 62
     7
100
AcDbPolyline
 90
        4
 70
     0
 43
0.0
 10
3.3515
 20
-0.039732
 10
3.347283
 20
0.055915
 10
3.343104
 20
0.151527
 10
3.338999999999999
 20
0.247177
  0
LWPOLYLINE
  5
7A2
330
1E
100
AcDbEntity
  8
LAYER_1
  6
Continuous
 62
     7
100
AcDbPolyline
 90
        4
 70
     0
 43
0.0
 10
3.338999999999999
 20
0.247177
 10
3.334973
 20
0.342919
 10
3.330987
 20
0.4387310000000001
 10
3.326969
 20
0.5345830000000001
  0
LWPOLYLINE
  5
7A8
330
1E
100
AcDbEntity
  8
LAYER_1
  6
Continuous
 62
     7
100
AcDbPolyline
 90
        4
 70
     0
 43
0.0
 10
3.326969
 20
0.5345830000000001
 10
3.322866
 20
0.6304330000000001
 10
3.318724
 20
0.726244
 10
3.314621999999999
 20
0.8219840000000001
  0
LWPOLYLINE
  5
7AE
330
1E
100
AcDbEntity
  8
LAYER_1
  6
Continuous
 62
     7
100
AcDbPolyline
 90
        4
 70
     0
 43
0.0
 10
3.314621999999999
 20
0.8219840000000001
 10
3.310607
 20
0.917632
 10
3.306626
 20
1.013209999999999
 10
3.30261
 20
1.108748
  0
LWPOLYLINE
  5
7B4
330
1E
100
AcDbEntity
  8
LAYER_1
  6
Continuous
 62
     7
100
AcDbPolyline
 90
        4
 70
     0
 43
0.0
 10
3.30261
 20
1.108748
 10
3.298501
 20
1.204282
 10
3.294358
 20
1.299853
 10
3.290248
 20
1.395499999999999
  0
LWPOLYLINE
  5
7BA
330
1E
100
AcDbEntity
  8
LAYER_1
  6
Continuous
 62
     7
100
AcDbPolyline
 90
        4
 70
     0
 43
0.0
 10
3.290248
 20
1.395499999999999
 10
3.286244999999999
 20
1.491230999999999
 10
3.282345999999999
 20
1.586961999999999
 10
3.278555
 20
1.682583
  0
LWPOLYLINE
  5
7C0
330
1E
100
AcDbEntity
  8
LAYER_1
  6
Continuous
 62
     7
100
AcDbPolyline
 90
        4
 70
     0
 43
0.0
 10
3.278555
 20
1.682583
 10
3.27488
 20
1.777906999999999
 10
3.271349999999999
 20
1.872438
 10
3.267999999999999
 20
1.965593999999999
  0
LWPOLYLINE
  5
7C6
330
1E
100
AcDbEntity
  8
LAYER_1
  6
Continuous
 62
     7
100
AcDbPolyline
 90
        4
 70
     0
 43
0.0
 10
3.267999999999999
 20
1.965593999999999
 10
3.264895
 20
2.057068999999999
 10
3.262225999999999
 20
2.147606999999999
 10
3.260205
 20
2.23822
  0
LWPOLYLINE
  5
7CC
330
1E
100
AcDbEntity
  8
LAYER_1
  6
Continuous
 62
     7
100
AcDbPolyline
 90
        4
 70
     0
 43
0.0
 10
3.260205
 20
2.23822
 10
3.25897
 20
2.329731999999999
 10
3.258345999999999
 20
2.422296999999999
 10
3.258083
 20
2.515874
  0
LWPOLYLINE
  5
7D2
330
1E
100
AcDbEntity
  8
LAYER_1
  6
Continuous
 62
     7
100
AcDbPolyline
 90
        4
 70
     0
 43
0.0
 10
3.258083
 20
2.515874
 10
3.257975
 20
2.610374
 10
3.257934999999999
 20
2.705524
 10
3.257929
 20
2.801
  0
LWPOLYLINE
  5
7D8
330
1E
100
AcDbEntity
  8
LAYER_1
  6
Continuous
 62
     7
100
AcDbPolyline
 90
        4
 70
     0
 43
0.0
 10
3.257929
 20
2.801
 10
3.257929
 20
2.896536
 10
3.257929
 20
2.992065999999999
 10
3.257929
 20
3.087593999999999
  0
LWPOLYLINE
  5
7DE
330
1E
100
AcDbEntity
  8
LAYER_1
  6
Continuous
 62
     7
100
AcDbPolyline
 90
        4
 70
     0
 43
0.0
 10
3.257929
 20
3.087593999999999
 10
3.257934999999999
 20
3.183125999999999
 10
3.257975
 20
3.278661
 10
3.258083
 20
3.374192999999999
  0
LWPOLYLINE
  5
7E4
330
1E
100
AcDbEntity
  8
LAYER_1
  6
Continuous
 62
     7
100
AcDbPolyline
 90
        4
 70
     0
 43
0.0
 10
3.258083
 20
3.374192999999999
 10
3.258303999999999
 20
3.469715
 10
3.258633
 20
3.565202999999999
 10
3.259066999999999
 20
3.660622
  0
LWPOLYLINE
  5
7EA
330
1E
100
AcDbEntity
  8
LAYER_1
  6
Continuous
 62
     7
100
AcDbPolyline
 90
        4
 70
     0
 43
0.0
 10
3.259066999999999
 20
3.660622
 10
3.259609
 20
3.755932
 10
3.260257
 20
3.851137
 10
3.261012
 20
3.946232
  0
LWPOLYLINE
  5
7F0
330
1E
100
AcDbEntity
  8
LAYER_1
  6
Continuous
 62
     7
100
AcDbPolyline
 90
        4
 70
     0
 43
0.0
 10
3.261012
 20
3.946232
 10
3.261875999999999
 20
4.041096999999999
 10
3.262808999999999
 20
4.135097
 10
3.263776
 20
4.227469
  0
LWPOLYLINE
  5
7F6
330
1E
100
AcDbEntity
  8
LAYER_1
  6
Continuous
 62
     7
100
AcDbPolyline
 90
        4
 70
     0
 43
0.0
 10
3.263776
 20
4.227469
 10
3.264742
 20
4.316850999999999
 10
3.265674999999999
 20
4.399446
 10
3.266538999999999
 20
4.470845999999999
  0
LWPOLYLINE
  5
7FC
330
1E
100
AcDbEntity
  8
LAYER_1
  6
Continuous
 62
     7
100
AcDbPolyline
 90
        4
 70
     0
 43
0.0
 10
3.266538999999999
 20
4.470845999999999
 10
3.267288999999999
 20
4.52749
 10
3.267895
 20
4.569189999999999
 10
3.268318999999999
 20
4.596594
  0
LWPOLYLINE
  5
802
330
1E
100
AcDbEntity
  8
LAYER_1
  6
Continuous
 62
     7
100
AcDbPolyline
 90
        4
 70
     0
 43
0.0
 10
3.268318999999999
 20
4.596594
 10
3.268552
 20
4.611000999999999
 10
3.268637
 20
4.616308999999999
 10
3.26865
 20
4.617066999999999
  0
SOLID
  5
808
330
1E
100
AcDbEntity
  8
LAYER_1
  6
Continuous
100
AcDbTrace
 10
2.904566999999999
 20
2.194665
 30
0.0
 11
2.959802999999999
 21
2.186583
 31
0.0
 12
2.908609999999999
 22
2.248555
 32
0.0
 13
2.967886
 23
2.239138
 33
0.0
  0
LWPOLYLINE
  5
809
330
1E
100
AcDbEntity
  8
LAYER_1
  6
Continuous
100
AcDbPolyline
 90
        4
 70
     1
 43
0.0
 10
2.904566999999999
 20
2.194665
 10
2.959802999999999
 20
2.186583
 10
2.967886
 20
2.239138
 10
2.908609999999999
 20
2.248555
  0
LWPOLYLINE
  5
80F
330
1E
100
AcDbEntity
  8
LAYER_1
  6
Continuous
 62
     7
100
AcDbPolyline
 90
        9
 70
     0
 43
0.0
 10
3.261527999999999
 20
2.183330999999999
 10
3.237705
 20
2.710941
 10
3.216457
 20
3.319555
 10
3.199149999999999
 20
3.930983999999999
 10
3.183345999999999
 20
4.615276
 10
3.175263999999999
 20
4.614983999999999
 10
3.058886
 20
3.508176999999999
 10
2.992818999999999
 20
2.852038999999999
 10
2.940192999999999
 20
2.274566999999999
  0
LWPOLYLINE
  5
81A
330
1E
100
AcDbEntity
  8
LAYER_1
  6
Continuous
 62
     7
100
AcDbPolyline
 90
        9
 70
     0
 43
0.0
 10
3.261483999999999
 20
2.193719999999999
 10
3.283732
 20
2.721413
 10
3.315609999999999
 20
3.329566999999999
 10
3.351665
 20
3.940176999999999
 10
3.395555
 20
4.623231999999999
 10
3.387469
 20
4.623664999999999
 10
3.175066999999999
 20
3.531205
 10
3.052083
 20
2.883302999999999
 10
2.949319
 20
2.312622
  0
LWPOLYLINE
  5
825
330
1E
100
AcDbEntity
  8
LAYER_1
  6
Continuous
 62
     7
100
AcDbPolyline
 90
        9
 70
     0
 43
0.0
 10
3.265204999999999
 20
2.20472
 10
3.369731999999999
 20
2.722428999999999
 10
3.496345999999999
 20
3.318094
 10
3.627469
 20
3.915555
 10
3.777676999999999
 20
4.583330999999999
 10
3.769763999999999
 20
4.585011999999999
 10
3.389083
 20
3.539232
 10
3.166247999999999
 20
2.918583
 10
2.975469
 20
2.370983999999999
  0
LWPOLYLINE
  5
830
330
1E
100
AcDbEntity
  8
LAYER_1
  6
Continuous
 62
     7
100
AcDbPolyline
 90
        4
 70
     0
 43
0.0
 10
1.220083
 20
3.864276
 10
1.219996999999999
 20
3.863605999999999
 10
1.219395999999999
 20
3.858918
 10
1.217763999999999
 20
3.846192999999999
  0
LWPOLYLINE
  5
836
330
1E
100
AcDbEntity
  8
LAYER_1
  6
Continuous
 62
     7
100
AcDbPolyline
 90
        4
 70
     0
 43
0.0
 10
1.217763999999999
 20
3.846192999999999
 10
1.214636
 20
3.821994
 10
1.209853999999999
 20
3.785191999999999
 10
1.203319
 20
3.735231999999999
  0
LWPOLYLINE
  5
83C
330
1E
100
AcDbEntity
  8
LAYER_1
  6
Continuous
 62
     7
100
AcDbPolyline
 90
        4
 70
     0
 43
0.0
 10
1.203319
 20
3.735231999999999
 10
1.195053
 20
3.672312999999999
 10
1.185487999999999
 20
3.599536
 10
1.175177
 20
3.520763999999999
  0
LWPOLYLINE
  5
842
330
1E
100
AcDbEntity
  8
LAYER_1
  6
Continuous
 62
     7
100
AcDbPolyline
 90
        4
 70
     0
 43
0.0
 10
1.175177
 20
3.520763999999999
 10
1.164584
 20
3.439319999999999
 10
1.153799999999999
 20
3.356348
 10
1.142819
 20
3.272469
  0
LWPOLYLINE
  5
848
330
1E
100
AcDbEntity
  8
LAYER_1
  6
Continuous
 62
     7
100
AcDbPolyline
 90
        4
 70
     0
 43
0.0
 10
1.142819
 20
3.272469
 10
1.131653
 20
3.188218999999999
 10
1.120392999999999
 20
3.103804
 10
1.109137999999999
 20
3.019357999999999
  0
LWPOLYLINE
  5
84E
330
1E
100
AcDbEntity
  8
LAYER_1
  6
Continuous
 62
     7
100
AcDbPolyline
 90
        4
 70
     0
 43
0.0
 10
1.109137999999999
 20
3.019357999999999
 10
1.09796
 20
2.934978
 10
1.086877
 20
2.850628999999999
 10
1.075886
 20
2.766248
  0
LWPOLYLINE
  5
854
330
1E
100
AcDbEntity
  8
LAYER_1
  6
Continuous
 62
     7
100
AcDbPolyline
 90
        4
 70
     0
 43
0.0
 10
1.075886
 20
2.766248
 10
1.065003
 20
2.681788999999999
 10
1.054216
 20
2.597265999999999
 10
1.043528
 20
2.512704999999999
  0
LWPOLYLINE
  5
85A
330
1E
100
AcDbEntity
  8
LAYER_1
  6
Continuous
 62
     7
100
AcDbPolyline
 90
        4
 70
     0
 43
0.0
 10
1.043528
 20
2.512704999999999
 10
1.032928
 20
2.428145999999999
 10
1.022391
 20
2.343618999999999
 10
1.011886
 20
2.259149999999999
  0
LWPOLYLINE
  5
860
330
1E
100
AcDbEntity
  8
LAYER_1
  6
Continuous
 62
     7
100
AcDbPolyline
 90
        4
 70
     0
 43
0.0
 10
1.011886
 20
2.259149999999999
 10
1.0014
 20
2.174777
 10
0.990979
 20
2.090470999999999
 10
0.980677
 20
2.006193
  0
LWPOLYLINE
  5
866
330
1E
100
AcDbEntity
  8
LAYER_1
  6
Continuous
 62
     7
100
AcDbPolyline
 90
        4
 70
     0
 43
0.0
 10
0.980677
 20
2.006193
 10
0.9705709999999999
 20
1.921925
 10
0.9606189999999999
 20
1.83765
 10
0.9507909999999998
 20
1.753374
  0
LWPOLYLINE
  5
86C
330
1E
100
AcDbEntity
  8
LAYER_1
  6
Continuous
 62
     7
100
AcDbPolyline
 90
        4
 70
     0
 43
0.0
 10
0.9507909999999998
 20
1.753374
 10
0.941079
 20
1.669104
 10
0.931493
 20
1.584871999999999
 10
0.922067
 20
1.500704999999999
  0
LWPOLYLINE
  5
872
330
1E
100
AcDbEntity
  8
LAYER_1
  6
Continuous
 62
     7
100
AcDbPolyline
 90
        4
 70
     0
 43
0.0
 10
0.922067
 20
1.500704999999999
 10
0.912841
 20
1.416617
 10
0.9038019999999999
 20
1.332559
 10
0.8949569999999999
 20
1.248469
  0
LWPOLYLINE
  5
878
330
1E
100
AcDbEntity
  8
LAYER_1
  6
Continuous
 62
     7
100
AcDbPolyline
 90
        4
 70
     0
 43
0.0
 10
0.8949569999999999
 20
1.248469
 10
0.8862979999999998
 20
1.164299999999999
 10
0.8778030000000001
 20
1.080065999999999
 10
0.8694409999999999
 20
0.995803
  0
LWPOLYLINE
  5
87E
330
1E
100
AcDbEntity
  8
LAYER_1
  6
Continuous
 62
     7
100
AcDbPolyline
 90
        4
 70
     0
 43
0.0
 10
0.8694409999999999
 20
0.995803
 10
0.8611879999999999
 20
0.911527
 10
0.8530610000000001
 20
0.8272529999999999
 10
0.8450939999999999
 20
0.742984
  0
LWPOLYLINE
  5
884
330
1E
100
AcDbEntity
  8
LAYER_1
  6
Continuous
 62
     7
100
AcDbPolyline
 90
        4
 70
     0
 43
0.0
 10
0.8450939999999999
 20
0.742984
 10
0.8373179999999999
 20
0.6587060000000001
 10
0.8297349999999999
 20
0.574433
 10
0.8223459999999999
 20
0.490165
  0
LWPOLYLINE
  5
88A
330
1E
100
AcDbEntity
  8
LAYER_1
  6
Continuous
 62
     7
100
AcDbPolyline
 90
        4
 70
     0
 43
0.0
 10
0.8223459999999999
 20
0.490165
 10
0.8151520000000001
 20
0.405885
 10
0.8081520000000001
 20
0.321577
 10
0.801346
 20
0.237205
  0
LWPOLYLINE
  5
890
330
1E
100
AcDbEntity
  8
LAYER_1
  6
Continuous
 62
     7
100
AcDbPolyline
 90
        4
 70
     0
 43
0.0
 10
0.801346
 20
0.237205
 10
0.794732
 20
0.152744
 10
0.7882819999999999
 20
0.068258
 10
0.7819570000000001
 20
-0.016193
  0
LWPOLYLINE
  5
896
330
1E
100
AcDbEntity
  8
LAYER_1
  6
Continuous
 62
     7
100
AcDbPolyline
 90
        4
 70
     0
 43
0.0
 10
0.7819570000000001
 20
-0.016193
 10
0.7757500000000001
 20
-0.100574
 10
0.769704
 20
-0.184884
 10
0.763886
 20
-0.269165
  0
LWPOLYLINE
  5
89C
330
1E
100
AcDbEntity
  8
LAYER_1
  6
Continuous
 62
     7
100
AcDbPolyline
 90
        4
 70
     0
 43
0.0
 10
0.763886
 20
-0.269165
 10
0.7583340000000001
 20
-0.353438
 10
0.753045
 20
-0.437709
 10
0.747984
 20
-0.521984
  0
LWPOLYLINE
  5
8A2
330
1E
100
AcDbEntity
  8
LAYER_1
  6
Continuous
 62
     7
100
AcDbPolyline
 90
        4
 70
     0
 43
0.0
 10
0.747984
 20
-0.521984
 10
0.743124
 20
-0.6062529999999999
 10
0.738461
 20
-0.690527
 10
0.734
 20
-0.774803
  0
LWPOLYLINE
  5
8A8
330
1E
100
AcDbEntity
  8
LAYER_1
  6
Continuous
 62
     7
100
AcDbPolyline
 90
        4
 70
     0
 43
0.0
 10
0.734
 20
-0.774803
 10
0.7297150000000001
 20
-0.8590659999999999
 10
0.725634
 20
-0.9432999999999999
 10
0.721748
 20
-1.027468999999999
  0
LWPOLYLINE
  5
8AE
330
1E
100
AcDbEntity
  8
LAYER_1
  6
Continuous
 62
     7
100
AcDbPolyline
 90
        4
 70
     0
 43
0.0
 10
0.721748
 20
-1.027468999999999
 10
0.7180590000000001
 20
-1.111554
 10
0.714595
 20
-1.195575999999999
 10
0.711386
 20
-1.279566999999999
  0
LWPOLYLINE
  5
8B4
330
1E
100
AcDbEntity
  8
LAYER_1
  6
Continuous
 62
     7
100
AcDbPolyline
 90
        4
 70
     0
 43
0.0
 10
0.711386
 20
-1.279566999999999
 10
0.708474
 20
-1.363539999999999
 10
0.705854
 20
-1.447514999999999
 10
0.703528
 20
-1.531495999999999
  0
LWPOLYLINE
  5
8BA
330
1E
100
AcDbEntity
  8
LAYER_1
  6
Continuous
 62
     7
100
AcDbPolyline
 90
        4
 70
     0
 43
0.0
 10
0.703528
 20
-1.531495999999999
 10
0.701485
 20
-1.615474999999999
 10
0.6997710000000001
 20
-1.699418999999999
 10
0.6984130000000001
 20
-1.783302999999999
  0
LWPOLYLINE
  5
8C0
330
1E
100
AcDbEntity
  8
LAYER_1
  6
Continuous
 62
     7
100
AcDbPolyline
 90
        4
 70
     0
 43
0.0
 10
0.6984130000000001
 20
-1.783302999999999
 10
0.697437
 20
-1.867088
 10
0.696819
 20
-1.950775999999999
 10
0.6965279999999999
 20
-2.034374
  0
LWPOLYLINE
  5
8C6
330
1E
100
AcDbEntity
  8
LAYER_1
  6
Continuous
 62
     7
100
AcDbPolyline
 90
        4
 70
     0
 43
0.0
 10
0.6965279999999999
 20
-2.034374
 10
0.6965270000000001
 20
-2.117859
 10
0.696854
 20
-2.201254
 10
0.697539
 20
-2.284555
  0
LWPOLYLINE
  5
8CC
330
1E
100
AcDbEntity
  8
LAYER_1
  6
Continuous
 62
     7
100
AcDbPolyline
 90
        4
 70
     0
 43
0.0
 10
0.697539
 20
-2.284555
 10
0.6986140000000001
 20
-2.367757
 10
0.700109
 20
-2.450864
 10
0.702055
 20
-2.533873999999999
  0
LWPOLYLINE
  5
8D2
330
1E
100
AcDbEntity
  8
LAYER_1
  6
Continuous
 62
     7
100
AcDbPolyline
 90
        4
 70
     0
 43
0.0
 10
0.702055
 20
-2.533873999999999
 10
0.70449
 20
-2.616783999999999
 10
0.70741
 20
-2.6996
 10
0.710819
 20
-2.782318999999999
  0
LWPOLYLINE
  5
8D8
330
1E
100
AcDbEntity
  8
LAYER_1
  6
Continuous
 62
     7
100
AcDbPolyline
 90
        4
 70
     0
 43
0.0
 10
0.710819
 20
-2.782318999999999
 10
0.714707
 20
-2.864927
 10
0.7191180000000001
 20
-2.947375
 10
0.7240830000000001
 20
-3.029593999999999
  0
LWPOLYLINE
  5
8DE
330
1E
100
AcDbEntity
  8
LAYER_1
  6
Continuous
 62
     7
100
AcDbPolyline
 90
        4
 70
     0
 43
0.0
 10
0.7240830000000001
 20
-3.029593999999999
 10
0.729619
 20
-3.111539
 10
0.735737
 20
-3.193227999999999
 10
0.742441
 20
-3.274693
  0
LWPOLYLINE
  5
8E4
330
1E
100
AcDbEntity
  8
LAYER_1
  6
Continuous
 62
     7
100
AcDbPolyline
 90
        4
 70
     0
 43
0.0
 10
0.742441
 20
-3.274693
 10
0.749744
 20
-3.355942999999999
 10
0.7576960000000001
 20
-3.43693
 10
0.766358
 20
-3.517594
  0
LWPOLYLINE
  5
8EA
330
1E
100
AcDbEntity
  8
LAYER_1
  6
Continuous
 62
     7
100
AcDbPolyline
 90
        4
 70
     0
 43
0.0
 10
0.766358
 20
-3.517594
 10
0.7757950000000001
 20
-3.597859999999999
 10
0.78604
 20
-3.677644
 10
0.797122
 20
-3.756845999999999
  0
LWPOLYLINE
  5
8F0
330
1E
100
AcDbEntity
  8
LAYER_1
  6
Continuous
 62
     7
100
AcDbPolyline
 90
        4
 70
     0
 43
0.0
 10
0.797122
 20
-3.756845999999999
 10
0.8090819999999999
 20
-3.835385
 10
0.8219509999999999
 20
-3.913206999999999
 10
0.8357639999999999
 20
-3.990276
  0
LWPOLYLINE
  5
8F6
330
1E
100
AcDbEntity
  8
LAYER_1
  6
Continuous
 62
     7
100
AcDbPolyline
 90
        4
 70
     0
 43
0.0
 10
0.8357639999999999
 20
-3.990276
 10
0.850562
 20
-4.066536
 10
0.866459
 20
-4.141758999999999
 10
0.8835829999999999
 20
-4.215681
  0
LWPOLYLINE
  5
8FC
330
1E
100
AcDbEntity
  8
LAYER_1
  6
Continuous
 62
     7
100
AcDbPolyline
 90
        4
 70
     0
 43
0.0
 10
0.8835829999999999
 20
-4.215681
 10
0.9020319999999999
 20
-4.288009999999999
 10
0.92171
 20
-4.358265
 10
0.9424839999999999
 20
-4.425925
  0
LWPOLYLINE
  5
902
330
1E
100
AcDbEntity
  8
LAYER_1
  6
Continuous
 62
     7
100
AcDbPolyline
 90
        4
 70
     0
 43
0.0
 10
0.9424839999999999
 20
-4.425925
 10
0.964193
 20
-4.490408999999999
 10
0.9864829999999999
 20
-4.550839999999999
 10
1.008969
 20
-4.606279999999999
  0
LWPOLYLINE
  5
908
330
1E
100
AcDbEntity
  8
LAYER_1
  6
Continuous
 62
     7
100
AcDbPolyline
 90
        4
 70
     0
 43
0.0
 10
1.008969
 20
-4.606279999999999
 10
1.031244999999999
 20
-4.655918999999999
 10
1.05288
 20
-4.699433999999999
 10
1.073412999999999
 20
-4.736629999999999
  0
LWPOLYLINE
  5
90E
330
1E
100
AcDbEntity
  8
LAYER_1
  6
Continuous
 62
     7
100
AcDbPolyline
 90
        4
 70
     0
 43
0.0
 10
1.073412999999999
 20
-4.736629999999999
 10
1.092465999999999
 20
-4.767498999999999
 10
1.109958999999999
 20
-4.792797
 10
1.125901999999999
 20
-4.813464999999999
  0
LWPOLYLINE
  5
914
330
1E
100
AcDbEntity
  8
LAYER_1
  6
Continuous
 62
     7
100
AcDbPolyline
 90
        4
 70
     0
 43
0.0
 10
1.125901999999999
 20
-4.813464999999999
 10
1.140337999999999
 20
-4.830360999999999
 10
1.15351
 20
-4.844051
 10
1.165704999999999
 20
-4.855015999999999
  0
LWPOLYLINE
  5
91A
330
1E
100
AcDbEntity
  8
LAYER_1
  6
Continuous
 62
     7
100
AcDbPolyline
 90
        4
 70
     0
 43
0.0
 10
1.165704999999999
 20
-4.855015999999999
 10
1.177184
 20
-4.863712
 10
1.188046999999999
 20
-4.87043
 10
1.198358
 20
-4.875433
  0
LWPOLYLINE
  5
920
330
1E
100
AcDbEntity
  8
LAYER_1
  6
Continuous
 62
     7
100
AcDbPolyline
 90
        4
 70
     0
 43
0.0
 10
1.198358
 20
-4.875433
 10
1.208204999999999
 20
-4.878908
 10
1.217686
 20
-4.880797
 10
1.226929
 20
-4.880971999999999
  0
LWPOLYLINE
  5
926
330
1E
100
AcDbEntity
  8
LAYER_1
  6
Continuous
 62
     7
100
AcDbPolyline
 90
        4
 70
     0
 43
0.0
 10
1.226929
 20
-4.880971999999999
 10
1.23605
 20
-4.879304
 10
1.244941
 20
-4.875691
 10
1.253468999999999
 20
-4.870034999999999
  0
LWPOLYLINE
  5
92C
330
1E
100
AcDbEntity
  8
LAYER_1
  6
Continuous
 62
     7
100
AcDbPolyline
 90
        4
 70
     0
 43
0.0
 10
1.253468999999999
 20
-4.870034999999999
 10
1.26157
 20
-4.862248
 10
1.269384
 20
-4.852258999999999
 10
1.277093999999999
 20
-4.839999999999999
  0
LWPOLYLINE
  5
932
330
1E
100
AcDbEntity
  8
LAYER_1
  6
Continuous
 62
     7
100
AcDbPolyline
 90
        4
 70
     0
 43
0.0
 10
1.277093999999999
 20
-4.839999999999999
 10
1.284885
 20
-4.825296999999999
 10
1.292870999999999
 20
-4.807516
 10
1.30115
 20
-4.785908999999999
  0
LWPOLYLINE
  5
938
330
1E
100
AcDbEntity
  8
LAYER_1
  6
Continuous
 62
     7
100
AcDbPolyline
 90
        4
 70
     0
 43
0.0
 10
1.30115
 20
-4.785908999999999
 10
1.309792
 20
-4.759675999999999
 10
1.318753999999999
 20
-4.727771999999999
 10
1.327968999999999
 20
-4.689098
  0
LWPOLYLINE
  5
93E
330
1E
100
AcDbEntity
  8
LAYER_1
  6
Continuous
 62
     7
100
AcDbPolyline
 90
        4
 70
     0
 43
0.0
 10
1.327968999999999
 20
-4.689098
 10
1.337345999999999
 20
-4.642831
 10
1.346592999999999
 20
-4.589272
 10
1.355385999999999
 20
-4.529008
  0
LWPOLYLINE
  5
944
330
1E
100
AcDbEntity
  8
LAYER_1
  6
Continuous
 62
     7
100
AcDbPolyline
 90
        4
 70
     0
 43
0.0
 10
1.355385999999999
 20
-4.529008
 10
1.363445999999999
 20
-4.462744999999999
 10
1.370662
 20
-4.391685999999999
 10
1.376969
 20
-4.317161
  0
LWPOLYLINE
  5
94A
330
1E
100
AcDbEntity
  8
LAYER_1
  6
Continuous
 62
     7
100
AcDbPolyline
 90
        4
 70
     0
 43
0.0
 10
1.376969
 20
-4.317161
 10
1.382321999999999
 20
-4.240340999999999
 10
1.386732
 20
-4.161772
 10
1.390231999999999
 20
-4.081845999999999
  0
LWPOLYLINE
  5
950
330
1E
100
AcDbEntity
  8
LAYER_1
  6
Continuous
 62
     7
100
AcDbPolyline
 90
        4
 70
     0
 43
0.0
 10
1.390231999999999
 20
-4.081845999999999
 10
1.392881
 20
-4.000905999999999
 10
1.394818
 20
-3.919191
 10
1.396204999999999
 20
-3.836901999999999
  0
LWPOLYLINE
  5
956
330
1E
100
AcDbEntity
  8
LAYER_1
  6
Continuous
 62
     7
100
AcDbPolyline
 90
        4
 70
     0
 43
0.0
 10
1.396204999999999
 20
-3.836901999999999
 10
1.397173999999999
 20
-3.754191
 10
1.397720999999999
 20
-3.671158999999999
 10
1.397819
 20
-3.587873999999999
  0
LWPOLYLINE
  5
95C
330
1E
100
AcDbEntity
  8
LAYER_1
  6
Continuous
 62
     7
100
AcDbPolyline
 90
        4
 70
     0
 43
0.0
 10
1.397819
 20
-3.587873999999999
 10
1.397440999999999
 20
-3.504373
 10
1.396676999999999
 20
-3.420681999999999
 10
1.395621999999999
 20
-3.336802999999999
  0
LWPOLYLINE
  5
962
330
1E
100
AcDbEntity
  8
LAYER_1
  6
Continuous
 62
     7
100
AcDbPolyline
 90
        4
 70
     0
 43
0.0
 10
1.395621999999999
 20
-3.336802999999999
 10
1.394358999999999
 20
-3.252724999999999
 10
1.392902
 20
-3.168454
 10
1.391248
 20
-3.083984
  0
LWPOLYLINE
  5
968
330
1E
100
AcDbEntity
  8
LAYER_1
  6
Continuous
 62
     7
100
AcDbPolyline
 90
        4
 70
     0
 43
0.0
 10
1.391248
 20
-3.083984
 10
1.389415
 20
-2.999331
 10
1.387413
 20
-2.914552
 10
1.385275999999999
 20
-2.829705
  0
LWPOLYLINE
  5
96E
330
1E
100
AcDbEntity
  8
LAYER_1
  6
Continuous
 62
     7
100
AcDbPolyline
 90
        4
 70
     0
 43
0.0
 10
1.385275999999999
 20
-2.829705
 10
1.383029999999999
 20
-2.744842999999999
 10
1.380661
 20
-2.659952
 10
1.378137999999999
 20
-2.574996
  0
LWPOLYLINE
  5
974
330
1E
100
AcDbEntity
  8
LAYER_1
  6
Continuous
 62
     7
100
AcDbPolyline
 90
        4
 70
     0
 43
0.0
 10
1.378137999999999
 20
-2.574996
 10
1.375424999999999
 20
-2.489952999999999
 10
1.372584
 20
-2.404840999999999
 10
1.369677
 20
-2.319693
  0
LWPOLYLINE
  5
97A
330
1E
100
AcDbEntity
  8
LAYER_1
  6
Continuous
 62
     7
100
AcDbPolyline
 90
        4
 70
     0
 43
0.0
 10
1.369677
 20
-2.319693
 10
1.366757999999999
 20
-2.234550999999999
 10
1.363804999999999
 20
-2.149405999999999
 10
1.360791
 20
-2.064264
  0
LWPOLYLINE
  5
980
330
1E
100
AcDbEntity
  8
LAYER_1
  6
Continuous
 62
     7
100
AcDbPolyline
 90
        4
 70
     0
 43
0.0
 10
1.360791
 20
-2.064264
 10
1.357674999999999
 20
-1.979104999999999
 10
1.354465999999999
 20
-1.893915999999999
 10
1.351164999999999
 20
-1.808665
  0
LWPOLYLINE
  5
986
330
1E
100
AcDbEntity
  8
LAYER_1
  6
Continuous
 62
     7
100
AcDbPolyline
 90
        4
 70
     0
 43
0.0
 10
1.351164999999999
 20
-1.808665
 10
1.347768
 20
-1.723331999999999
 10
1.344343999999999
 20
-1.637933
 10
1.340956999999999
 20
-1.5525
  0
LWPOLYLINE
  5
98C
330
1E
100
AcDbEntity
  8
LAYER_1
  6
Continuous
 62
     7
100
AcDbPolyline
 90
        4
 70
     0
 43
0.0
 10
1.340956999999999
 20
-1.5525
 10
1.337635
 20
-1.467057999999999
 10
1.334351
 20
-1.381619
 10
1.331038999999999
 20
-1.296177
  0
LWPOLYLINE
  5
992
330
1E
100
AcDbEntity
  8
LAYER_1
  6
Continuous
 62
     7
100
AcDbPolyline
 90
        4
 70
     0
 43
0.0
 10
1.331038999999999
 20
-1.296177
 10
1.327636
 20
-1.210736
 10
1.324171999999999
 20
-1.125299
 10
1.320677
 20
-1.039857999999999
  0
LWPOLYLINE
  5
998
330
1E
100
AcDbEntity
  8
LAYER_1
  6
Continuous
 62
     7
100
AcDbPolyline
 90
        4
 70
     0
 43
0.0
 10
1.320677
 20
-1.039857999999999
 10
1.317182999999999
 20
-0.9544299999999999
 10
1.313647
 20
-0.869029
 10
1.310038999999999
 20
-0.7836930000000001
  0
LWPOLYLINE
  5
99E
330
1E
100
AcDbEntity
  8
LAYER_1
  6
Continuous
 62
     7
100
AcDbPolyline
 90
        4
 70
     0
 43
0.0
 10
1.310038999999999
 20
-0.7836930000000001
 10
1.306361
 20
-0.698432
 10
1.302645
 20
-0.613171
 10
1.298956999999999
 20
-0.527819
  0
LWPOLYLINE
  5
9A4
330
1E
100
AcDbEntity
  8
LAYER_1
  6
Continuous
 62
     7
100
AcDbPolyline
 90
        4
 70
     0
 43
0.0
 10
1.298956999999999
 20
-0.527819
 10
1.29536
 20
-0.442296
 10
1.291824
 20
-0.356678
 10
1.288318999999999
 20
-0.271055
  0
LWPOLYLINE
  5
9AA
330
1E
100
AcDbEntity
  8
LAYER_1
  6
Continuous
 62
     7
100
AcDbPolyline
 90
        4
 70
     0
 43
0.0
 10
1.288318999999999
 20
-0.271055
 10
1.284819
 20
-0.185515
 10
1.281319
 20
-0.100041
 10
1.277819
 20
-0.014594
  0
LWPOLYLINE
  5
9B0
330
1E
100
AcDbEntity
  8
LAYER_1
  6
Continuous
 62
     7
100
AcDbPolyline
 90
        4
 70
     0
 43
0.0
 10
1.277819
 20
-0.014594
 10
1.274318999999999
 20
0.070844
 10
1.270819
 20
0.15628
 10
1.267319
 20
0.24172
  0
LWPOLYLINE
  5
9B6
330
1E
100
AcDbEntity
  8
LAYER_1
  6
Continuous
 62
     7
100
AcDbPolyline
 90
        4
 70
     0
 43
0.0
 10
1.267319
 20
0.24172
 10
1.263819
 20
0.327154
 10
1.260321999999999
 20
0.412595
 10
1.256831
 20
0.498039
  0
LWPOLYLINE
  5
9BC
330
1E
100
AcDbEntity
  8
LAYER_1
  6
Continuous
 62
     7
100
AcDbPolyline
 90
        4
 70
     0
 43
0.0
 10
1.256831
 20
0.498039
 10
1.253336
 20
0.583467
 10
1.249871999999999
 20
0.668868
 10
1.246469
 20
0.754205
  0
LWPOLYLINE
  5
9C2
330
1E
100
AcDbEntity
  8
LAYER_1
  6
Continuous
 62
     7
100
AcDbPolyline
 90
        4
 70
     0
 43
0.0
 10
1.246469
 20
0.754205
 10
1.243163
 20
0.83946
 10
1.239918
 20
0.924685
 10
1.236704999999999
 20
1.009940999999999
  0
LWPOLYLINE
  5
9C8
330
1E
100
AcDbEntity
  8
LAYER_1
  6
Continuous
 62
     7
100
AcDbPolyline
 90
        4
 70
     0
 43
0.0
 10
1.236704999999999
 20
1.009940999999999
 10
1.233498999999999
 20
1.095250999999999
 10
1.230291
 20
1.180464999999999
 10
1.227082999999999
 20
1.265386
  0
LWPOLYLINE
  5
9CE
330
1E
100
AcDbEntity
  8
LAYER_1
  6
Continuous
 62
     7
100
AcDbPolyline
 90
        4
 70
     0
 43
0.0
 10
1.227082999999999
 20
1.265386
 10
1.223904
 20
1.349690999999999
 10
1.220851
 20
1.432535999999999
 10
1.218054999999999
 20
1.512941
  0
LWPOLYLINE
  5
9D4
330
1E
100
AcDbEntity
  8
LAYER_1
  6
Continuous
 62
     7
100
AcDbPolyline
 90
        4
 70
     0
 43
0.0
 10
1.218054999999999
 20
1.512941
 10
1.215638999999999
 20
1.590453
 10
1.213708
 20
1.666533
 10
1.212358
 20
1.743165
  0
LWPOLYLINE
  5
9DA
330
1E
100
AcDbEntity
  8
LAYER_1
  6
Continuous
 62
     7
100
AcDbPolyline
 90
        4
 70
     0
 43
0.0
 10
1.212358
 20
1.743165
 10
1.211651
 20
1.821927
 10
1.211424999999999
 20
1.902795
 10
1.211484
 20
1.985345999999999
  0
LWPOLYLINE
  5
9E0
330
1E
100
AcDbEntity
  8
LAYER_1
  6
Continuous
 62
     7
100
AcDbPolyline
 90
        4
 70
     0
 43
0.0
 10
1.211484
 20
1.985345999999999
 10
1.211679
 20
2.069158999999999
 10
1.211934
 20
2.153814
 10
1.21222
 20
2.238885999999999
  0
LWPOLYLINE
  5
9E6
330
1E
100
AcDbEntity
  8
LAYER_1
  6
Continuous
 62
     7
100
AcDbPolyline
 90
        4
 70
     0
 43
0.0
 10
1.21222
 20
2.238885999999999
 10
1.212517
 20
2.324040999999999
 10
1.212844
 20
2.409227
 10
1.213231999999999
 20
2.494483999999999
  0
LWPOLYLINE
  5
9EC
330
1E
100
AcDbEntity
  8
LAYER_1
  6
Continuous
 62
     7
100
AcDbPolyline
 90
        4
 70
     0
 43
0.0
 10
1.213231999999999
 20
2.494483999999999
 10
1.213724
 20
2.579810999999999
 10
1.214309
 20
2.665168999999999
 10
1.214984
 20
2.750496
  0
LWPOLYLINE
  5
9F2
330
1E
100
AcDbEntity
  8
LAYER_1
  6
Continuous
 62
     7
100
AcDbPolyline
 90
        4
 70
     0
 43
0.0
 10
1.214984
 20
2.750496
 10
1.215761
 20
2.835748
 10
1.216599999999999
 20
2.920936999999999
 10
1.217469
 20
3.006094
  0
LWPOLYLINE
  5
9F8
330
1E
100
AcDbEntity
  8
LAYER_1
  6
Continuous
 62
     7
100
AcDbPolyline
 90
        4
 70
     0
 43
0.0
 10
1.217469
 20
3.006094
 10
1.21835
 20
3.091231
 10
1.219261
 20
3.176340999999999
 10
1.220231999999999
 20
3.261385999999999
  0
LWPOLYLINE
  5
9FE
330
1E
100
AcDbEntity
  8
LAYER_1
  6
Continuous
 62
     7
100
AcDbPolyline
 90
        4
 70
     0
 43
0.0
 10
1.220231999999999
 20
3.261385999999999
 10
1.221292999999999
 20
3.346236
 10
1.22242
 20
3.430373999999999
 10
1.223583
 20
3.513176999999999
  0
LWPOLYLINE
  5
A04
330
1E
100
AcDbEntity
  8
LAYER_1
  6
Continuous
 62
     7
100
AcDbPolyline
 90
        4
 70
     0
 43
0.0
 10
1.223583
 20
3.513176999999999
 10
1.224737
 20
3.59348
 10
1.225828
 20
3.667819
 10
1.226790999999999
 20
3.732176999999999
  0
LWPOLYLINE
  5
A0A
330
1E
100
AcDbEntity
  8
LAYER_1
  6
Continuous
 62
     7
100
AcDbPolyline
 90
        4
 70
     0
 43
0.0
 10
1.226790999999999
 20
3.732176999999999
 10
1.227567999999999
 20
3.783297
 10
1.228150999999999
 20
3.820973999999999
 10
1.228539
 20
3.845763999999999
  0
LWPOLYLINE
  5
A10
330
1E
100
AcDbEntity
  8
LAYER_1
  6
Continuous
 62
     7
100
AcDbPolyline
 90
        4
 70
     0
 43
0.0
 10
1.228539
 20
3.845763999999999
 10
1.228744
 20
3.858791
 10
1.22882
 20
3.86359
 10
1.228831
 20
3.864276
  0
LWPOLYLINE
  5
A16
330
1E
100
AcDbEntity
  8
LAYER_1
  6
Continuous
 62
     7
100
AcDbPolyline
 90
        4
 70
     0
 43
0.0
 10
2.191929
 20
3.864276
 10
2.191842999999999
 20
3.863605999999999
 10
2.191237
 20
3.858918
 10
2.189594
 20
3.846192999999999
  0
LWPOLYLINE
  5
A1C
330
1E
100
AcDbEntity
  8
LAYER_1
  6
Continuous
 62
     7
100
AcDbPolyline
 90
        4
 70
     0
 43
0.0
 10
2.189594
 20
3.846192999999999
 10
2.186468999999999
 20
3.821994
 10
2.18169
 20
3.785191999999999
 10
2.175165
 20
3.735231999999999
  0
LWPOLYLINE
  5
A22
330
1E
100
AcDbEntity
  8
LAYER_1
  6
Continuous
 62
     7
100
AcDbPolyline
 90
        4
 70
     0
 43
0.0
 10
2.175165
 20
3.735231999999999
 10
2.1669
 20
3.672312999999999
 10
2.157337
 20
3.599536
 10
2.147027999999999
 20
3.520763999999999
  0
LWPOLYLINE
  5
A28
330
1E
100
AcDbEntity
  8
LAYER_1
  6
Continuous
 62
     7
100
AcDbPolyline
 90
        4
 70
     0
 43
0.0
 10
2.147027999999999
 20
3.520763999999999
 10
2.136433
 20
3.439319999999999
 10
2.125643
 20
3.356348
 10
2.11465
 20
3.272469
  0
LWPOLYLINE
  5
A2E
330
1E
100
AcDbEntity
  8
LAYER_1
  6
Continuous
 62
     7
100
AcDbPolyline
 90
        4
 70
     0
 43
0.0
 10
2.11465
 20
3.272469
 10
2.103495999999999
 20
3.188218999999999
 10
2.092235
 20
3.103804
 10
2.080969
 20
3.019357999999999
  0
LWPOLYLINE
  5
A34
330
1E
100
AcDbEntity
  8
LAYER_1
  6
Continuous
 62
     7
100
AcDbPolyline
 90
        4
 70
     0
 43
0.0
 10
2.080969
 20
3.019357999999999
 10
2.069797
 20
2.934978
 10
2.05872
 20
2.850628999999999
 10
2.047731999999999
 20
2.766248
  0
LWPOLYLINE
  5
A3A
330
1E
100
AcDbEntity
  8
LAYER_1
  6
Continuous
 62
     7
100
AcDbPolyline
 90
        4
 70
     0
 43
0.0
 10
2.047731999999999
 20
2.766248
 10
2.036849999999999
 20
2.681788999999999
 10
2.026062
 20
2.597265999999999
 10
2.015373999999999
 20
2.512704999999999
  0
LWPOLYLINE
  5
A40
330
1E
100
AcDbEntity
  8
LAYER_1
  6
Continuous
 62
     7
100
AcDbPolyline
 90
        4
 70
     0
 43
0.0
 10
2.015373999999999
 20
2.512704999999999
 10
2.004766
 20
2.428145999999999
 10
1.994229999999999
 20
2.343618999999999
 10
1.983732
 20
2.259149999999999
  0
LWPOLYLINE
  5
A46
330
1E
100
AcDbEntity
  8
LAYER_1
  6
Continuous
 62
     7
100
AcDbPolyline
 90
        4
 70
     0
 43
0.0
 10
1.983732
 20
2.259149999999999
 10
1.973243
 20
2.174777
 10
1.962819999999999
 20
2.090470999999999
 10
1.952527999999999
 20
2.006193
  0
LWPOLYLINE
  5
A4C
330
1E
100
AcDbEntity
  8
LAYER_1
  6
Continuous
 62
     7
100
AcDbPolyline
 90
        4
 70
     0
 43
0.0
 10
1.952527999999999
 20
2.006193
 10
1.942413999999999
 20
1.921925
 10
1.932463
 20
1.83765
 10
1.922638
 20
1.753374
  0
LWPOLYLINE
  5
A52
330
1E
100
AcDbEntity
  8
LAYER_1
  6
Continuous
 62
     7
100
AcDbPolyline
 90
        4
 70
     0
 43
0.0
 10
1.922638
 20
1.753374
 10
1.912925999999999
 20
1.669104
 10
1.903338999999999
 20
1.584871999999999
 10
1.893913
 20
1.500704999999999
  0
LWPOLYLINE
  5
A58
330
1E
100
AcDbEntity
  8
LAYER_1
  6
Continuous
 62
     7
100
AcDbPolyline
 90
        4
 70
     0
 43
0.0
 10
1.893913
 20
1.500704999999999
 10
1.884679
 20
1.416617
 10
1.875638
 20
1.332559
 10
1.866791
 20
1.248469
  0
LWPOLYLINE
  5
A5E
330
1E
100
AcDbEntity
  8
LAYER_1
  6
Continuous
 62
     7
100
AcDbPolyline
 90
        4
 70
     0
 43
0.0
 10
1.866791
 20
1.248469
 10
1.858143
 20
1.164299999999999
 10
1.849650999999999
 20
1.080065999999999
 10
1.841291
 20
0.995803
  0
LWPOLYLINE
  5
A64
330
1E
100
AcDbEntity
  8
LAYER_1
  6
Continuous
 62
     7
100
AcDbPolyline
 90
        4
 70
     0
 43
0.0
 10
1.841291
 20
0.995803
 10
1.833025999999999
 20
0.911527
 10
1.824899
 20
0.8272529999999999
 10
1.816940999999999
 20
0.742984
  0
LWPOLYLINE
  5
A6A
330
1E
100
AcDbEntity
  8
LAYER_1
  6
Continuous
 62
     7
100
AcDbPolyline
 90
        4
 70
     0
 43
0.0
 10
1.816940999999999
 20
0.742984
 10
1.809159
 20
0.6587060000000001
 10
1.801579
 20
0.574433
 10
1.794192999999999
 20
0.490165
  0
LWPOLYLINE
  5
A70
330
1E
100
AcDbEntity
  8
LAYER_1
  6
Continuous
 62
     7
100
AcDbPolyline
 90
        4
 70
     0
 43
0.0
 10
1.794192999999999
 20
0.490165
 10
1.786999
 20
0.405885
 10
1.779999
 20
0.321577
 10
1.773193
 20
0.237205
  0
LWPOLYLINE
  5
A76
330
1E
100
AcDbEntity
  8
LAYER_1
  6
Continuous
 62
     7
100
AcDbPolyline
 90
        4
 70
     0
 43
0.0
 10
1.773193
 20
0.237205
 10
1.766575999999999
 20
0.152744
 10
1.760122999999999
 20
0.068258
 10
1.753802999999999
 20
-0.016193
  0
LWPOLYLINE
  5
A7C
330
1E
100
AcDbEntity
  8
LAYER_1
  6
Continuous
 62
     7
100
AcDbPolyline
 90
        4
 70
     0
 43
0.0
 10
1.753802999999999
 20
-0.016193
 10
1.747595999999999
 20
-0.100574
 10
1.741547
 20
-0.184884
 10
1.73572
 20
-0.269165
  0
LWPOLYLINE
  5
A82
330
1E
100
AcDbEntity
  8
LAYER_1
  6
Continuous
 62
     7
100
AcDbPolyline
 90
        4
 70
     0
 43
0.0
 10
1.73572
 20
-0.269165
 10
1.730177999999999
 20
-0.353438
 10
1.724892999999999
 20
-0.437709
 10
1.719831
 20
-0.521984
  0
LWPOLYLINE
  5
A88
330
1E
100
AcDbEntity
  8
LAYER_1
  6
Continuous
 62
     7
100
AcDbPolyline
 90
        4
 70
     0
 43
0.0
 10
1.719831
 20
-0.521984
 10
1.71497
 20
-0.6062529999999999
 10
1.710302999999999
 20
-0.690527
 10
1.705831
 20
-0.774803
  0
LWPOLYLINE
  5
A8E
330
1E
100
AcDbEntity
  8
LAYER_1
  6
Continuous
 62
     7
100
AcDbPolyline
 90
        4
 70
     0
 43
0.0
 10
1.705831
 20
-0.774803
 10
1.701553999999999
 20
-0.8590659999999999
 10
1.697470999999999
 20
-0.9432999999999999
 10
1.693583
 20
-1.027468999999999
  0
LWPOLYLINE
  5
A94
330
1E
100
AcDbEntity
  8
LAYER_1
  6
Continuous
 62
     7
100
AcDbPolyline
 90
        4
 70
     0
 43
0.0
 10
1.693583
 20
-1.027468999999999
 10
1.689902
 20
-1.111554
 10
1.686441
 20
-1.195575999999999
 10
1.683232
 20
-1.279566999999999
  0
LWPOLYLINE
  5
A9A
330
1E
100
AcDbEntity
  8
LAYER_1
  6
Continuous
 62
     7
100
AcDbPolyline
 90
        4
 70
     0
 43
0.0
 10
1.683232
 20
-1.279566999999999
 10
1.680320999999999
 20
-1.363539999999999
 10
1.677697
 20
-1.447514999999999
 10
1.675358
 20
-1.531495999999999
  0
LWPOLYLINE
  5
AA0
330
1E
100
AcDbEntity
  8
LAYER_1
  6
Continuous
 62
     7
100
AcDbPolyline
 90
        4
 70
     0
 43
0.0
 10
1.675358
 20
-1.531495999999999
 10
1.673327
 20
-1.615474999999999
 10
1.671618
 20
-1.699418999999999
 10
1.670263999999999
 20
-1.783302999999999
  0
LWPOLYLINE
  5
AA6
330
1E
100
AcDbEntity
  8
LAYER_1
  6
Continuous
 62
     7
100
AcDbPolyline
 90
        4
 70
     0
 43
0.0
 10
1.670263999999999
 20
-1.783302999999999
 10
1.669284
 20
-1.867088
 10
1.668660999999999
 20
-1.950775999999999
 10
1.668358
 20
-2.034374
  0
LWPOLYLINE
  5
AAC
330
1E
100
AcDbEntity
  8
LAYER_1
  6
Continuous
 62
     7
100
AcDbPolyline
 90
        4
 70
     0
 43
0.0
 10
1.668358
 20
-2.034374
 10
1.668368999999999
 20
-2.117859
 10
1.6687
 20
-2.201254
 10
1.669386
 20
-2.284555
  0
LWPOLYLINE
  5
AB2
330
1E
100
AcDbEntity
  8
LAYER_1
  6
Continuous
 62
     7
100
AcDbPolyline
 90
        4
 70
     0
 43
0.0
 10
1.669386
 20
-2.284555
 10
1.670461999999999
 20
-2.367757
 10
1.671956999999999
 20
-2.450864
 10
1.673902
 20
-2.533873999999999
  0
LWPOLYLINE
  5
AB8
330
1E
100
AcDbEntity
  8
LAYER_1
  6
Continuous
 62
     7
100
AcDbPolyline
 90
        4
 70
     0
 43
0.0
 10
1.673902
 20
-2.533873999999999
 10
1.676336
 20
-2.616783999999999
 10
1.679251999999999
 20
-2.6996
 10
1.682649999999999
 20
-2.782318999999999
  0
LWPOLYLINE
  5
ABE
330
1E
100
AcDbEntity
  8
LAYER_1
  6
Continuous
 62
     7
100
AcDbPolyline
 90
        4
 70
     0
 43
0.0
 10
1.682649999999999
 20
-2.782318999999999
 10
1.686549
 20
-2.864927
 10
1.690959
 20
-2.947375
 10
1.695913
 20
-3.029593999999999
  0
LWPOLYLINE
  5
AC4
330
1E
100
AcDbEntity
  8
LAYER_1
  6
Continuous
 62
     7
100
AcDbPolyline
 90
        4
 70
     0
 43
0.0
 10
1.695913
 20
-3.029593999999999
 10
1.701456999999999
 20
-3.111539
 10
1.707583
 20
-3.193227999999999
 10
1.714291
 20
-3.274693
  0
LWPOLYLINE
  5
ACA
330
1E
100
AcDbEntity
  8
LAYER_1
  6
Continuous
 62
     7
100
AcDbPolyline
 90
        4
 70
     0
 43
0.0
 10
1.714291
 20
-3.274693
 10
1.721592999999999
 20
-3.355942999999999
 10
1.729543
 20
-3.43693
 10
1.738204999999999
 20
-3.517594
  0
LWPOLYLINE
  5
AD0
330
1E
100
AcDbEntity
  8
LAYER_1
  6
Continuous
 62
     7
100
AcDbPolyline
 90
        4
 70
     0
 43
0.0
 10
1.738204999999999
 20
-3.517594
 10
1.747638
 20
-3.597859999999999
 10
1.757879
 20
-3.677644
 10
1.768968999999999
 20
-3.756845999999999
  0
LWPOLYLINE
  5
AD6
330
1E
100
AcDbEntity
  8
LAYER_1
  6
Continuous
 62
     7
100
AcDbPolyline
 90
        4
 70
     0
 43
0.0
 10
1.768968999999999
 20
-3.756845999999999
 10
1.780928999999999
 20
-3.835385
 10
1.793799
 20
-3.913206999999999
 10
1.80761
 20
-3.990276
  0
LWPOLYLINE
  5
ADC
330
1E
100
AcDbEntity
  8
LAYER_1
  6
Continuous
 62
     7
100
AcDbPolyline
 90
        4
 70
     0
 43
0.0
 10
1.80761
 20
-3.990276
 10
1.822399
 20
-4.066536
 10
1.838297
 20
-4.141758999999999
 10
1.855428999999999
 20
-4.215681
  0
LWPOLYLINE
  5
AE2
330
1E
100
AcDbEntity
  8
LAYER_1
  6
Continuous
 62
     7
100
AcDbPolyline
 90
        4
 70
     0
 43
0.0
 10
1.855428999999999
 20
-4.215681
 10
1.873868999999999
 20
-4.288009999999999
 10
1.893547
 20
-4.358265
 10
1.914331
 20
-4.425925
  0
LWPOLYLINE
  5
AE8
330
1E
100
AcDbEntity
  8
LAYER_1
  6
Continuous
 62
     7
100
AcDbPolyline
 90
        4
 70
     0
 43
0.0
 10
1.914331
 20
-4.425925
 10
1.936035
 20
-4.490408999999999
 10
1.958327999999999
 20
-4.550839999999999
 10
1.980818999999999
 20
-4.606279999999999
  0
LWPOLYLINE
  5
AEE
330
1E
100
AcDbEntity
  8
LAYER_1
  6
Continuous
 62
     7
100
AcDbPolyline
 90
        4
 70
     0
 43
0.0
 10
1.980818999999999
 20
-4.606279999999999
 10
2.003095
 20
-4.655918999999999
 10
2.024728
 20
-4.699433999999999
 10
2.045263999999999
 20
-4.736629999999999
  0
LWPOLYLINE
  5
AF4
330
1E
100
AcDbEntity
  8
LAYER_1
  6
Continuous
 62
     7
100
AcDbPolyline
 90
        4
 70
     0
 43
0.0
 10
2.045263999999999
 20
-4.736629999999999
 10
2.064309
 20
-4.767498999999999
 10
2.081805
 20
-4.792797
 10
2.097748
 20
-4.813464999999999
  0
LWPOLYLINE
  5
AFA
330
1E
100
AcDbEntity
  8
LAYER_1
  6
Continuous
 62
     7
100
AcDbPolyline
 90
        4
 70
     0
 43
0.0
 10
2.097748
 20
-4.813464999999999
 10
2.112184999999999
 20
-4.830360999999999
 10
2.125357
 20
-4.844051
 10
2.137554999999999
 20
-4.855015999999999
  0
LWPOLYLINE
  5
B00
330
1E
100
AcDbEntity
  8
LAYER_1
  6
Continuous
 62
     7
100
AcDbPolyline
 90
        4
 70
     0
 43
0.0
 10
2.137554999999999
 20
-4.855015999999999
 10
2.149030999999999
 20
-4.863712
 10
2.159893999999999
 20
-4.87043
 10
2.170204999999999
 20
-4.875433
  0
LWPOLYLINE
  5
B06
330
1E
100
AcDbEntity
  8
LAYER_1
  6
Continuous
 62
     7
100
AcDbPolyline
 90
        4
 70
     0
 43
0.0
 10
2.170204999999999
 20
-4.875433
 10
2.180041999999999
 20
-4.878908
 10
2.189522999999999
 20
-4.880797
 10
2.198775999999999
 20
-4.880971999999999
  0
LWPOLYLINE
  5
B0C
330
1E
100
AcDbEntity
  8
LAYER_1
  6
Continuous
 62
     7
100
AcDbPolyline
 90
        4
 70
     0
 43
0.0
 10
2.198775999999999
 20
-4.880971999999999
 10
2.207891999999999
 20
-4.879304
 10
2.216785999999999
 20
-4.875691
 10
2.225318999999999
 20
-4.870034999999999
  0
LWPOLYLINE
  5
B12
330
1E
100
AcDbEntity
  8
LAYER_1
  6
Continuous
 62
     7
100
AcDbPolyline
 90
        4
 70
     0
 43
0.0
 10
2.225318999999999
 20
-4.870034999999999
 10
2.233413999999999
 20
-4.862248
 10
2.24122
 20
-4.852258999999999
 10
2.248928999999999
 20
-4.839999999999999
  0
LWPOLYLINE
  5
B18
330
1E
100
AcDbEntity
  8
LAYER_1
  6
Continuous
 62
     7
100
AcDbPolyline
 90
        4
 70
     0
 43
0.0
 10
2.248928999999999
 20
-4.839999999999999
 10
2.256724999999999
 20
-4.825296999999999
 10
2.264708
 20
-4.807516
 10
2.272984
 20
-4.785908999999999
  0
LWPOLYLINE
  5
B1E
330
1E
100
AcDbEntity
  8
LAYER_1
  6
Continuous
 62
     7
100
AcDbPolyline
 90
        4
 70
     0
 43
0.0
 10
2.272984
 20
-4.785908999999999
 10
2.281625999999999
 20
-4.759675999999999
 10
2.290591999999999
 20
-4.727771999999999
 10
2.299818999999999
 20
-4.689098
  0
LWPOLYLINE
  5
B24
330
1E
100
AcDbEntity
  8
LAYER_1
  6
Continuous
 62
     7
100
AcDbPolyline
 90
        4
 70
     0
 43
0.0
 10
2.299818999999999
 20
-4.689098
 10
2.309193999999999
 20
-4.642831
 10
2.31844
 20
-4.589272
 10
2.327231999999999
 20
-4.529008
  0
LWPOLYLINE
  5
B2A
330
1E
100
AcDbEntity
  8
LAYER_1
  6
Continuous
 62
     7
100
AcDbPolyline
 90
        4
 70
     0
 43
0.0
 10
2.327231999999999
 20
-4.529008
 10
2.335291999999999
 20
-4.462744999999999
 10
2.342505
 20
-4.391685999999999
 10
2.348802999999999
 20
-4.317161
  0
LWPOLYLINE
  5
B30
330
1E
100
AcDbEntity
  8
LAYER_1
  6
Continuous
 62
     7
100
AcDbPolyline
 90
        4
 70
     0
 43
0.0
 10
2.348802999999999
 20
-4.317161
 10
2.354156999999999
 20
-4.240340999999999
 10
2.358572
 20
-4.161772
 10
2.362083
 20
-4.081845999999999
  0
LWPOLYLINE
  5
B36
330
1E
100
AcDbEntity
  8
LAYER_1
  6
Continuous
 62
     7
100
AcDbPolyline
 90
        4
 70
     0
 43
0.0
 10
2.362083
 20
-4.081845999999999
 10
2.364729
 20
-4.000905999999999
 10
2.366665999999999
 20
-3.919191
 10
2.368055
 20
-3.836901999999999
  0
LWPOLYLINE
  5
B3C
330
1E
100
AcDbEntity
  8
LAYER_1
  6
Continuous
 62
     7
100
AcDbPolyline
 90
        4
 70
     0
 43
0.0
 10
2.368055
 20
-3.836901999999999
 10
2.369021
 20
-3.754191
 10
2.369568
 20
-3.671158999999999
 10
2.369665
 20
-3.587873999999999
  0
LWPOLYLINE
  5
B42
330
1E
100
AcDbEntity
  8
LAYER_1
  6
Continuous
 62
     7
100
AcDbPolyline
 90
        4
 70
     0
 43
0.0
 10
2.369665
 20
-3.587873999999999
 10
2.369286999999999
 20
-3.504373
 10
2.368524
 20
-3.420681999999999
 10
2.367468999999999
 20
-3.336802999999999
  0
LWPOLYLINE
  5
B48
330
1E
100
AcDbEntity
  8
LAYER_1
  6
Continuous
 62
     7
100
AcDbPolyline
 90
        4
 70
     0
 43
0.0
 10
2.367468999999999
 20
-3.336802999999999
 10
2.366206
 20
-3.252724999999999
 10
2.364748
 20
-3.168454
 10
2.363093999999999
 20
-3.083984
  0
LWPOLYLINE
  5
B4E
330
1E
100
AcDbEntity
  8
LAYER_1
  6
Continuous
 62
     7
100
AcDbPolyline
 90
        4
 70
     0
 43
0.0
 10
2.363093999999999
 20
-3.083984
 10
2.361253
 20
-2.999331
 10
2.359248
 20
-2.914552
 10
2.35711
 20
-2.829705
  0
LWPOLYLINE
  5
B54
330
1E
100
AcDbEntity
  8
LAYER_1
  6
Continuous
 62
     7
100
AcDbPolyline
 90
        4
 70
     0
 43
0.0
 10
2.35711
 20
-2.829705
 10
2.354872999999999
 20
-2.744842999999999
 10
2.352501999999999
 20
-2.659952
 10
2.349968999999999
 20
-2.574996
  0
LWPOLYLINE
  5
B5A
330
1E
100
AcDbEntity
  8
LAYER_1
  6
Continuous
 62
     7
100
AcDbPolyline
 90
        4
 70
     0
 43
0.0
 10
2.349968999999999
 20
-2.574996
 10
2.347259
 20
-2.489952999999999
 10
2.344418
 20
-2.404840999999999
 10
2.341511999999999
 20
-2.319693
  0
LWPOLYLINE
  5
B60
330
1E
100
AcDbEntity
  8
LAYER_1
  6
Continuous
 62
     7
100
AcDbPolyline
 90
        4
 70
     0
 43
0.0
 10
2.341511999999999
 20
-2.319693
 10
2.338592999999999
 20
-2.234550999999999
 10
2.335643
 20
-2.149405999999999
 10
2.332622
 20
-2.064264
  0
LWPOLYLINE
  5
B66
330
1E
100
AcDbEntity
  8
LAYER_1
  6
Continuous
 62
     7
100
AcDbPolyline
 90
        4
 70
     0
 43
0.0
 10
2.332622
 20
-2.064264
 10
2.329515999999999
 20
-1.979104999999999
 10
2.326308
 20
-1.893915999999999
 10
2.322999999999999
 20
-1.808665
  0
LWPOLYLINE
  5
B6C
330
1E
100
AcDbEntity
  8
LAYER_1
  6
Continuous
 62
     7
100
AcDbPolyline
 90
        4
 70
     0
 43
0.0
 10
2.322999999999999
 20
-1.808665
 10
2.319611
 20
-1.723331999999999
 10
2.316186
 20
-1.637933
 10
2.312790999999999
 20
-1.5525
  0
LWPOLYLINE
  5
B72
330
1E
100
AcDbEntity
  8
LAYER_1
  6
Continuous
 62
     7
100
AcDbPolyline
 90
        4
 70
     0
 43
0.0
 10
2.312790999999999
 20
-1.5525
 10
2.309477
 20
-1.467057999999999
 10
2.306192999999999
 20
-1.381619
 10
2.302874
 20
-1.296177
  0
LWPOLYLINE
  5
B78
330
1E
100
AcDbEntity
  8
LAYER_1
  6
Continuous
 62
     7
100
AcDbPolyline
 90
        4
 70
     0
 43
0.0
 10
2.302874
 20
-1.296177
 10
2.299481999999999
 20
-1.210736
 10
2.296022
 20
-1.125299
 10
2.292527999999999
 20
-1.039857999999999
  0
LWPOLYLINE
  5
B7E
330
1E
100
AcDbEntity
  8
LAYER_1
  6
Continuous
 62
     7
100
AcDbPolyline
 90
        4
 70
     0
 43
0.0
 10
2.292527999999999
 20
-1.039857999999999
 10
2.289022
 20
-0.9544299999999999
 10
2.285486
 20
-0.869029
 10
2.281886
 20
-0.7836930000000001
  0
LWPOLYLINE
  5
B84
330
1E
100
AcDbEntity
  8
LAYER_1
  6
Continuous
 62
     7
100
AcDbPolyline
 90
        4
 70
     0
 43
0.0
 10
2.281886
 20
-0.7836930000000001
 10
2.278208
 20
-0.698432
 10
2.274491999999999
 20
-0.613171
 10
2.270802999999999
 20
-0.527819
  0
LWPOLYLINE
  5
B8A
330
1E
100
AcDbEntity
  8
LAYER_1
  6
Continuous
 62
     7
100
AcDbPolyline
 90
        4
 70
     0
 43
0.0
 10
2.270802999999999
 20
-0.527819
 10
2.267206
 20
-0.442296
 10
2.26367
 20
-0.356678
 10
2.260165
 20
-0.271055
  0
LWPOLYLINE
  5
B90
330
1E
100
AcDbEntity
  8
LAYER_1
  6
Continuous
 62
     7
100
AcDbPolyline
 90
        4
 70
     0
 43
0.0
 10
2.260165
 20
-0.271055
 10
2.256665
 20
-0.185515
 10
2.253165
 20
-0.100041
 10
2.249665
 20
-0.014594
  0
LWPOLYLINE
  5
B96
330
1E
100
AcDbEntity
  8
LAYER_1
  6
Continuous
 62
     7
100
AcDbPolyline
 90
        4
 70
     0
 43
0.0
 10
2.249665
 20
-0.014594
 10
2.246164999999999
 20
0.070844
 10
2.242665
 20
0.15628
 10
2.239165
 20
0.24172
  0
LWPOLYLINE
  5
B9C
330
1E
100
AcDbEntity
  8
LAYER_1
  6
Continuous
 62
     7
100
AcDbPolyline
 90
        4
 70
     0
 43
0.0
 10
2.239165
 20
0.24172
 10
2.235665
 20
0.327154
 10
2.232165
 20
0.412595
 10
2.228665
 20
0.498039
  0
LWPOLYLINE
  5
BA2
330
1E
100
AcDbEntity
  8
LAYER_1
  6
Continuous
 62
     7
100
AcDbPolyline
 90
        4
 70
     0
 43
0.0
 10
2.228665
 20
0.498039
 10
2.225173999999999
 20
0.583467
 10
2.221715999999999
 20
0.668868
 10
2.218318999999999
 20
0.754205
  0
LWPOLYLINE
  5
BA8
330
1E
100
AcDbEntity
  8
LAYER_1
  6
Continuous
 62
     7
100
AcDbPolyline
 90
        4
 70
     0
 43
0.0
 10
2.218318999999999
 20
0.754205
 10
2.215002999999999
 20
0.83946
 10
2.211758
 20
0.924685
 10
2.208555
 20
1.009940999999999
  0
LWPOLYLINE
  5
BAE
330
1E
100
AcDbEntity
  8
LAYER_1
  6
Continuous
 62
     7
100
AcDbPolyline
 90
        4
 70
     0
 43
0.0
 10
2.208555
 20
1.009940999999999
 10
2.205346
 20
1.095250999999999
 10
2.202138
 20
1.180464999999999
 10
2.198929
 20
1.265386
  0
LWPOLYLINE
  5
BB4
330
1E
100
AcDbEntity
  8
LAYER_1
  6
Continuous
 62
     7
100
AcDbPolyline
 90
        4
 70
     0
 43
0.0
 10
2.198929
 20
1.265386
 10
2.195741999999999
 20
1.349690999999999
 10
2.192683999999999
 20
1.432535999999999
 10
2.189885999999999
 20
1.512941
  0
LWPOLYLINE
  5
BBA
330
1E
100
AcDbEntity
  8
LAYER_1
  6
Continuous
 62
     7
100
AcDbPolyline
 90
        4
 70
     0
 43
0.0
 10
2.189885999999999
 20
1.512941
 10
2.187472999999999
 20
1.590453
 10
2.185545999999999
 20
1.666533
 10
2.184204999999999
 20
1.743165
  0
LWPOLYLINE
  5
BC0
330
1E
100
AcDbEntity
  8
LAYER_1
  6
Continuous
 62
     7
100
AcDbPolyline
 90
        4
 70
     0
 43
0.0
 10
2.184204999999999
 20
1.743165
 10
2.183486999999999
 20
1.821927
 10
2.183260999999999
 20
1.902795
 10
2.183330999999999
 20
1.985345999999999
  0
LWPOLYLINE
  5
BC6
330
1E
100
AcDbEntity
  8
LAYER_1
  6
Continuous
 62
     7
100
AcDbPolyline
 90
        4
 70
     0
 43
0.0
 10
2.183330999999999
 20
1.985345999999999
 10
2.183521999999999
 20
2.069158999999999
 10
2.183772
 20
2.153814
 10
2.184054999999999
 20
2.238885999999999
  0
LWPOLYLINE
  5
BCC
330
1E
100
AcDbEntity
  8
LAYER_1
  6
Continuous
 62
     7
100
AcDbPolyline
 90
        4
 70
     0
 43
0.0
 10
2.184054999999999
 20
2.238885999999999
 10
2.184355
 20
2.324040999999999
 10
2.184689
 20
2.409227
 10
2.185083
 20
2.494483999999999
  0
LWPOLYLINE
  5
BD2
330
1E
100
AcDbEntity
  8
LAYER_1
  6
Continuous
 62
     7
100
AcDbPolyline
 90
        4
 70
     0
 43
0.0
 10
2.185083
 20
2.494483999999999
 10
2.185563
 20
2.579810999999999
 10
2.186145999999999
 20
2.665168999999999
 10
2.186831
 20
2.750496
  0
LWPOLYLINE
  5
BD8
330
1E
100
AcDbEntity
  8
LAYER_1
  6
Continuous
 62
     7
100
AcDbPolyline
 90
        4
 70
     0
 43
0.0
 10
2.186831
 20
2.750496
 10
2.187599
 20
2.835748
 10
2.188434999999999
 20
2.920936999999999
 10
2.189302999999999
 20
3.006094
  0
LWPOLYLINE
  5
BDE
330
1E
100
AcDbEntity
  8
LAYER_1
  6
Continuous
 62
     7
100
AcDbPolyline
 90
        4
 70
     0
 43
0.0
 10
2.189302999999999
 20
3.006094
 10
2.190183999999999
 20
3.091231
 10
2.1911
 20
3.176340999999999
 10
2.192083
 20
3.261385999999999
  0
LWPOLYLINE
  5
BE4
330
1E
100
AcDbEntity
  8
LAYER_1
  6
Continuous
 62
     7
100
AcDbPolyline
 90
        4
 70
     0
 43
0.0
 10
2.192083
 20
3.261385999999999
 10
2.193140999999999
 20
3.346236
 10
2.194268
 20
3.430373999999999
 10
2.195429
 20
3.513176999999999
  0
LWPOLYLINE
  5
BEA
330
1E
100
AcDbEntity
  8
LAYER_1
  6
Continuous
 62
     7
100
AcDbPolyline
 90
        4
 70
     0
 43
0.0
 10
2.195429
 20
3.513176999999999
 10
2.196584999999999
 20
3.59348
 10
2.197675999999999
 20
3.667819
 10
2.198638
 20
3.732176999999999
  0
LWPOLYLINE
  5
BF0
330
1E
100
AcDbEntity
  8
LAYER_1
  6
Continuous
 62
     7
100
AcDbPolyline
 90
        4
 70
     0
 43
0.0
 10
2.198638
 20
3.732176999999999
 10
2.199415
 20
3.783297
 10
2.199997
 20
3.820973999999999
 10
2.200385999999999
 20
3.845763999999999
  0
LWPOLYLINE
  5
BF6
330
1E
100
AcDbEntity
  8
LAYER_1
  6
Continuous
 62
     7
100
AcDbPolyline
 90
        4
 70
     0
 43
0.0
 10
2.200385999999999
 20
3.845763999999999
 10
2.200591
 20
3.858791
 10
2.200666
 20
3.86359
 10
2.200677
 20
3.864276
  0
SOLID
  5
BFC
330
1E
100
AcDbEntity
  8
LAYER_1
  6
Continuous
100
AcDbTrace
 10
1.891
 20
1.686429
 30
0.0
 11
1.938027999999999
 21
1.683748
 31
0.0
 12
1.899066999999999
 22
1.746886
 32
0.0
 13
1.947428999999999
 23
1.740177
 33
0.0
  0
LWPOLYLINE
  5
BFD
330
1E
100
AcDbEntity
  8
LAYER_1
  6
Continuous
100
AcDbPolyline
 90
        4
 70
     1
 43
0.0
 10
1.891
 20
1.686429
 10
1.938027999999999
 20
1.683748
 10
1.947428999999999
 20
1.740177
 10
1.899066999999999
 20
1.746886
  0
SOLID
  5
C03
330
1E
100
AcDbEntity
  8
LAYER_1
  6
Continuous
100
AcDbTrace
 10
0.91165
 20
1.660609999999999
 30
0.0
 11
0.9687479999999998
 21
1.657929
 31
0.0
 12
0.92711
 22
1.776149999999999
 32
0.0
 13
0.9788309999999999
 23
1.762038999999999
 33
0.0
  0
LWPOLYLINE
  5
C04
330
1E
100
AcDbEntity
  8
LAYER_1
  6
Continuous
100
AcDbPolyline
 90
        4
 70
     1
 43
0.0
 10
0.91165
 20
1.660609999999999
 10
0.9687479999999998
 20
1.657929
 10
0.9788309999999999
 20
1.762038999999999
 10
0.92711
 20
1.776149999999999
  0
LWPOLYLINE
  5
C0A
330
1E
100
AcDbEntity
  8
LAYER_1
  6
Continuous
 62
     7
100
AcDbPolyline
 90
       11
 70
     0
 43
0.0
 10
1.211512
 20
1.692676999999999
 10
1.072748
 20
2.073929
 10
0.9144569999999999
 20
2.516677
 10
0.698957
 20
3.124457
 10
0.6010939999999999
 20
3.409066999999999
 10
0.483929
 20
3.746705
 10
0.473819
 20
3.743027999999999
 10
0.616791
 20
3.114566999999999
 10
0.739748
 20
2.564594
 10
0.8569839999999999
 20
2.038275999999999
 10
0.9397200000000001
 20
1.685247999999999
  0
LWPOLYLINE
  5
C17
330
1E
100
AcDbEntity
  8
LAYER_1
  6
Continuous
 62
     7
100
AcDbPolyline
 90
        2
 70
     0
 43
0.0
 10
0.95311
 20
1.773940999999999
 10
1.212385999999999
 20
1.687956999999999
  0
LWPOLYLINE
  5
C1B
330
1E
100
AcDbEntity
  8
LAYER_1
  6
Continuous
 62
     7
100
AcDbPolyline
 90
       11
 70
     0
 43
0.0
 10
1.213583
 20
1.688665
 10
1.297941
 20
2.085512
 10
1.398319
 20
2.544874
 10
1.53765
 20
3.1745
 10
1.605469
 20
3.467731999999999
 10
1.685011999999999
 20
3.81615
 10
1.674512
 20
3.818386
 10
1.462704999999999
 20
3.209649999999999
 10
1.275567
 20
2.678093999999999
 10
1.096066999999999
 20
2.169621999999999
 10
0.9791649999999998
 20
1.826402
  0
TEXT
  5
C28
330
1E
100
AcDbEntity
  8
LAYER_1
 62
     7
100
AcDbText
 10
1.143704999999999
 20
3.950232
 30
0.0
 40
0.099938
  1
-2 run
 50
90.0
 41
0.5744128601111999
  7
SN1
 72
     5
 11
1.143704999999999
 21
4.26733
 31
0.0
100
AcDbText
  0
LWPOLYLINE
  5
C29
330
1E
100
AcDbEntity
  8
LAYER_1
  6
Continuous
 62
     7
100
AcDbPolyline
 90
        2
 70
     0
 43
0.0
 10
-3.941205
 20
4.86972
 10
-3.841701
 20
4.86972
  0
LWPOLYLINE
  5
C2D
330
1E
100
AcDbEntity
  8
LAYER_1
  6
Continuous
 62
     7
100
AcDbPolyline
 90
        2
 70
     0
 43
0.0
 10
-3.863133999999999
 20
4.365676999999999
 10
-3.838255999999999
 20
4.365676999999999
  0
LWPOLYLINE
  5
C31
330
1E
100
AcDbEntity
  8
LAYER_1
  6
Continuous
 62
     7
100
AcDbPolyline
 90
        2
 70
     0
 43
0.0
 10
-3.863133999999999
 20
4.493330999999999
 10
-3.838255999999999
 20
4.493330999999999
  0
LWPOLYLINE
  5
C35
330
1E
100
AcDbEntity
  8
LAYER_1
  6
Continuous
 62
     7
100
AcDbPolyline
 90
        2
 70
     0
 43
0.0
 10
-3.863133999999999
 20
4.617704999999999
 10
-3.838255999999999
 20
4.617704999999999
  0
LWPOLYLINE
  5
C39
330
1E
100
AcDbEntity
  8
LAYER_1
  6
Continuous
 62
     7
100
AcDbPolyline
 90
        2
 70
     0
 43
0.0
 10
-3.863133999999999
 20
4.742083
 10
-3.838255999999999
 20
4.742083
  0
LWPOLYLINE
  5
C3D
330
1E
100
AcDbEntity
  8
LAYER_1
  6
Continuous
 62
     7
100
AcDbPolyline
 90
        2
 70
     0
 43
0.0
 10
-3.839587
 20
-3.879763999999999
 10
-3.839587
 20
4.872232
  0
TEXT
  5
C41
330
1E
100
AcDbEntity
  8
LAYER_1
 62
     7
100
AcDbText
 10
-3.74215
 20
3.557263999999999
 30
0.0
 40
0.075434
  1
60
 50
90.0
 41
0.7650507441980761
  7
SN0
 72
     5
 11
-3.74215
 21
3.658944999999999
 31
0.0
100
AcDbText
  0
TEXT
  5
C42
330
1E
100
AcDbEntity
  8
LAYER_1
 62
     7
100
AcDbText
 10
-3.74215
 20
3.833165
 30
0.0
 40
0.075434
  1
70 in
 50
90.0
 41
0.6430301615889695
  7
SN0
 72
     5
 11
-3.74215
 21
4.03181
 31
0.0
100
AcDbText
  0
LWPOLYLINE
  5
C43
330
1E
100
AcDbEntity
  8
LAYER_1
  6
Continuous
 62
     7
100
AcDbPolyline
 90
        4
 70
     0
 43
0.0
 10
-3.142024
 20
-3.876676999999999
 10
-3.142024
 20
0.05772
 10
-3.050634
 20
0.058484
 10
-3.050634
 20
-3.87515
  0
SOLID
  5
C49
330
1E
100
AcDbEntity
  8
LAYER_1
  6
Continuous
 62
     7
100
AcDbTrace
 10
3.341083
 20
-2.238412999999999
 30
0.0
 11
3.315555
 21
-1.492593999999999
 31
0.0
 12
3.423983999999999
 22
-2.235484
 32
0.0
 13
3.398457
 23
-1.489665
 33
0.0
  0
LWPOLYLINE
  5
C4A
330
1E
100
AcDbEntity
  8
LAYER_1
  6
Continuous
 62
     7
100
AcDbPolyline
 90
        4
 70
     1
 43
0.0
 10
3.341083
 20
-2.238412999999999
 10
3.315555
 20
-1.492593999999999
 10
3.398457
 20
-1.489665
 10
3.423983999999999
 20
-2.235484
  0
LWPOLYLINE
  5
C50
330
1E
100
AcDbEntity
  8
LAYER_1
  6
Continuous
 62
     7
100
AcDbPolyline
 90
        4
 70
     1
 43
0.0
 10
3.341083
 20
-2.238412999999999
 10
3.315555
 20
-1.492593999999999
 10
3.398457
 20
-1.489665
 10
3.423983999999999
 20
-2.235484
  0
SOLID
  5
C56
330
1E
100
AcDbEntity
  8
LAYER_1
  6
Continuous
 62
     7
100
AcDbTrace
 10
2.701775999999999
 20
-2.261638
 30
0.0
 11
2.676247999999999
 21
-1.515819
 31
0.0
 12
2.784664999999999
 22
-2.258704999999999
 32
0.0
 13
2.759149999999999
 23
-1.512885999999999
 33
0.0
  0
LWPOLYLINE
  5
C57
330
1E
100
AcDbEntity
  8
LAYER_1
  6
Continuous
 62
     7
100
AcDbPolyline
 90
        4
 70
     1
 43
0.0
 10
2.701775999999999
 20
-2.261638
 10
2.676247999999999
 20
-1.515819
 10
2.759149999999999
 20
-1.512885999999999
 10
2.784664999999999
 20
-2.258704999999999
  0
LWPOLYLINE
  5
C5D
330
1E
100
AcDbEntity
  8
LAYER_1
  6
Continuous
 62
     7
100
AcDbPolyline
 90
        4
 70
     1
 43
0.0
 10
2.701775999999999
 20
-2.261638
 10
2.676247999999999
 20
-1.515819
 10
2.759149999999999
 20
-1.512885999999999
 10
2.784664999999999
 20
-2.258704999999999
  0
SOLID
  5
C63
330
1E
100
AcDbEntity
  8
LAYER_1
  6
Continuous
 62
     7
100
AcDbTrace
 10
2.296054999999999
 20
-2.26411
 30
0.0
 11
2.270885999999999
 21
-1.518291
 31
0.0
 12
2.323083
 22
-2.263149999999999
 32
0.0
 13
2.297913
 23
-1.517330999999999
 33
0.0
  0
LWPOLYLINE
  5
C64
330
1E
100
AcDbEntity
  8
LAYER_1
  6
Continuous
 62
     7
100
AcDbPolyline
 90
        4
 70
     1
 43
0.0
 10
2.296054999999999
 20
-2.26411
 10
2.270885999999999
 20
-1.518291
 10
2.297913
 20
-1.517330999999999
 10
2.323083
 20
-2.263149999999999
  0
LWPOLYLINE
  5
C6A
330
1E
100
AcDbEntity
  8
LAYER_1
  6
Continuous
 62
     7
100
AcDbPolyline
 90
        4
 70
     1
 43
0.0
 10
2.296054999999999
 20
-2.26411
 10
2.270885999999999
 20
-1.518291
 10
2.297913
 20
-1.517330999999999
 10
2.323083
 20
-2.263149999999999
  0
LWPOLYLINE
  5
C70
330
1E
100
AcDbEntity
  8
LAYER_1
  6
Continuous
 62
   137
100
AcDbPolyline
 90
       16
 70
     1
 43
0.0
 10
2.104457
 20
-1.756913
 10
2.089234999999999
 20
-1.672868999999999
 10
2.047722999999999
 20
-1.604238999999999
 10
1.986156
 20
-1.557967
 10
1.910763999999999
 20
-1.540999999999999
 10
1.83537
 20
-1.557967
 10
1.773800999999999
 20
-1.604238999999999
 10
1.732288999999999
 20
-1.672868999999999
 10
1.717066999999999
 20
-1.756913
 10
1.732288999999999
 20
-1.840959999999999
 10
1.773800999999999
 20
-1.909591999999999
 10
1.83537
 20
-1.955863
 10
1.910763999999999
 20
-1.972831
 10
1.986156
 20
-1.955863
 10
2.047722999999999
 20
-1.909591999999999
 10
2.089234999999999
 20
-1.840959999999999
  0
LWPOLYLINE
  5
C82
330
1E
100
AcDbEntity
  8
LAYER_1
  6
Continuous
 62
     7
100
AcDbPolyline
 90
        5
 70
     0
 43
0.0
 10
2.104457
 20
-1.756913
 10
2.089234999999999
 20
-1.672868999999999
 10
2.047722999999999
 20
-1.604238999999999
 10
1.986156
 20
-1.557967
 10
1.910763999999999
 20
-1.540999999999999
  0
LWPOLYLINE
  5
C89
330
1E
100
AcDbEntity
  8
LAYER_1
  6
Continuous
 62
     7
100
AcDbPolyline
 90
        5
 70
     0
 43
0.0
 10
1.910763999999999
 20
-1.540999999999999
 10
1.83537
 20
-1.557967
 10
1.773800999999999
 20
-1.604238999999999
 10
1.732288999999999
 20
-1.672868999999999
 10
1.717066999999999
 20
-1.756913
  0
LWPOLYLINE
  5
C90
330
1E
100
AcDbEntity
  8
LAYER_1
  6
Continuous
 62
     7
100
AcDbPolyline
 90
        5
 70
     0
 43
0.0
 10
1.717066999999999
 20
-1.756913
 10
1.732288999999999
 20
-1.840959999999999
 10
1.773800999999999
 20
-1.909591999999999
 10
1.83537
 20
-1.955863
 10
1.910763999999999
 20
-1.972831
  0
LWPOLYLINE
  5
C97
330
1E
100
AcDbEntity
  8
LAYER_1
  6
Continuous
 62
     7
100
AcDbPolyline
 90
        5
 70
     0
 43
0.0
 10
1.910763999999999
 20
-1.972831
 10
1.986156
 20
-1.955863
 10
2.047722999999999
 20
-1.909591999999999
 10
2.089234999999999
 20
-1.840959999999999
 10
2.104457
 20
-1.756913
  0
LWPOLYLINE
  5
C9E
330
1E
100
AcDbEntity
  8
LAYER_1
  6
Continuous
 62
     7
100
AcDbPolyline
 90
       12
 70
     1
 43
0.0
 10
2.079302999999999
 20
-1.756913
 10
2.056293
 20
-1.662099
 10
1.995829
 20
-1.594704
 10
1.910763999999999
 20
-1.569054999999999
 10
1.825690999999999
 20
-1.594704
 10
1.765218999999999
 20
-1.662099
 10
1.742205
 20
-1.756913
 10
1.765218999999999
 20
-1.851729999999999
 10
1.825690999999999
 20
-1.919126999999999
 10
1.910763999999999
 20
-1.944775999999999
 10
1.995829
 20
-1.919126999999999
 10
2.056293
 20
-1.851729999999999
  0
LWPOLYLINE
  5
CAC
330
1E
100
AcDbEntity
  8
LAYER_1
  6
Continuous
 62
     7
100
AcDbPolyline
 90
        4
 70
     0
 43
0.0
 10
2.079302999999999
 20
-1.756913
 10
2.056293
 20
-1.662099
 10
1.995829
 20
-1.594704
 10
1.910763999999999
 20
-1.569054999999999
  0
LWPOLYLINE
  5
CB2
330
1E
100
AcDbEntity
  8
LAYER_1
  6
Continuous
 62
     7
100
AcDbPolyline
 90
        4
 70
     0
 43
0.0
 10
1.910763999999999
 20
-1.569054999999999
 10
1.825690999999999
 20
-1.594704
 10
1.765218999999999
 20
-1.662099
 10
1.742205
 20
-1.756913
  0
LWPOLYLINE
  5
CB8
330
1E
100
AcDbEntity
  8
LAYER_1
  6
Continuous
 62
     7
100
AcDbPolyline
 90
        4
 70
     0
 43
0.0
 10
1.742205
 20
-1.756913
 10
1.765218999999999
 20
-1.851729999999999
 10
1.825690999999999
 20
-1.919126999999999
 10
1.910763999999999
 20
-1.944775999999999
  0
LWPOLYLINE
  5
CBE
330
1E
100
AcDbEntity
  8
LAYER_1
  6
Continuous
 62
     7
100
AcDbPolyline
 90
        4
 70
     0
 43
0.0
 10
1.910763999999999
 20
-1.944775999999999
 10
1.995829
 20
-1.919126999999999
 10
2.056293
 20
-1.851729999999999
 10
2.079302999999999
 20
-1.756913
  0
LWPOLYLINE
  5
CC4
330
1E
100
AcDbEntity
  8
LAYER_1
  6
DASHED
 62
     7
100
AcDbPolyline
 90
        2
 70
     0
 43
0.0
 10
-1.879193
 20
0.080358
 10
-1.727177
 20
0.080358
  0
LWPOLYLINE
  5
CC8
330
1E
100
AcDbEntity
  8
LAYER_1
  6
DASHED
 62
     7
100
AcDbPolyline
 90
        2
 70
     0
 43
0.0
 10
-2.100290999999999
 20
-3.876483999999999
 10
-1.852928999999999
 20
-3.876483999999999
  0
LWPOLYLINE
  5
CCC
330
1E
100
AcDbEntity
  8
LAYER_1
  6
DASHED
 62
     7
100
AcDbPolyline
 90
        2
 70
     0
 43
0.0
 10
-2.039290999999999
 20
0.061929
 10
-1.887275999999999
 20
0.061929
  0
TEXT
  5
CD0
330
1E
100
AcDbEntity
  8
LAYER_1
 62
     7
100
AcDbText
 10
1.798484
 20
2.109122
 30
0.0
 40
0.099938
  1
75% chord hinge
 50
90.0
 41
0.6795590925948555
  7
SN1
 72
     5
 11
1.798484
 21
3.021106999999999
 31
0.0
100
AcDbText
  0
TEXT
  5
CD1
330
1E
100
AcDbEntity
  8
LAYER_1
 62
     7
100
AcDbText
 10
1.920138
 20
2.109122
 30
0.0
 40
0.099938
  1
at all spanwise locations
 50
90.0
 41
0.6624008568004472
  7
SN1
 72
     5
 11
1.920138
 21
3.420493
 31
0.0
100
AcDbText
  0
LWPOLYLINE
  5
CD2
330
1E
100
AcDbEntity
  8
LAYER_1
  6
DASHED
 62
     7
100
AcDbPolyline
 90
        2
 70
     0
 43
0.0
 10
-1.868429
 20
4.417969
 10
-1.716413
 20
4.417969
  0
LWPOLYLINE
  5
CD6
330
1E
100
AcDbEntity
  8
LAYER_1
  6
Continuous
 62
     7
100
AcDbPolyline
 90
        2
 70
     0
 43
0.0
 10
-3.140622
 20
0.009803
 10
-3.050799
 20
0.012567
  0
LWPOLYLINE
  5
CDA
330
1E
100
AcDbEntity
  8
LAYER_1
  6
Continuous
 62
     7
100
AcDbPolyline
 90
        2
 70
     0
 43
0.0
 10
-3.140601999999999
 20
0.018803
 10
-3.05078
 20
0.021567
  0
LWPOLYLINE
  5
CDE
330
1E
100
AcDbEntity
  8
LAYER_1
  6
Continuous
 62
     7
100
AcDbPolyline
 90
        2
 70
     0
 43
0.0
 10
-3.140587
 20
0.027819
 10
-3.050764
 20
0.030583
  0
LWPOLYLINE
  5
CE2
330
1E
100
AcDbEntity
  8
LAYER_1
  6
Continuous
 62
     7
100
AcDbPolyline
 90
        2
 70
     0
 43
0.0
 10
-3.141078999999999
 20
0.036831
 10
-3.051255999999999
 20
0.039594
  0
LWPOLYLINE
  5
CE6
330
1E
100
AcDbEntity
  8
LAYER_1
  6
Continuous
 62
     7
100
AcDbPolyline
 90
        2
 70
     0
 43
0.0
 10
-3.141062999999999
 20
0.045846
 10
-3.051239999999999
 20
0.04861
  0
LWPOLYLINE
  5
CEA
330
1E
100
AcDbEntity
  8
LAYER_1
  6
Continuous
 62
     7
100
AcDbPolyline
 90
        2
 70
     0
 43
0.0
 10
-3.112156999999999
 20
0.055886
 10
-3.051972
 20
0.05865
  0
LWPOLYLINE
  5
CEE
330
1E
100
AcDbEntity
  8
LAYER_1
  6
Continuous
 62
     7
100
AcDbPolyline
 90
        2
 70
     0
 43
0.0
 10
-3.11213
 20
0.064886
 10
-3.051944999999999
 20
0.06765
  0
LWPOLYLINE
  5
CF2
330
1E
100
AcDbEntity
  8
LAYER_1
  6
Continuous
 62
     7
100
AcDbPolyline
 90
        2
 70
     0
 43
0.0
 10
-3.112090999999999
 20
0.073902
 10
-3.051909
 20
0.076665
  0
LWPOLYLINE
  5
CF6
330
1E
100
AcDbEntity
  8
LAYER_1
  6
Continuous
 62
     7
100
AcDbPolyline
 90
        2
 70
     0
 43
0.0
 10
-3.112759999999999
 20
0.082913
 10
-3.052575
 20
0.085677
  0
LWPOLYLINE
  5
CFA
330
1E
100
AcDbEntity
  8
LAYER_1
  6
Continuous
 62
     7
100
AcDbPolyline
 90
        2
 70
     0
 43
0.0
 10
-3.112731999999999
 20
0.091913
 10
-3.052547
 20
0.094677
  0
LWPOLYLINE
  5
CFE
330
1E
100
AcDbEntity
  8
LAYER_1
  6
Continuous
 62
     7
100
AcDbPolyline
 90
        2
 70
     0
 43
0.0
 10
-2.902461
 20
-2.109176999999999
 10
-2.840038999999999
 20
-2.171593999999999
  0
LWPOLYLINE
  5
D02
330
1E
100
AcDbEntity
  8
LAYER_1
  6
Continuous
 62
     7
100
AcDbPolyline
 90
        2
 70
     0
 43
0.0
 10
-2.886768
 20
-2.093484
 10
-2.824345999999999
 20
-2.155902
  0
LWPOLYLINE
  5
D06
330
1E
100
AcDbEntity
  8
LAYER_1
  6
Continuous
 62
     7
100
AcDbPolyline
 90
        2
 70
     0
 43
0.0
 10
-2.871247999999999
 20
-2.077968999999999
 10
-2.808830999999999
 20
-2.140385999999999
  0
LWPOLYLINE
  5
D0A
330
1E
100
AcDbEntity
  8
LAYER_1
  6
Continuous
 62
     7
100
AcDbPolyline
 90
        2
 70
     0
 43
0.0
 10
-2.855732
 20
-2.062441
 10
-2.793318999999999
 20
-2.124874
  0
LWPOLYLINE
  5
D0E
330
1E
100
AcDbEntity
  8
LAYER_1
  6
Continuous
 62
     7
100
AcDbPolyline
 90
        2
 70
     0
 43
0.0
 10
-2.902461
 20
-2.124693
 10
-2.840038999999999
 20
-2.062275999999999
  0
LWPOLYLINE
  5
D12
330
1E
100
AcDbEntity
  8
LAYER_1
  6
Continuous
 62
     7
100
AcDbPolyline
 90
        2
 70
     0
 43
0.0
 10
-2.886772
 20
-2.140385999999999
 10
-2.824358
 20
-2.077968999999999
  0
LWPOLYLINE
  5
D16
330
1E
100
AcDbEntity
  8
LAYER_1
  6
Continuous
 62
     7
100
AcDbPolyline
 90
        2
 70
     0
 43
0.0
 10
-2.871256
 20
-2.155902
 10
-2.808830999999999
 20
-2.093484
  0
LWPOLYLINE
  5
D1A
330
1E
100
AcDbEntity
  8
LAYER_1
  6
Continuous
 62
     7
100
AcDbPolyline
 90
        2
 70
     0
 43
0.0
 10
-2.855554999999999
 20
-2.171593999999999
 10
-2.793137999999999
 20
-2.109176999999999
  0
LWPOLYLINE
  5
D1E
330
1E
100
AcDbEntity
  8
LAYER_1
  6
Continuous
 62
     7
100
AcDbPolyline
 90
        2
 70
     0
 43
0.0
 10
-3.301811
 20
1.179929
 10
-3.23939
 20
1.117512
  0
LWPOLYLINE
  5
D22
330
1E
100
AcDbEntity
  8
LAYER_1
  6
Continuous
 62
     7
100
AcDbPolyline
 90
        2
 70
     0
 43
0.0
 10
-3.286113999999999
 20
1.195621999999999
 10
-3.223697
 20
1.133205
  0
LWPOLYLINE
  5
D26
330
1E
100
AcDbEntity
  8
LAYER_1
  6
Continuous
 62
     7
100
AcDbPolyline
 90
        2
 70
     0
 43
0.0
 10
-3.270598
 20
1.211137999999999
 10
-3.208181
 20
1.148719999999999
  0
LWPOLYLINE
  5
D2A
330
1E
100
AcDbEntity
  8
LAYER_1
  6
Continuous
 62
     7
100
AcDbPolyline
 90
        2
 70
     0
 43
0.0
 10
-3.255083
 20
1.226664999999999
 10
-3.192661
 20
1.164231999999999
  0
LWPOLYLINE
  5
D2E
330
1E
100
AcDbEntity
  8
LAYER_1
  6
Continuous
 62
     7
100
AcDbPolyline
 90
        2
 70
     0
 43
0.0
 10
-3.301811
 20
1.164412999999999
 10
-3.23939
 20
1.226831
  0
LWPOLYLINE
  5
D32
330
1E
100
AcDbEntity
  8
LAYER_1
  6
Continuous
 62
     7
100
AcDbPolyline
 90
        2
 70
     0
 43
0.0
 10
-3.286122
 20
1.148719999999999
 10
-3.223700999999999
 20
1.211137999999999
  0
LWPOLYLINE
  5
D36
330
1E
100
AcDbEntity
  8
LAYER_1
  6
Continuous
 62
     7
100
AcDbPolyline
 90
        2
 70
     0
 43
0.0
 10
-3.270602
 20
1.133205
 10
-3.208184999999999
 20
1.195621999999999
  0
LWPOLYLINE
  5
D3A
330
1E
100
AcDbEntity
  8
LAYER_1
  6
Continuous
 62
     7
100
AcDbPolyline
 90
        2
 70
     0
 43
0.0
 10
-3.254909
 20
1.117512
 10
-3.192487999999999
 20
1.179929
  0
LWPOLYLINE
  5
D3E
330
1E
100
AcDbEntity
  8
LAYER_1
  6
Continuous
 62
     7
100
AcDbPolyline
 90
        4
 70
     1
 43
0.0
 10
-3.382613999999999
 20
-5.231101999999999
 10
-1.484145999999999
 20
-5.231101999999999
 10
-1.484145999999999
 20
-4.22965
 10
-3.382613999999999
 20
-4.22965
  0
LWPOLYLINE
  5
D44
330
1E
100
AcDbEntity
  8
LAYER_1
  6
Continuous
 62
     7
100
AcDbPolyline
 90
        2
 70
     0
 43
0.0
 10
-2.369291
 20
0.057764
 10
-3.462908999999999
 20
0.057764
  0
LWPOLYLINE
  5
D48
330
1E
100
AcDbEntity
  8
LAYER_1
  6
Continuous
 62
     7
100
AcDbPolyline
 90
        2
 70
     0
 43
0.0
 10
-2.277137999999999
 20
-3.877412999999999
 10
-2.573583
 20
-3.877412999999999
  0
LWPOLYLINE
  5
D4C
330
1E
100
AcDbEntity
  8
LAYER_1
  6
Continuous
 62
     7
100
AcDbPolyline
 90
        2
 70
     0
 43
0.0
 10
-2.249499999999999
 20
0.066969
 10
-2.249499999999999
 20
2.979193
  0
SOLID
  5
D50
330
1E
100
AcDbEntity
  8
LAYER_1
  6
Continuous
100
AcDbTrace
 10
-2.280205
 20
2.868593999999999
 30
0.0
 11
-2.249499999999999
 21
2.979193
 31
0.0
 12
-2.280205
 22
2.868593999999999
 32
0.0
 13
-2.218775999999999
 23
2.868593999999999
 33
0.0
  0
LWPOLYLINE
  5
D51
330
1E
100
AcDbEntity
  8
LAYER_1
  6
Continuous
100
AcDbPolyline
 90
        3
 70
     1
 43
0.0
 10
-2.280205
 20
2.868593999999999
 10
-2.249499999999999
 20
2.979193
 10
-2.218775999999999
 20
2.868593999999999
  0
LWPOLYLINE
  5
D56
330
1E
100
AcDbEntity
  8
LAYER_1
  6
Continuous
 62
     7
100
AcDbPolyline
 90
        3
 70
     0
 43
0.0
 10
-2.280205
 20
2.868593999999999
 10
-2.249499999999999
 20
2.979193
 10
-2.218775999999999
 20
2.868593999999999
  0
LWPOLYLINE
  5
D5B
330
1E
100
AcDbEntity
  8
LAYER_1
  6
Continuous
 62
     7
100
AcDbPolyline
 90
        4
 70
     0
 43
0.0
 10
-2.558231999999999
 20
3.003763999999999
 10
-2.558781999999999
 20
3.009908
 10
-2.562631999999999
 20
3.052915
 10
-2.573083
 20
3.169649999999999
  0
LWPOLYLINE
  5
D61
330
1E
100
AcDbEntity
  8
LAYER_1
  6
Continuous
 62
     7
100
AcDbPolyline
 90
       10
 70
     0
 43
0.0
 10
-2.573083
 20
3.169649999999999
 10
-2.578545
 20
3.230698999999999
 10
-2.584915
 20
3.301693
 10
-2.591998999999999
 20
3.380288999999999
 10
-2.599601999999999
 20
3.464142999999999
 10
-2.60753
 20
3.550912999999999
 10
-2.615588999999999
 20
3.638256999999999
 10
-2.623584999999999
 20
3.723831999999999
 10
-2.631324
 20
3.805294999999999
 10
-2.638609999999999
 20
3.880302999999999
  0
LWPOLYLINE
  5
D6D
330
1E
100
AcDbEntity
  8
LAYER_1
  6
Continuous
 62
     7
100
AcDbPolyline
 90
        5
 70
     0
 43
0.0
 10
-2.638609999999999
 20
3.880302999999999
 10
-2.652849999999999
 20
4.019261
 10
-2.664622999999999
 20
4.122602999999999
 10
-2.674717999999999
 20
4.199257
 10
-2.683929
 20
4.258149999999999
  0
LWPOLYLINE
  5
D74
330
1E
100
AcDbEntity
  8
LAYER_1
  6
Continuous
 62
     7
100
AcDbPolyline
 90
        4
 70
     0
 43
0.0
 10
-2.683929
 20
4.258149999999999
 10
-2.695829999999999
 20
4.321349999999999
 10
-2.707304
 20
4.371237999999999
 10
-2.718093999999999
 20
4.410205
  0
LWPOLYLINE
  5
D7A
330
1E
100
AcDbEntity
  8
LAYER_1
  6
Continuous
 62
     7
100
AcDbPolyline
 90
        4
 70
     0
 43
0.0
 10
-2.718093999999999
 20
4.410205
 10
-2.728015999999999
 20
4.440370999999999
 10
-2.737108
 20
4.462772
 10
-2.745483999999999
 20
4.478176999999999
  0
LWPOLYLINE
  5
D80
330
1E
100
AcDbEntity
  8
LAYER_1
  6
Continuous
 62
     7
100
AcDbPolyline
 90
        4
 70
     0
 43
0.0
 10
-2.745483999999999
 20
4.478176999999999
 10
-2.753414999999999
 20
4.487508
 10
-2.761711999999999
 20
4.492348
 10
-2.771345999999999
 20
4.494429
  0
LWPOLYLINE
  5
D86
330
1E
100
AcDbEntity
  8
LAYER_1
  6
Continuous
 62
     7
100
AcDbPolyline
 90
        4
 70
     0
 43
0.0
 10
-2.771345999999999
 20
4.494429
 10
-2.782734
 20
4.495257999999999
 10
-2.794094999999999
 20
4.495435999999999
 10
-2.803093999999999
 20
4.495331
  0
LWPOLYLINE
  5
D8C
330
1E
100
AcDbEntity
  8
LAYER_1
  6
Continuous
 62
     7
100
AcDbPolyline
 90
        4
 70
     0
 43
0.0
 10
-2.803093999999999
 20
4.495331
 10
-2.80804
 20
4.495242
 10
-2.809861999999999
 20
4.495209
 10
-2.810122
 20
4.495205
  0
LWPOLYLINE
  5
D92
330
1E
100
AcDbEntity
  8
LAYER_1
  6
Continuous
 62
     7
100
AcDbPolyline
 90
        3
 70
     0
 43
0.0
 10
-2.277137999999999
 20
-3.877412999999999
 10
-2.369302999999999
 20
0.057764
 10
-2.558231999999999
 20
2.996083
  0
LWPOLYLINE
  5
D97
330
1E
100
AcDbEntity
  8
LAYER_1
  6
DASHED
 62
     7
100
AcDbPolyline
 90
        4
 70
     0
 43
0.0
 10
-3.232524
 20
3.896165
 10
-3.160334999999999
 20
4.498276
 10
-2.693401999999999
 20
4.498276
 10
-2.651928999999999
 20
4.051302999999999
  0
LWPOLYLINE
  5
D9D
330
1E
100
AcDbEntity
  8
LAYER_1
  6
Continuous
 62
     7
100
AcDbPolyline
 90
        4
 70
     0
 43
0.0
 10
-3.338503999999999
 20
3.000693
 10
-3.337924999999999
 20
3.005699
 10
-3.333876
 20
3.040741999999999
 10
-3.322886
 20
3.135858
  0
LWPOLYLINE
  5
DA3
330
1E
100
AcDbEntity
  8
LAYER_1
  6
Continuous
 62
     7
100
AcDbPolyline
 90
        8
 70
     0
 43
0.0
 10
-3.322886
 20
3.135858
 10
-3.315301999999999
 20
3.201427
 10
-3.306191
 20
3.279730999999999
 10
-3.295937999999999
 20
3.366955999999999
 10
-3.284927999999999
 20
3.459284999999999
 10
-3.273546
 20
3.552902999999999
 10
-3.262178
 20
3.643996
 10
-3.251208999999999
 20
3.728748
  0
LWPOLYLINE
  5
DAD
330
1E
100
AcDbEntity
  8
LAYER_1
  6
Continuous
 62
     7
100
AcDbPolyline
 90
        5
 70
     0
 43
0.0
 10
-3.251208999999999
 20
3.728748
 10
-3.233572
 20
3.854937999999999
 10
-3.217063
 20
3.957223999999999
 10
-3.200410999999999
 20
4.042806999999999
 10
-3.182342999999999
 20
4.118885999999999
  0
LWPOLYLINE
  5
DB4
330
1E
100
AcDbEntity
  8
LAYER_1
  6
Continuous
 62
     7
100
AcDbPolyline
 90
        4
 70
     0
 43
0.0
 10
-3.182342999999999
 20
4.118885999999999
 10
-3.154688999999999
 20
4.214127999999999
 10
-3.124245
 20
4.299183
 10
-3.093004
 20
4.367969
  0
LWPOLYLINE
  5
DBA
330
1E
100
AcDbEntity
  8
LAYER_1
  6
Continuous
 62
     7
100
AcDbPolyline
 90
        4
 70
     0
 43
0.0
 10
-3.093004
 20
4.367969
 10
-3.062748
 20
4.416323999999999
 10
-3.034426999999999
 20
4.447780999999999
 10
-3.008779999999999
 20
4.467802999999999
  0
LWPOLYLINE
  5
DC0
330
1E
100
AcDbEntity
  8
LAYER_1
  6
Continuous
 62
     7
100
AcDbPolyline
 90
        4
 70
     0
 43
0.0
 10
-3.008779999999999
 20
4.467802999999999
 10
-2.985740999999999
 20
4.481122
 10
-2.962018999999999
 20
4.489549
 10
-2.933516
 20
4.494164999999999
  0
LWPOLYLINE
  5
DC6
330
1E
100
AcDbEntity
  8
LAYER_1
  6
Continuous
 62
     7
100
AcDbPolyline
 90
        4
 70
     0
 43
0.0
 10
-2.933516
 20
4.494164999999999
 10
-2.898161999999999
 20
4.496049
 10
-2.861952999999999
 20
4.49622
 10
-2.832912999999999
 20
4.495705
  0
LWPOLYLINE
  5
DCC
330
1E
100
AcDbEntity
  8
LAYER_1
  6
Continuous
 62
     7
100
AcDbPolyline
 90
        4
 70
     0
 43
0.0
 10
-2.832912999999999
 20
4.495705
 10
-2.816874999999999
 20
4.495344999999999
 10
-2.810966
 20
4.495212
 10
-2.810122
 20
4.495193
  0
LWPOLYLINE
  5
DD2
330
1E
100
AcDbEntity
  8
LAYER_1
  6
DASHED
 62
     7
100
AcDbPolyline
 90
        2
 70
     0
 43
0.0
 10
3.537345999999999
 20
-5.126751999999999
 10
-0.591358
 20
-5.126751999999999
  0
LWPOLYLINE
  5
DD6
330
1E
100
AcDbEntity
  8
LAYER_1
  6
DASHED
 62
     7
100
AcDbPolyline
 90
        2
 70
     0
 43
0.0
 10
-3.338503999999999
 20
2.997622
 10
-2.558231999999999
 20
2.997622
  0
LWPOLYLINE
  5
DDA
330
1E
100
AcDbEntity
  8
LAYER_1
  6
DASHED
 62
     7
100
AcDbPolyline
 90
        2
 70
     0
 43
0.0
 10
1.211873999999999
 20
1.688027999999999
 10
-0.090638
 20
0.360929
  0
TEXT
  5
DDE
330
1E
100
AcDbEntity
  8
LAYER_1
 62
     7
100
AcDbText
 10
1.409456999999999
 20
3.949609999999999
 30
0.0
 40
0.099938
  1
+3 float
 50
90.0
 41
0.6157936898979553
  7
SN1
 72
     5
 11
1.409456999999999
 21
4.351092999999999
 31
0.0
100
AcDbText
  0
LWPOLYLINE
  5
DDF
330
1E
100
AcDbEntity
  8
LAYER_1
  6
Continuous
 62
     7
100
AcDbPolyline
 90
        3
 70
     0
 43
0.0
 10
-3.495173
 20
-3.878176999999999
 10
-3.462920999999999
 20
0.057764
 10
-3.338508
 20
2.996083
  0
LWPOLYLINE
  5
DE4
330
1E
100
AcDbEntity
  8
LAYER_1
  6
DASHED
 62
     7
100
AcDbPolyline
 90
        2
 70
     0
 43
0.0
 10
-3.499708999999999
 20
-3.875346
 10
-3.499708999999999
 20
4.762999999999999
  0
TEXT
  5
DE8
330
1E
100
AcDbEntity
  8
LAYER_1
 62
     7
100
AcDbText
 10
1.485
 20
-4.946752
 30
0.0
 40
0.099938
  1
x=0.25in
 50
90.0
 41
0.6996370843448129
  7
SN0
 72
     5
 11
1.485
 21
-4.483945999999999
 31
0.0
100
AcDbText
  0
TEXT
  5
DE9
330
1E
100
AcDbEntity
  8
LAYER_1
 62
     7
100
AcDbText
 10
1.606649999999999
 20
-4.946752
 30
0.0
 40
0.099938
  1
y=31.5in
 50
90.0
 41
0.7098507644082405
  7
SN0
 72
     5
 11
1.606649999999999
 21
-4.483945999999999
 31
0.0
100
AcDbText
  0
TEXT
  5
DEA
330
1E
100
AcDbEntity
  8
LAYER_1
 62
     7
100
AcDbText
 10
1.728302999999999
 20
-4.946752
 30
0.0
 40
0.099938
  1
c=8.75in
 50
90.0
 41
0.6996370843448125
  7
SN0
 72
     5
 11
1.728302999999999
 21
-4.483945999999999
 31
0.0
100
AcDbText
  0
TEXT
  5
DEB
330
1E
100
AcDbEntity
  8
LAYER_1
 62
     7
100
AcDbText
 10
1.849957
 20
-4.946752
 30
0.0
 40
0.099938
  1
AG41d
 50
90.0
 41
0.8197702162969912
  7
SN0
 72
     5
 11
1.849957
 21
-4.568330999999999
 31
0.0
100
AcDbText
  0
TEXT
  5
DEC
330
1E
100
AcDbEntity
  8
LAYER_1
 62
     7
100
AcDbText
 10
1.971606
 20
-4.946752
 30
0.0
 40
0.099938
  1
0 deg
 50
90.0
 41
0.6724058389885953
  7
SN0
 72
     5
 11
1.971606
 21
-4.642756999999999
 31
0.0
100
AcDbText
  0
TEXT
  5
DED
330
1E
100
AcDbEntity
  8
LAYER_1
 62
     7
100
AcDbText
 10
-0.02639
 20
-4.356940999999999
 30
0.0
 40
0.099938
  1
x=1.25in
 50
90.0
 41
0.6996370843448119
  7
SN0
 72
     5
 11
-0.02639
 21
-3.894134999999999
 31
0.0
100
AcDbText
  0
TEXT
  5
DEE
330
1E
100
AcDbEntity
  8
LAYER_1
 62
     7
100
AcDbText
 10
0.09526
 20
-4.356940999999999
 30
0.0
 40
0.099938
  1
y=55in
 50
90.0
 41
0.7169189236949559
  7
SN0
 72
     5
 11
0.09526
 21
-3.995291999999999
 31
0.0
100
AcDbText
  0
TEXT
  5
DEF
330
1E
100
AcDbEntity
  8
LAYER_1
 62
     7
100
AcDbText
 10
0.216913
 20
-4.356940999999999
 30
0.0
 40
0.099938
  1
c=6.25in
 50
90.0
 41
0.699637084344812
  7
SN0
 72
     5
 11
0.216913
 21
-3.894134999999999
 31
0.0
100
AcDbText
  0
TEXT
  5
DF0
330
1E
100
AcDbEntity
  8
LAYER_1
 62
     7
100
AcDbText
 10
0.338567
 20
-4.356940999999999
 30
0.0
 40
0.099938
  1
AG42d
 50
90.0
 41
0.8197702162969912
  7
SN0
 72
     5
 11
0.338567
 21
-3.978519999999999
 31
0.0
100
AcDbText
  0
TEXT
  5
DF1
330
1E
100
AcDbEntity
  8
LAYER_1
 62
     7
100
AcDbText
 10
0.460217
 20
-4.356940999999999
 30
0.0
 40
0.099938
  1
-0.5 deg
 50
90.0
 41
0.6199678237593403
  7
SN0
 72
     5
 11
0.460217
 21
-3.911430999999999
 31
0.0
100
AcDbText
  0
TEXT
  5
DF2
330
1E
100
AcDbEntity
  8
LAYER_1
 62
     7
100
AcDbText
 10
-0.548291
 20
-2.935038999999999
 30
0.0
 40
0.099938
  1
x=2.6875in
 50
90.0
 41
0.7020358767687365
  7
SN0
 72
     5
 11
-0.548291
 21
-2.337007999999999
 31
0.0
100
AcDbText
  0
TEXT
  5
DF3
330
1E
100
AcDbEntity
  8
LAYER_1
 62
     7
100
AcDbText
 10
-0.426638
 20
-2.935038999999999
 30
0.0
 40
0.099938
  1
y=67in
 50
90.0
 41
0.7169189236949542
  7
SN0
 72
     5
 11
-0.426638
 21
-2.57339
 31
0.0
100
AcDbText
  0
TEXT
  5
DF4
330
1E
100
AcDbEntity
  8
LAYER_1
 62
     7
100
AcDbText
 10
-0.304984
 20
-2.935038999999999
 30
0.0
 40
0.099938
  1
c=3.75in
 50
90.0
 41
0.6996370843448112
  7
SN0
 72
     5
 11
-0.304984
 21
-2.472233
 31
0.0
100
AcDbText
  0
TEXT
  5
DF5
330
1E
100
AcDbEntity
  8
LAYER_1
 62
     7
100
AcDbText
 10
-0.183335
 20
-2.935038999999999
 30
0.0
 40
0.099938
  1
AG43d 
 50
90.0
 41
0.7095600091728996
  7
SN0
 72
     5
 11
-0.183335
 21
-2.523074
 31
0.0
100
AcDbText
  0
TEXT
  5
DF6
330
1E
100
AcDbEntity
  8
LAYER_1
 62
     7
100
AcDbText
 10
-0.061681
 20
-2.935038999999999
 30
0.0
 40
0.099938
  1
-0.5 deg
 50
90.0
 41
0.6199664321680767
  7
SN0
 72
     5
 11
-0.061681
 21
-2.489529999999999
 31
0.0
100
AcDbText
  0
LWPOLYLINE
  5
DF7
330
1E
100
AcDbEntity
  8
LAYER_1
  6
DASHED
 62
     7
100
AcDbPolyline
 90
        2
 70
     0
 43
0.0
 10
3.260094
 20
2.188149999999999
 10
2.183386
 20
1.681275999999999
  0
LWPOLYLINE
  5
DFB
330
1E
100
AcDbEntity
  8
LAYER_1
  6
Continuous
 62
     7
100
AcDbPolyline
 90
        3
 70
     0
 43
0.0
 10
-2.580499999999999
 20
-3.876665
 10
-2.645791
 20
0.057748
 10
-2.810138
 20
4.495193
  0
TEXT
  5
E00
330
1E
100
AcDbEntity
  8
LAYER_1
 62
     7
100
AcDbText
 10
-3.247440999999999
 20
-4.593543
 30
0.0
 40
0.11243
  1
b = 3.40 m  (134 in)
 41
0.567405869078228
  7
SN0
 72
     5
 11
-2.071819
 21
-4.593543
 31
0.0
100
AcDbText
  0
TEXT
  5
E01
330
1E
100
AcDbEntity
  8
LAYER_1
 62
     7
100
AcDbText
 10
-3.247440999999999
 20
-4.728708999999999
 30
0.0
 40
0.11243
  1
S = 0.678 dmò (1051 inò)
 41
0.6660887080696952
  7
SN0
 72
     5
 11
-1.592764999999999
 21
-4.728708999999999
 31
0.0
100
AcDbText
  0
TEXT
  5
E02
330
1E
100
AcDbEntity
  8
LAYER_1
 62
     7
100
AcDbText
 10
-3.247440999999999
 20
-4.863877999999999
 30
0.0
 40
0.11243
  1
AR = 17.06
 41
0.6511500489193272
  7
SN0
 72
     5
 11
-2.567645
 21
-4.863877999999999
 31
0.0
100
AcDbText
  0
LWPOLYLINE
  5
E03
330
1E
100
AcDbEntity
  8
LAYER_1
  6
Continuous
 62
     7
100
AcDbPolyline
 90
        2
 70
     0
 43
0.0
 10
4.004291
 20
-5.118488
 10
4.004291
 20
4.883802999999999
  0
LWPOLYLINE
  5
E07
330
1E
100
AcDbEntity
  8
LAYER_1
  6
Continuous
 62
     7
100
AcDbPolyline
 90
        2
 70
     0
 43
0.0
 10
4.004291
 20
-5.107898
 10
4.114873999999999
 20
-5.107898
  0
LWPOLYLINE
  5
E0B
330
1E
100
AcDbEntity
  8
LAYER_1
  6
Continuous
 62
     7
100
AcDbPolyline
 90
        2
 70
     0
 43
0.0
 10
4.004291
 20
-4.112582999999999
 10
4.114873999999999
 20
-4.112582999999999
  0
LWPOLYLINE
  5
E0F
330
1E
100
AcDbEntity
  8
LAYER_1
  6
Continuous
 62
     7
100
AcDbPolyline
 90
        2
 70
     0
 43
0.0
 10
4.004291
 20
-3.117275999999999
 10
4.114873999999999
 20
-3.117275999999999
  0
LWPOLYLINE
  5
E13
330
1E
100
AcDbEntity
  8
LAYER_1
  6
Continuous
 62
     7
100
AcDbPolyline
 90
        2
 70
     0
 43
0.0
 10
4.004291
 20
-2.109665
 10
4.114873999999999
 20
-2.109665
  0
LWPOLYLINE
  5
E17
330
1E
100
AcDbEntity
  8
LAYER_1
  6
Continuous
 62
     7
100
AcDbPolyline
 90
        2
 70
     0
 43
0.0
 10
4.004291
 20
-1.114357999999999
 10
4.114873999999999
 20
-1.114357999999999
  0
LWPOLYLINE
  5
E1B
330
1E
100
AcDbEntity
  8
LAYER_1
  6
Continuous
 62
     7
100
AcDbPolyline
 90
        2
 70
     0
 43
0.0
 10
4.004291
 20
-0.119039
 10
4.114873999999999
 20
-0.119039
  0
LWPOLYLINE
  5
E1F
330
1E
100
AcDbEntity
  8
LAYER_1
  6
Continuous
 62
     7
100
AcDbPolyline
 90
        2
 70
     0
 43
0.0
 10
4.004291
 20
0.8885669999999999
 10
4.114873999999999
 20
0.8885669999999999
  0
LWPOLYLINE
  5
E23
330
1E
100
AcDbEntity
  8
LAYER_1
  6
Continuous
 62
     7
100
AcDbPolyline
 90
        2
 70
     0
 43
0.0
 10
4.004291
 20
1.883874
 10
4.114873999999999
 20
1.883874
  0
LWPOLYLINE
  5
E27
330
1E
100
AcDbEntity
  8
LAYER_1
  6
Continuous
 62
     7
100
AcDbPolyline
 90
        2
 70
     0
 43
0.0
 10
4.004291
 20
2.891468999999999
 10
4.114873999999999
 20
2.891468999999999
  0
LWPOLYLINE
  5
E2B
330
1E
100
AcDbEntity
  8
LAYER_1
  6
Continuous
 62
     7
100
AcDbPolyline
 90
        2
 70
     0
 43
0.0
 10
4.004291
 20
3.886791
 10
4.114873999999999
 20
3.886791
  0
LWPOLYLINE
  5
E2F
330
1E
100
AcDbEntity
  8
LAYER_1
  6
Continuous
 62
     7
100
AcDbPolyline
 90
        2
 70
     0
 43
0.0
 10
4.004291
 20
4.882109999999999
 10
4.114873999999999
 20
4.882109999999999
  0
LWPOLYLINE
  5
E33
330
1E
100
AcDbEntity
  8
LAYER_1
  6
Continuous
 62
     7
100
AcDbPolyline
 90
        4
 70
     0
 43
0.0
 10
3.875693
 20
-2.288968999999999
 10
2.870232
 20
-2.324083
 10
2.876886
 20
-2.514676999999999
 10
3.882346
 20
-2.479566999999999
  0
LWPOLYLINE
  5
E39
330
1E
100
AcDbEntity
  8
LAYER_1
  6
Continuous
 62
     7
100
AcDbPolyline
 90
        4
 70
     1
 43
0.0
 10
2.698748
 20
-2.575763999999999
 10
2.688457
 20
-2.281038999999999
 10
2.865291
 20
-2.274874
 10
2.875583
 20
-2.569593999999999
  0
LWPOLYLINE
  5
E3F
330
1E
100
AcDbEntity
  8
LAYER_1
  6
Continuous
 62
     7
100
AcDbPolyline
 90
        7
 70
     0
 43
0.0
 10
-3.051213
 20
-3.87765
 10
-3.051213
 20
-3.840012
 10
-3.171790999999999
 20
-3.840012
 10
-3.190991999999999
 20
-3.843846
 10
-3.203279999999999
 20
-3.852303
 10
-3.210957
 20
-3.863819
 10
-3.212491999999999
 20
-3.879176999999999
  0
TEXT
  5
E48
330
1E
100
AcDbEntity
  8
LAYER_1
 62
     7
100
AcDbText
 10
-3.256661
 20
-4.404164999999999
 30
0.0
 40
0.142699
  1
Supra F3J/TD Wing
 41
0.6870270807740831
  7
SN2
 72
     5
 11
-1.748741999999999
 21
-4.404164999999999
 31
0.0
100
AcDbText
  0
LWPOLYLINE
  5
E49
330
1E
100
AcDbEntity
  8
LAYER_1
  6
Continuous
 62
     7
100
AcDbPolyline
 90
        9
 70
     0
 43
0.0
 10
3.256038999999999
 20
2.198083
 10
3.159027999999999
 20
2.717264
 10
3.053275999999999
 20
3.316983999999999
 10
2.951038999999999
 20
3.920055
 10
2.840149999999999
 20
4.595483999999999
 10
2.832193
 20
4.594083
 10
2.870983999999999
 20
3.481845999999999
 10
2.896874
 20
2.822886
 10
2.925121999999999
 20
2.243704999999999
  0
LWPOLYLINE
  5
E54
330
1E
100
AcDbEntity
  8
LAYER_1
  6
Continuous
 62
     7
100
AcDbPolyline
 90
        9
 70
     0
 43
0.0
 10
3.258969
 20
2.197176999999999
 10
3.660083
 20
2.540775999999999
 10
4.126583
 20
2.93222
 10
4.597731999999999
 20
3.322291
 10
5.127219999999999
 20
3.756027999999999
 10
5.122028
 20
3.762219999999999
 10
4.178193
 20
3.172511999999999
 10
3.620483999999999
 20
2.820622
 10
3.133039
 20
2.506566999999999
  0
TEXT
  5
E5F
330
1E
100
AcDbEntity
  8
LAYER_1
 62
     7
100
AcDbText
 10
3.880512
 20
2.560122
 30
0.0
 40
0.099938
  1
+50 brake
 50
90.0
 41
0.6563817842924684
  7
SN1
 72
     5
 11
3.880512
 21
3.103644
 31
0.0
100
AcDbText
  0
LWPOLYLINE
  5
E60
330
1E
100
AcDbEntity
  8
LAYER_1
  6
Continuous
 62
     7
100
AcDbPolyline
 90
        4
 70
     0
 43
0.0
 10
-2.645538999999999
 20
0.080803
 10
-2.522247999999999
 20
0.102539
 10
-2.519968999999999
 20
0.089555
 10
-2.643247999999999
 20
0.067819
  0
LWPOLYLINE
  5
E66
330
1E
100
AcDbEntity
  8
LAYER_1
  6
Continuous
 62
     7
100
AcDbPolyline
 90
        4
 70
     1
 43
0.0
 10
-3.035224
 20
-0.202677
 10
-2.916177
 20
-0.102791
 10
-2.820555
 20
-0.216764
 10
-2.939598
 20
-0.31665
  0
LWPOLYLINE
  5
E6C
330
1E
100
AcDbEntity
  8
LAYER_1
  6
Continuous
 62
     7
100
AcDbPolyline
 90
        4
 70
     1
 43
0.0
 10
-2.903965
 20
-0.080539
 10
-2.895897999999999
 20
-0.073764
 10
-2.833956999999999
 20
-0.147594
 10
-2.842012
 20
-0.154358
  0
LWPOLYLINE
  5
E72
330
1E
100
AcDbEntity
  8
LAYER_1
  6
Continuous
 62
     7
100
AcDbPolyline
 90
        4
 70
     1
 43
0.0
 10
-2.889295
 20
-0.109941
 10
-2.876586999999999
 20
-0.099276
 10
-2.855484
 20
-0.124429
 10
-2.868189
 20
-0.135094
  0
LWPOLYLINE
  5
E78
330
1E
100
AcDbEntity
  8
LAYER_1
  6
Continuous
 62
     7
100
AcDbPolyline
 90
        2
 70
     0
 43
0.0
 10
-2.879507999999999
 20
-0.075469
 10
-2.904925
 20
-0.096803
  0
LWPOLYLINE
  5
E7C
330
1E
100
AcDbEntity
  8
LAYER_1
  6
Continuous
 62
     7
100
AcDbPolyline
 90
        4
 70
     0
 43
0.0
 10
-2.872345999999999
 20
-0.101583
 10
-2.866783
 20
-0.096929
 10
-2.851231999999999
 20
-0.115457
 10
-2.856527999999999
 20
-0.119902
  0
LWPOLYLINE
  5
E82
330
1E
100
AcDbEntity
  8
LAYER_1
  6
Continuous
 62
     7
100
AcDbPolyline
 90
        2
 70
     0
 43
0.0
 10
-2.84111
 20
-0.090693
 10
-2.979831
 20
-0.20711
  0
LWPOLYLINE
  5
E86
330
1E
100
AcDbEntity
  8
LAYER_1
  6
Continuous
 62
     7
100
AcDbPolyline
 90
        4
 70
     1
 43
0.0
 10
-2.863684999999999
 20
-0.096457
 10
-2.664874
 20
0.070374
 10
-2.651845999999999
 20
0.054831
 10
-2.850649999999999
 20
-0.111984
  0
SOLID
  5
E8C
330
1E
100
AcDbEntity
  8
LAYER_1
  6
Continuous
 62
     7
100
AcDbTrace
 10
0.006594
 20
-1.798066999999999
 30
0.0
 11
0.009067
 21
-1.559873999999999
 31
0.0
 12
0.019165
 22
-1.798149999999999
 32
0.0
 13
0.021638
 23
-1.559956999999999
 33
0.0
  0
LWPOLYLINE
  5
E8D
330
1E
100
AcDbEntity
  8
LAYER_1
  6
Continuous
 62
     7
100
AcDbPolyline
 90
        4
 70
     1
 43
0.0
 10
0.006594
 20
-1.798066999999999
 10
0.009067
 20
-1.559873999999999
 10
0.021638
 20
-1.559956999999999
 10
0.019165
 20
-1.798149999999999
  0
LWPOLYLINE
  5
E93
330
1E
100
AcDbEntity
  8
LAYER_1
  6
Continuous
 62
     7
100
AcDbPolyline
 90
        4
 70
     1
 43
0.0
 10
0.006594
 20
-1.798066999999999
 10
0.009067
 20
-1.559873999999999
 10
0.021638
 20
-1.559956999999999
 10
0.019165
 20
-1.798149999999999
  0
LWPOLYLINE
  5
E99
330
1E
100
AcDbEntity
  8
LAYER_1
  6
Continuous
 62
     7
100
AcDbPolyline
 90
        4
 70
     0
 43
0.0
 10
-3.111886
 20
0.057539
 10
-3.074256
 20
4.349831
 10
-3.050448999999999
 20
4.395137999999999
 10
-3.050448999999999
 20
0.057539
  0
LWPOLYLINE
  5
E9F
330
1E
100
AcDbEntity
  8
LAYER_1
  6
Continuous
 62
     7
100
AcDbPolyline
 90
       14
 70
     0
 43
0.0
 10
-1.949913
 20
-3.87515
 10
-1.949913
 20
0.6221930000000001
 10
-1.961705
 20
0.6221930000000001
 10
-1.961705
 20
-0.127374
 10
-1.973511999999999
 20
-0.127374
 10
-1.973511999999999
 20
-0.8769290000000001
 10
-1.986775999999999
 20
-0.8769290000000001
 10
-1.986775999999999
 20
-1.626484
 10
-1.998583
 20
-1.626484
 10
-1.998583
 20
-2.376039
 10
-2.010374
 20
-2.376039
 10
-2.010374
 20
-3.125593999999999
 10
-2.022165
 20
-3.125593999999999
 10
-2.022165
 20
-3.87515
  0
LWPOLYLINE
  5
EAF
330
1E
100
AcDbEntity
  8
LAYER_1
  6
Continuous
 62
     7
100
AcDbPolyline
 90
       14
 70
     0
 43
0.0
 10
-1.800192999999999
 20
0.081528
 10
-1.800192999999999
 20
4.578873999999999
 10
-1.806093999999999
 20
4.578873999999999
 10
-1.806093999999999
 20
3.829302999999999
 10
-1.811983999999999
 20
3.829302999999999
 10
-1.811983999999999
 20
3.079747999999999
 10
-1.818622
 20
3.079747999999999
 10
-1.818622
 20
2.330192999999999
 10
-1.824527999999999
 20
2.330192999999999
 10
-1.824527999999999
 20
1.580637999999999
 10
-1.830413
 20
1.580637999999999
 10
-1.830413
 20
0.8310829999999999
 10
-1.836318999999999
 20
0.8310829999999999
 10
-1.836318999999999
 20
0.081528
  0
LWPOLYLINE
  5
EBF
330
1E
100
AcDbEntity
  8
LAYER_1
  6
Continuous
 62
     7
100
AcDbPolyline
 90
        4
 70
     1
 43
0.0
 10
-3.108389999999999
 20
-0.249665
 10
-3.052408999999999
 20
-0.249665
 10
-3.052408999999999
 20
0.372409
 10
-3.108389999999999
 20
0.372409
  0
SOLID
  5
EC5
330
1E
100
AcDbEntity
  8
LAYER_1
  6
Continuous
 62
     7
100
AcDbTrace
 10
2.692622
 20
-2.262290999999999
 30
0.0
 11
2.670802999999999
 21
-1.637528
 31
0.0
 12
2.700593999999999
 22
-2.262011999999999
 32
0.0
 13
2.678790999999999
 23
-1.637248
 33
0.0
  0
LWPOLYLINE
  5
EC6
330
1E
100
AcDbEntity
  8
LAYER_1
  6
Continuous
 62
     7
100
AcDbPolyline
 90
        4
 70
     1
 43
0.0
 10
2.692622
 20
-2.262290999999999
 10
2.670802999999999
 20
-1.637528
 10
2.678790999999999
 20
-1.637248
 10
2.700593999999999
 20
-2.262011999999999
  0
LWPOLYLINE
  5
ECC
330
1E
100
AcDbEntity
  8
LAYER_1
  6
Continuous
 62
     7
100
AcDbPolyline
 90
        4
 70
     1
 43
0.0
 10
2.692622
 20
-2.262290999999999
 10
2.670802999999999
 20
-1.637528
 10
2.678790999999999
 20
-1.637248
 10
2.700593999999999
 20
-2.262011999999999
  0
SOLID
  5
ED2
330
1E
100
AcDbEntity
  8
LAYER_1
  6
Continuous
 62
     7
100
AcDbTrace
 10
2.684275999999999
 20
-2.261609999999999
 30
0.0
 11
2.669039
 21
-1.825083
 31
0.0
 12
2.692263999999999
 22
-2.261331
 32
0.0
 13
2.677011999999999
 23
-1.824802999999999
 33
0.0
  0
LWPOLYLINE
  5
ED3
330
1E
100
AcDbEntity
  8
LAYER_1
  6
Continuous
 62
     7
100
AcDbPolyline
 90
        4
 70
     1
 43
0.0
 10
2.684275999999999
 20
-2.261609999999999
 10
2.669039
 20
-1.825083
 10
2.677011999999999
 20
-1.824802999999999
 10
2.692263999999999
 20
-2.261331
  0
LWPOLYLINE
  5
ED9
330
1E
100
AcDbEntity
  8
LAYER_1
  6
Continuous
 62
     7
100
AcDbPolyline
 90
        4
 70
     1
 43
0.0
 10
2.684275999999999
 20
-2.261609999999999
 10
2.669039
 20
-1.825083
 10
2.677011999999999
 20
-1.824802999999999
 10
2.692263999999999
 20
-2.261331
  0
SOLID
  5
EDF
330
1E
100
AcDbEntity
  8
LAYER_1
  6
Continuous
 62
     7
100
AcDbTrace
 10
2.676083
 20
-2.262413
 30
0.0
 11
2.667402
 21
-2.013732
 31
0.0
 12
2.684054999999999
 22
-2.262122
 32
0.0
 13
2.675374
 23
-2.013456999999999
 33
0.0
  0
LWPOLYLINE
  5
EE0
330
1E
100
AcDbEntity
  8
LAYER_1
  6
Continuous
 62
     7
100
AcDbPolyline
 90
        4
 70
     1
 43
0.0
 10
2.676083
 20
-2.262413
 10
2.667402
 20
-2.013732
 10
2.675374
 20
-2.013456999999999
 10
2.684054999999999
 20
-2.262122
  0
LWPOLYLINE
  5
EE6
330
1E
100
AcDbEntity
  8
LAYER_1
  6
Continuous
 62
     7
100
AcDbPolyline
 90
        4
 70
     1
 43
0.0
 10
2.676083
 20
-2.262413
 10
2.667402
 20
-2.013732
 10
2.675374
 20
-2.013456999999999
 10
2.684054999999999
 20
-2.262122
  0
SOLID
  5
EEC
330
1E
100
AcDbEntity
  8
LAYER_1
  6
Continuous
 62
     7
100
AcDbTrace
 10
1.706527999999999
 20
-2.279193
 30
0.0
 11
1.684704999999999
 21
-1.654429
 31
0.0
 12
1.714496
 22
-2.278901999999999
 32
0.0
 13
1.692676999999999
 23
-1.654138
 33
0.0
  0
LWPOLYLINE
  5
EED
330
1E
100
AcDbEntity
  8
LAYER_1
  6
Continuous
 62
     7
100
AcDbPolyline
 90
        4
 70
     1
 43
0.0
 10
1.706527999999999
 20
-2.279193
 10
1.684704999999999
 20
-1.654429
 10
1.692676999999999
 20
-1.654138
 10
1.714496
 20
-2.278901999999999
  0
LWPOLYLINE
  5
EF3
330
1E
100
AcDbEntity
  8
LAYER_1
  6
Continuous
 62
     7
100
AcDbPolyline
 90
        4
 70
     1
 43
0.0
 10
1.706527999999999
 20
-2.279193
 10
1.684704999999999
 20
-1.654429
 10
1.692676999999999
 20
-1.654138
 10
1.714496
 20
-2.278901999999999
  0
SOLID
  5
EF9
330
1E
100
AcDbEntity
  8
LAYER_1
  6
Continuous
 62
     7
100
AcDbTrace
 10
1.698177
 20
-2.278512
 30
0.0
 11
1.682929
 21
-1.841984
 31
0.0
 12
1.706165
 22
-2.27822
 32
0.0
 13
1.690913
 23
-1.841693
 33
0.0
  0
LWPOLYLINE
  5
EFA
330
1E
100
AcDbEntity
  8
LAYER_1
  6
Continuous
 62
     7
100
AcDbPolyline
 90
        4
 70
     1
 43
0.0
 10
1.698177
 20
-2.278512
 10
1.682929
 20
-1.841984
 10
1.690913
 20
-1.841693
 10
1.706165
 20
-2.27822
  0
LWPOLYLINE
  5
F00
330
1E
100
AcDbEntity
  8
LAYER_1
  6
Continuous
 62
     7
100
AcDbPolyline
 90
        4
 70
     1
 43
0.0
 10
1.698177
 20
-2.278512
 10
1.682929
 20
-1.841984
 10
1.690913
 20
-1.841693
 10
1.706165
 20
-2.27822
  0
SOLID
  5
F06
330
1E
100
AcDbEntity
  8
LAYER_1
  6
Continuous
 62
     7
100
AcDbTrace
 10
1.689983999999999
 20
-2.279303
 30
0.0
 11
1.681302999999999
 21
-2.030622
 31
0.0
 12
1.697956999999999
 22
-2.279027999999999
 32
0.0
 13
1.689275999999999
 23
-2.030345999999999
 33
0.0
  0
LWPOLYLINE
  5
F07
330
1E
100
AcDbEntity
  8
LAYER_1
  6
Continuous
 62
     7
100
AcDbPolyline
 90
        4
 70
     1
 43
0.0
 10
1.689983999999999
 20
-2.279303
 10
1.681302999999999
 20
-2.030622
 10
1.689275999999999
 20
-2.030345999999999
 10
1.697956999999999
 20
-2.279027999999999
  0
LWPOLYLINE
  5
F0D
330
1E
100
AcDbEntity
  8
LAYER_1
  6
Continuous
 62
     7
100
AcDbPolyline
 90
        4
 70
     1
 43
0.0
 10
1.689983999999999
 20
-2.279303
 10
1.681302999999999
 20
-2.030622
 10
1.689275999999999
 20
-2.030345999999999
 10
1.697956999999999
 20
-2.279027999999999
  0
TEXT
  5
F13
330
1E
100
AcDbEntity
  8
LAYER_1
 62
     7
100
AcDbText
 10
2.132204999999999
 20
-1.092902
 30
0.0
 40
0.11243
  1
endgrain basswood
 50
90.0
 41
0.6958893884999084
  7
SN1
 72
     5
 11
2.132204999999999
 21
0.076955
 31
0.0
100
AcDbText
  0
TEXT
  5
F14
330
1E
100
AcDbEntity
  8
LAYER_1
 62
     7
100
AcDbText
 10
1.600755999999999
 20
-1.203492
 30
0.0
 40
0.11243
  1
tubes: 3 layers 5.6 oz bias kevlar
 50
90.0
 41
0.6269839344860465
  7
SN1
 72
     5
 11
1.600755999999999
 21
0.763565
 31
0.0
100
AcDbText
  0
SOLID
  5
F15
330
1E
100
AcDbEntity
  8
LAYER_1
  6
Continuous
 62
     7
100
AcDbTrace
 10
1.715318999999999
 20
-2.279263999999999
 30
0.0
 11
1.69015
 21
-1.533441
 31
0.0
 12
1.742358
 22
-2.278302999999999
 32
0.0
 13
1.717176999999999
 23
-1.532484
 33
0.0
  0
LWPOLYLINE
  5
F16
330
1E
100
AcDbEntity
  8
LAYER_1
  6
Continuous
 62
     7
100
AcDbPolyline
 90
        4
 70
     1
 43
0.0
 10
1.715318999999999
 20
-2.279263999999999
 10
1.69015
 20
-1.533441
 10
1.717176999999999
 20
-1.532484
 10
1.742358
 20
-2.278302999999999
  0
LWPOLYLINE
  5
F1C
330
1E
100
AcDbEntity
  8
LAYER_1
  6
Continuous
 62
     7
100
AcDbPolyline
 90
        4
 70
     1
 43
0.0
 10
1.715318999999999
 20
-2.279263999999999
 10
1.69015
 20
-1.533441
 10
1.717176999999999
 20
-1.532484
 10
1.742358
 20
-2.278302999999999
  0
SOLID
  5
F22
330
1E
100
AcDbEntity
  8
LAYER_1
  6
Continuous
 62
     7
100
AcDbTrace
 10
0.7142910000000001
 20
-2.017374
 30
0.0
 11
0.718413
 21
-1.544763999999999
 31
0.0
 12
0.756528
 22
-2.017732
 32
0.0
 13
0.7606500000000001
 23
-1.545121999999999
 33
0.0
  0
LWPOLYLINE
  5
F23
330
1E
100
AcDbEntity
  8
LAYER_1
  6
Continuous
 62
     7
100
AcDbPolyline
 90
        4
 70
     1
 43
0.0
 10
0.7142910000000001
 20
-2.017374
 10
0.718413
 20
-1.544763999999999
 10
0.7606500000000001
 20
-1.545121999999999
 10
0.756528
 20
-2.017732
  0
LWPOLYLINE
  5
F29
330
1E
100
AcDbEntity
  8
LAYER_1
  6
Continuous
 62
     7
100
AcDbPolyline
 90
        4
 70
     1
 43
0.0
 10
0.7142910000000001
 20
-2.017374
 10
0.718413
 20
-1.544763999999999
 10
0.7606500000000001
 20
-1.545121999999999
 10
0.756528
 20
-2.017732
  0
TEXT
  5
F2F
330
1E
100
AcDbEntity
  8
LAYER_1
 62
     7
100
AcDbText
 10
-3.200247999999999
 20
1.387440999999999
 30
0.0
 40
0.11243
  1
1.7 oz Kevlar
 50
90.0
 41
0.6486303176014367
  7
SN1
 72
     5
 11
-3.200247999999999
 21
2.175731
 31
0.0
100
AcDbText
  0
LWPOLYLINE
  5
F30
330
1E
100
AcDbEntity
  8
LAYER_1
  6
Continuous
 62
     7
100
AcDbPolyline
 90
        2
 70
     0
 43
0.0
 10
-2.920889999999999
 20
1.235011999999999
 10
-2.858468999999999
 20
1.172594
  0
LWPOLYLINE
  5
F34
330
1E
100
AcDbEntity
  8
LAYER_1
  6
Continuous
 62
     7
100
AcDbPolyline
 90
        2
 70
     0
 43
0.0
 10
-2.905197
 20
1.250704999999999
 10
-2.842775999999999
 20
1.188290999999999
  0
LWPOLYLINE
  5
F38
330
1E
100
AcDbEntity
  8
LAYER_1
  6
Continuous
 62
     7
100
AcDbPolyline
 90
        2
 70
     0
 43
0.0
 10
-2.889676999999999
 20
1.26622
 10
-2.827263999999999
 20
1.203802999999999
  0
LWPOLYLINE
  5
F3C
330
1E
100
AcDbEntity
  8
LAYER_1
  6
Continuous
 62
     7
100
AcDbPolyline
 90
        2
 70
     0
 43
0.0
 10
-2.874160999999999
 20
1.281747999999999
 10
-2.811748
 20
1.219319
  0
LWPOLYLINE
  5
F40
330
1E
100
AcDbEntity
  8
LAYER_1
  6
Continuous
 62
     7
100
AcDbPolyline
 90
        2
 70
     0
 43
0.0
 10
-2.920889999999999
 20
1.2195
 10
-2.858468999999999
 20
1.281912999999999
  0
LWPOLYLINE
  5
F44
330
1E
100
AcDbEntity
  8
LAYER_1
  6
Continuous
 62
     7
100
AcDbPolyline
 90
        2
 70
     0
 43
0.0
 10
-2.905200999999999
 20
1.203802999999999
 10
-2.842775999999999
 20
1.26622
  0
LWPOLYLINE
  5
F48
330
1E
100
AcDbEntity
  8
LAYER_1
  6
Continuous
 62
     7
100
AcDbPolyline
 90
        2
 70
     0
 43
0.0
 10
-2.889685
 20
1.188290999999999
 10
-2.827263999999999
 20
1.250704999999999
  0
LWPOLYLINE
  5
F4C
330
1E
100
AcDbEntity
  8
LAYER_1
  6
Continuous
 62
     7
100
AcDbPolyline
 90
        2
 70
     0
 43
0.0
 10
-2.873988
 20
1.172594
 10
-2.811566999999999
 20
1.235011999999999
  0
TEXT
  5
F50
330
1E
100
AcDbEntity
  8
LAYER_1
 62
     7
100
AcDbText
 10
-3.310839
 20
3.924676999999999
 30
0.0
 40
0.11243
  1
1.0 oz Kevlar
 50
90.0
 41
0.6486303176014367
  7
SN1
 72
     5
 11
-3.310839
 21
4.712966999999999
 31
0.0
100
AcDbText
  0
LWPOLYLINE
  5
F51
330
1E
100
AcDbEntity
  8
LAYER_1
  6
Continuous
 62
     7
100
AcDbPolyline
 90
        4
 70
     0
 43
0.0
 10
-3.367622
 20
3.859083
 10
-3.367698
 20
3.857869
 10
-3.368228999999999
 20
3.849375
 10
-3.369669
 20
3.826319
  0
LWPOLYLINE
  5
F57
330
1E
100
AcDbEntity
  8
LAYER_1
  6
Continuous
 62
     7
100
AcDbPolyline
 90
        4
 70
     0
 43
0.0
 10
-3.369669
 20
3.826319
 10
-3.371337
 20
3.785738999999999
 10
-3.367999999999999
 20
3.741970999999999
 10
-3.353287
 20
3.713676999999999
  0
LWPOLYLINE
  5
F5D
330
1E
100
AcDbEntity
  8
LAYER_1
  6
Continuous
 62
     7
100
AcDbPolyline
 90
        4
 70
     0
 43
0.0
 10
-3.353287
 20
3.713676999999999
 10
-3.323554
 20
3.712686
 10
-3.286083
 20
3.723533999999999
 10
-3.25089
 20
3.723912999999999
  0
LWPOLYLINE
  5
F63
330
1E
100
AcDbEntity
  8
LAYER_1
  6
Continuous
 62
     7
100
AcDbPolyline
 90
        4
 70
     0
 43
0.0
 10
-3.25089
 20
3.723912999999999
 10
-3.225858
 20
3.698199999999999
 10
-3.210383
 20
3.657470999999999
 10
-3.201731999999999
 20
3.619469
  0
LWPOLYLINE
  5
F69
330
1E
100
AcDbEntity
  8
LAYER_1
  6
Continuous
 62
     7
100
AcDbPolyline
 90
        4
 70
     0
 43
0.0
 10
-3.201731999999999
 20
3.619469
 10
-3.197409999999999
 20
3.59785
 10
-3.195818
 20
3.589885999999999
 10
-3.195590999999999
 20
3.588748
  0
LWPOLYLINE
  5
F6F
330
1E
100
AcDbEntity
  8
LAYER_1
  6
Continuous
 62
     7
100
AcDbPolyline
 90
        4
 70
     1
 43
0.0
 10
-2.903232
 20
-3.331055
 10
-2.784177
 20
-3.231149999999999
 10
-2.879811
 20
-3.117192999999999
 10
-2.998858
 20
-3.217083
  0
LWPOLYLINE
  5
F75
330
1E
100
AcDbEntity
  8
LAYER_1
  6
Continuous
 62
     7
100
AcDbPolyline
 90
        4
 70
     1
 43
0.0
 10
-2.760149999999999
 20
-3.222983999999999
 10
-2.752083
 20
-3.216204999999999
 10
-2.814028
 20
-3.142386
 10
-2.822093999999999
 20
-3.14915
  0
LWPOLYLINE
  5
F7B
330
1E
100
AcDbEntity
  8
LAYER_1
  6
Continuous
 62
     7
100
AcDbPolyline
 90
        4
 70
     1
 43
0.0
 10
-2.786566999999999
 20
-3.203441
 10
-2.773858
 20
-3.192775999999999
 10
-2.794969
 20
-3.167622
 10
-2.807665
 20
-3.178291
  0
LWPOLYLINE
  5
F81
330
1E
100
AcDbEntity
  8
LAYER_1
  6
Continuous
 62
     7
100
AcDbPolyline
 90
        2
 70
     0
 43
0.0
 10
-2.750913
 20
-3.199790999999999
 10
-2.776331
 20
-3.221109999999999
  0
LWPOLYLINE
  5
F85
330
1E
100
AcDbEntity
  8
LAYER_1
  6
Continuous
 62
     7
100
AcDbPolyline
 90
        4
 70
     0
 43
0.0
 10
-2.775386
 20
-3.188193
 10
-2.769830999999999
 20
-3.183527999999999
 10
-2.785374
 20
-3.165
 10
-2.790677
 20
-3.169440999999999
  0
LWPOLYLINE
  5
F8B
330
1E
100
AcDbEntity
  8
LAYER_1
  6
Continuous
 62
     7
100
AcDbPolyline
 90
        2
 70
     0
 43
0.0
 10
-2.759247999999999
 20
-3.159318999999999
 10
-2.897968999999999
 20
-3.27572
  0
LWPOLYLINE
  5
F8F
330
1E
100
AcDbEntity
  8
LAYER_1
  6
Continuous
 62
     7
100
AcDbPolyline
 90
        4
 70
     1
 43
0.0
 10
-2.784483999999999
 20
-3.166941
 10
-2.597067
 20
-3.009676999999999
 10
-2.584038999999999
 20
-3.02522
 10
-2.771456999999999
 20
-3.182468999999999
  0
LWPOLYLINE
  5
F95
330
1E
100
AcDbEntity
  8
LAYER_1
  6
Continuous
 62
     7
100
AcDbPolyline
 90
        4
 70
     0
 43
0.0
 10
4.075693
 20
1.716027999999999
 10
3.070231999999999
 20
1.680913
 10
3.076886
 20
1.490318999999999
 10
4.082346
 20
1.525429
  0
LWPOLYLINE
  5
F9B
330
1E
100
AcDbEntity
  8
LAYER_1
  6
Continuous
 62
     7
100
AcDbPolyline
 90
        4
 70
     1
 43
0.0
 10
2.898747999999999
 20
1.429232
 10
2.888456999999999
 20
1.723956999999999
 10
3.065290999999999
 20
1.730138
 10
3.075582999999999
 20
1.435402
  0
LWPOLYLINE
  5
FA1
330
1E
100
AcDbEntity
  8
LAYER_1
  6
Continuous
 62
     7
100
AcDbPolyline
 90
        4
 70
     0
 43
0.0
 10
-2.659469
 20
-3.878109999999999
 10
-2.661073
 20
-3.872194
 10
-2.665284999999999
 20
-3.867987
 10
-2.671205
 20
-3.866385999999999
  0
LWPOLYLINE
  5
FA7
330
1E
100
AcDbEntity
  8
LAYER_1
  6
Continuous
 62
     7
100
AcDbPolyline
 90
        4
 70
     0
 43
0.0
 10
-2.671205
 20
-3.866385999999999
 10
-2.677121
 20
-3.867987
 10
-2.681327999999999
 20
-3.872194
 10
-2.682929
 20
-3.878109999999999
  0
LWPOLYLINE
  5
FAD
330
1E
100
AcDbEntity
  8
LAYER_1
  6
Continuous
 62
     7
100
AcDbPolyline
 90
        4
 70
     0
 43
0.0
 10
-2.682929
 20
-3.878109999999999
 10
-2.681327999999999
 20
-3.884026
 10
-2.677121
 20
-3.88823
 10
-2.671205
 20
-3.889830999999999
  0
LWPOLYLINE
  5
FB3
330
1E
100
AcDbEntity
  8
LAYER_1
  6
Continuous
 62
     7
100
AcDbPolyline
 90
        4
 70
     0
 43
0.0
 10
-2.671205
 20
-3.889830999999999
 10
-2.665284999999999
 20
-3.88823
 10
-2.661073
 20
-3.884026
 10
-2.659469
 20
-3.878109999999999
  0
LWPOLYLINE
  5
FB9
330
1E
100
AcDbEntity
  8
LAYER_1
  6
Continuous
 62
     7
100
AcDbPolyline
 90
        4
 70
     0
 43
0.0
 10
-2.647747999999999
 20
-3.878122
 10
-2.650949999999999
 20
-3.86629
 10
-2.659365
 20
-3.857879
 10
-2.671205
 20
-3.854676999999999
  0
LWPOLYLINE
  5
FBF
330
1E
100
AcDbEntity
  8
LAYER_1
  6
Continuous
 62
     7
100
AcDbPolyline
 90
        4
 70
     0
 43
0.0
 10
-2.671205
 20
-3.854676999999999
 10
-2.683035999999999
 20
-3.857879
 10
-2.691447999999999
 20
-3.86629
 10
-2.69465
 20
-3.878122
  0
LWPOLYLINE
  5
FC5
330
1E
100
AcDbEntity
  8
LAYER_1
  6
Continuous
 62
     7
100
AcDbPolyline
 90
        4
 70
     0
 43
0.0
 10
-2.69465
 20
-3.878122
 10
-2.691447999999999
 20
-3.889953999999999
 10
-2.683035999999999
 20
-3.898365
 10
-2.671205
 20
-3.901567
  0
LWPOLYLINE
  5
FCB
330
1E
100
AcDbEntity
  8
LAYER_1
  6
Continuous
 62
     7
100
AcDbPolyline
 90
        4
 70
     0
 43
0.0
 10
-2.671205
 20
-3.901567
 10
-2.659365
 20
-3.898365
 10
-2.650949999999999
 20
-3.889953999999999
 10
-2.647747999999999
 20
-3.878122
  0
LWPOLYLINE
  5
FD1
330
1E
100
AcDbEntity
  8
LAYER_1
  6
Continuous
 62
     7
100
AcDbPolyline
 90
        6
 70
     0
 43
0.0
 10
-3.054283
 20
-3.840776
 10
-2.668747999999999
 20
-3.840776
 10
-2.651858
 20
-3.842319
 10
-2.642638
 20
-3.851538999999999
 10
-2.636499999999999
 20
-3.862275999999999
 10
-2.636499999999999
 20
-3.876109999999999
  0
TEXT
  5
FD9
330
1E
100
AcDbEntity
  8
LAYER_1
 62
     7
100
AcDbText
 10
-1.576386
 20
-3.876149999999999
 30
0.0
 40
0.099938
  1
1.5oz bias glass spar wrap...
 50
90.0
 41
0.6482321243579829
  7
SN1
 72
     5
 11
-1.576386
 21
-2.336781999999999
 31
0.0
100
AcDbText
  0
TEXT
  5
FDA
330
1E
100
AcDbEntity
  8
LAYER_1
 62
     7
100
AcDbText
 10
-1.454736
 20
-3.876149999999999
 30
0.0
 40
0.099938
  1
  2 layers center panel,
 50
90.0
 41
0.6265957466444732
  7
SN1
 72
     5
 11
-1.454736
 21
-2.647590999999999
 31
0.0
100
AcDbText
  0
TEXT
  5
FDB
330
1E
100
AcDbEntity
  8
LAYER_1
 62
     7
100
AcDbText
 10
-1.333083
 20
-3.876149999999999
 30
0.0
 40
0.099938
  1
  1 layer tip panels,
 50
90.0
 41
0.6068372022381925
  7
SN1
 72
     5
 11
-1.333083
 21
-2.856717999999999
 31
0.0
100
AcDbText
  0
TEXT
  5
FDC
330
1E
100
AcDbEntity
  8
LAYER_1
 62
     7
100
AcDbText
 10
-1.211429
 20
-3.876149999999999
 30
0.0
 40
0.099938
  1
  3 layers over joiners
 50
90.0
 41
0.6237233923078582
  7
SN1
 72
     5
 11
-1.211429
 21
-2.721493
 31
0.0
100
AcDbText
  0
LWPOLYLINE
  5
FDD
330
1E
100
AcDbEntity
  8
LAYER_1
  6
Continuous
 62
     7
100
AcDbPolyline
 90
        4
 70
     0
 43
0.0
 10
-2.640373999999999
 20
0.068913
 10
-2.736275999999999
 20
-0.011539
 10
-2.744731999999999
 20
-0.001441
 10
-2.648845999999999
 20
0.079012
  0
LWPOLYLINE
  5
FE3
330
1E
100
AcDbEntity
  8
LAYER_1
  6
Continuous
 62
     7
100
AcDbPolyline
 90
        4
 70
     0
 43
0.0
 10
-2.589649999999999
 20
-3.009055
 10
-2.462940999999999
 20
-3.031318999999999
 10
-2.465231999999999
 20
-3.044374
 10
-2.588122
 20
-3.022874
  0
LWPOLYLINE
  5
FE9
330
1E
100
AcDbEntity
  8
LAYER_1
  6
Continuous
 62
     7
100
AcDbPolyline
 90
        4
 70
     0
 43
0.0
 10
-2.585818999999999
 20
-3.021330999999999
 10
-2.681818999999999
 20
-3.101968999999999
 10
-2.690275999999999
 20
-3.091984
 10
-2.591193
 20
-3.009055
  0
SOLID
  5
FEF
330
1E
100
AcDbEntity
  8
LAYER_1
  6
Continuous
 62
     7
100
AcDbTrace
 10
2.575886
 20
-2.256137999999999
 30
0.0
 11
2.554066999999999
 21
-1.631373999999999
 31
0.0
 12
2.583858
 22
-2.255858
 32
0.0
 13
2.562054999999999
 23
-1.631094
 33
0.0
  0
LWPOLYLINE
  5
FF0
330
1E
100
AcDbEntity
  8
LAYER_1
  6
Continuous
 62
     7
100
AcDbPolyline
 90
        4
 70
     1
 43
0.0
 10
2.575886
 20
-2.256137999999999
 10
2.554066999999999
 20
-1.631373999999999
 10
2.562054999999999
 20
-1.631094
 10
2.583858
 20
-2.255858
  0
LWPOLYLINE
  5
FF6
330
1E
100
AcDbEntity
  8
LAYER_1
  6
Continuous
 62
     7
100
AcDbPolyline
 90
        4
 70
     1
 43
0.0
 10
2.575886
 20
-2.256137999999999
 10
2.554066999999999
 20
-1.631373999999999
 10
2.562054999999999
 20
-1.631094
 10
2.583858
 20
-2.255858
  0
SOLID
  5
FFC
330
1E
100
AcDbEntity
  8
LAYER_1
  6
Continuous
 62
     7
100
AcDbTrace
 10
2.552176999999999
 20
-2.255468999999999
 30
0.0
 11
2.536941
 21
-1.818940999999999
 31
0.0
 12
2.560165
 22
-2.255177
 32
0.0
 13
2.544913
 23
-1.81865
 33
0.0
  0
LWPOLYLINE
  5
FFD
330
1E
100
AcDbEntity
  8
LAYER_1
  6
Continuous
 62
     7
100
AcDbPolyline
 90
        4
 70
     1
 43
0.0
 10
2.552176999999999
 20
-2.255468999999999
 10
2.536941
 20
-1.818940999999999
 10
2.544913
 20
-1.81865
 10
2.560165
 20
-2.255177
  0
LWPOLYLINE
  5
1003
330
1E
100
AcDbEntity
  8
LAYER_1
  6
Continuous
 62
     7
100
AcDbPolyline
 90
        4
 70
     1
 43
0.0
 10
2.552176999999999
 20
-2.255468999999999
 10
2.536941
 20
-1.818940999999999
 10
2.544913
 20
-1.81865
 10
2.560165
 20
-2.255177
  0
SOLID
  5
1009
330
1E
100
AcDbEntity
  8
LAYER_1
  6
Continuous
 62
     7
100
AcDbTrace
 10
2.528621999999999
 20
-2.259330999999999
 30
0.0
 11
2.519940999999999
 21
-2.010664999999999
 31
0.0
 12
2.53661
 22
-2.259055
 32
0.0
 13
2.527928999999999
 23
-2.010374
 33
0.0
  0
LWPOLYLINE
  5
100A
330
1E
100
AcDbEntity
  8
LAYER_1
  6
Continuous
 62
     7
100
AcDbPolyline
 90
        4
 70
     1
 43
0.0
 10
2.528621999999999
 20
-2.259330999999999
 10
2.519940999999999
 20
-2.010664999999999
 10
2.527928999999999
 20
-2.010374
 10
2.53661
 20
-2.259055
  0
LWPOLYLINE
  5
1010
330
1E
100
AcDbEntity
  8
LAYER_1
  6
Continuous
 62
     7
100
AcDbPolyline
 90
        4
 70
     1
 43
0.0
 10
2.528621999999999
 20
-2.259330999999999
 10
2.519940999999999
 20
-2.010664999999999
 10
2.527928999999999
 20
-2.010374
 10
2.53661
 20
-2.259055
  0
TEXT
  5
1016
330
1E
100
AcDbEntity
  8
LAYER_1
 62
     7
100
AcDbText
 10
2.334957
 20
-3.894538999999999
 30
0.0
 40
0.11243
  1
0.007" x 1/4"
 50
90.0
 41
0.5806244752832656
  7
SN1
 72
     5
 11
2.334957
 21
-3.129834999999999
 31
0.0
100
AcDbText
  0
TEXT
  5
1017
330
1E
100
AcDbEntity
  8
LAYER_1
 62
     7
100
AcDbText
 10
2.470121999999999
 20
-3.894538999999999
 30
0.0
 40
0.11243
  1
0.007" x 7/16"
 50
90.0
 41
0.5895984401990475
  7
SN1
 72
     5
 11
2.470121999999999
 21
-3.054883999999999
 31
0.0
100
AcDbText
  0
TEXT
  5
1018
330
1E
100
AcDbEntity
  8
LAYER_1
 62
     7
100
AcDbText
 10
2.605290999999999
 20
-3.894538999999999
 30
0.0
 40
0.11243
  1
0.007" x 5/8"
 50
90.0
 41
0.5806244752832659
  7
SN1
 72
     5
 11
2.605290999999999
 21
-3.129834999999999
 31
0.0
100
AcDbText
  0
LWPOLYLINE
  5
1019
330
1E
100
AcDbEntity
  8
LAYER_1
  6
Continuous
 62
     7
100
AcDbPolyline
 90
        4
 70
     0
 43
0.0
 10
2.420764
 20
-2.779412999999999
 10
2.420688
 20
-2.778237999999999
 10
2.420154
 20
-2.770009999999999
 10
2.418705
 20
-2.747676999999999
  0
LWPOLYLINE
  5
101F
330
1E
100
AcDbEntity
  8
LAYER_1
  6
Continuous
 62
     7
100
AcDbPolyline
 90
        4
 70
     0
 43
0.0
 10
2.418705
 20
-2.747676999999999
 10
2.417002999999999
 20
-2.707851999999999
 10
2.420075
 20
-2.661888
 10
2.434066999999999
 20
-2.624802999999999
  0
LWPOLYLINE
  5
1025
330
1E
100
AcDbEntity
  8
LAYER_1
  6
Continuous
 62
     7
100
AcDbPolyline
 90
        4
 70
     0
 43
0.0
 10
2.434066999999999
 20
-2.624802999999999
 10
2.462282
 20
-2.605647999999999
 10
2.496643
 20
-2.589681999999999
 10
2.526219999999999
 20
-2.556192999999999
  0
LWPOLYLINE
  5
102B
330
1E
100
AcDbEntity
  8
LAYER_1
  6
Continuous
 62
     7
100
AcDbPolyline
 90
        4
 70
     0
 43
0.0
 10
2.526219999999999
 20
-2.556192999999999
 10
2.542796
 20
-2.49202
 10
2.548902999999999
 20
-2.414193999999999
 10
2.549776
 20
-2.347290999999999
  0
LWPOLYLINE
  5
1031
330
1E
100
AcDbEntity
  8
LAYER_1
  6
Continuous
 62
     7
100
AcDbPolyline
 90
        4
 70
     0
 43
0.0
 10
2.549776
 20
-2.347290999999999
 10
2.549776
 20
-2.309817999999999
 10
2.549776
 20
-2.296011999999999
 10
2.549776
 20
-2.294039
  0
SOLID
  5
1037
330
1E
100
AcDbEntity
  8
LAYER_1
  6
Continuous
 62
     7
100
AcDbTrace
 10
2.519054999999999
 20
-2.404638
 30
0.0
 11
2.549776
 21
-2.294039
 31
0.0
 12
2.519054999999999
 22
-2.404638
 32
0.0
 13
2.580499999999999
 23
-2.404638
 33
0.0
  0
LWPOLYLINE
  5
1038
330
1E
100
AcDbEntity
  8
LAYER_1
  6
Continuous
 62
     7
100
AcDbPolyline
 90
        3
 70
     1
 43
0.0
 10
2.519054999999999
 20
-2.404638
 10
2.549776
 20
-2.294039
 10
2.580499999999999
 20
-2.404638
  0
LWPOLYLINE
  5
103D
330
1E
100
AcDbEntity
  8
LAYER_1
  6
Continuous
 62
     7
100
AcDbPolyline
 90
        3
 70
     0
 43
0.0
 10
2.519054999999999
 20
-2.404638
 10
2.549776
 20
-2.294039
 10
2.580499999999999
 20
-2.404638
  0
TEXT
  5
1042
330
1E
100
AcDbEntity
  8
LAYER_1
 62
     7
100
AcDbText
 10
1.063164999999999
 20
-4.472062999999999
 30
0.0
 40
0.11243
  1
top cap tilted parallel
 50
90.0
 41
0.635263480182541
  7
SN1
 72
     5
 11
1.063164999999999
 21
-3.23407
 31
0.0
100
AcDbText
  0
TEXT
  5
1043
330
1E
100
AcDbEntity
  8
LAYER_1
 62
     7
100
AcDbText
 10
1.198331
 20
-4.472062999999999
 30
0.0
 40
0.11243
  1
to top airfoil surface
 50
90.0
 41
0.6202065260011547
  7
SN1
 72
     5
 11
1.198331
 21
-3.293296999999999
 31
0.0
100
AcDbText
  0
LWPOLYLINE
  5
1044
330
1E
100
AcDbEntity
  8
LAYER_1
  6
Continuous
 62
     7
100
AcDbPolyline
 90
        4
 70
     0
 43
0.0
 10
1.069093999999999
 20
-2.631956999999999
 10
1.069093999999999
 20
-2.630211999999999
 10
1.069093999999999
 20
-2.618002
 10
1.069093999999999
 20
-2.584858
  0
LWPOLYLINE
  5
104A
330
1E
100
AcDbEntity
  8
LAYER_1
  6
Continuous
 62
     7
100
AcDbPolyline
 90
        4
 70
     0
 43
0.0
 10
1.069093999999999
 20
-2.584858
 10
1.067652999999999
 20
-2.526447999999999
 10
1.057563
 20
-2.463033999999999
 10
1.030177
 20
-2.421011999999999
  0
LWPOLYLINE
  5
1050
330
1E
100
AcDbEntity
  8
LAYER_1
  6
Continuous
 62
     7
100
AcDbPolyline
 90
        4
 70
     0
 43
0.0
 10
1.030177
 20
-2.421011999999999
 10
0.9806450000000001
 20
-2.416386
 10
0.9192809999999999
 20
-2.423591999999999
 10
0.8601929999999999
 20
-2.406677
  0
LWPOLYLINE
  5
1056
330
1E
100
AcDbEntity
  8
LAYER_1
  6
Continuous
 62
     7
100
AcDbPolyline
 90
        4
 70
     0
 43
0.0
 10
0.8601929999999999
 20
-2.406677
 10
0.8147569999999999
 20
-2.341447999999999
 10
0.783432
 20
-2.250732
 10
0.763941
 20
-2.169122
  0
LWPOLYLINE
  5
105C
330
1E
100
AcDbEntity
  8
LAYER_1
  6
Continuous
 62
     7
100
AcDbPolyline
 90
        4
 70
     0
 43
0.0
 10
0.763941
 20
-2.169122
 10
0.7538560000000001
 20
-2.123002
 10
0.750141
 20
-2.106009999999999
 10
0.7496100000000001
 20
-2.103582999999999
  0
SOLID
  5
1062
330
1E
100
AcDbEntity
  8
LAYER_1
  6
Continuous
 62
     7
100
AcDbTrace
 10
0.743232
 20
-2.218176999999999
 30
0.0
 11
0.7496100000000001
 21
-2.103582999999999
 31
0.0
 12
0.743232
 22
-2.218176999999999
 32
0.0
 13
0.8032479999999999
 23
-2.205054999999999
 33
0.0
  0
LWPOLYLINE
  5
1063
330
1E
100
AcDbEntity
  8
LAYER_1
  6
Continuous
 62
     7
100
AcDbPolyline
 90
        3
 70
     1
 43
0.0
 10
0.743232
 20
-2.218176999999999
 10
0.7496100000000001
 20
-2.103582999999999
 10
0.8032479999999999
 20
-2.205054999999999
  0
LWPOLYLINE
  5
1068
330
1E
100
AcDbEntity
  8
LAYER_1
  6
Continuous
 62
     7
100
AcDbPolyline
 90
        3
 70
     0
 43
0.0
 10
0.743232
 20
-2.218176999999999
 10
0.7496100000000001
 20
-2.103582999999999
 10
0.8032479999999999
 20
-2.205054999999999
  0
LWPOLYLINE
  5
106D
330
1E
100
AcDbEntity
  8
LAYER_1
  6
Continuous
 62
     7
100
AcDbPolyline
 90
        2
 70
     0
 43
0.0
 10
-2.572818999999999
 20
-2.476858
 10
-2.490429
 20
-2.559247999999999
  0
LWPOLYLINE
  5
1071
330
1E
100
AcDbEntity
  8
LAYER_1
  6
Continuous
 62
     7
100
AcDbPolyline
 90
        2
 70
     0
 43
0.0
 10
-2.552109999999999
 20
-2.45615
 10
-2.46972
 20
-2.538539
  0
LWPOLYLINE
  5
1075
330
1E
100
AcDbEntity
  8
LAYER_1
  6
Continuous
 62
     7
100
AcDbPolyline
 90
        2
 70
     0
 43
0.0
 10
-2.531622
 20
-2.435665
 10
-2.449231999999999
 20
-2.518054999999999
  0
LWPOLYLINE
  5
1079
330
1E
100
AcDbEntity
  8
LAYER_1
  6
Continuous
 62
     7
100
AcDbPolyline
 90
        2
 70
     0
 43
0.0
 10
-2.511138
 20
-2.415176999999999
 10
-2.428748
 20
-2.497566999999999
  0
LWPOLYLINE
  5
107D
330
1E
100
AcDbEntity
  8
LAYER_1
  6
Continuous
 62
     7
100
AcDbPolyline
 90
        2
 70
     0
 43
0.0
 10
-2.572818999999999
 20
-2.497345999999999
 10
-2.490429
 20
-2.414956999999999
  0
LWPOLYLINE
  5
1081
330
1E
100
AcDbEntity
  8
LAYER_1
  6
Continuous
 62
     7
100
AcDbPolyline
 90
        2
 70
     0
 43
0.0
 10
-2.552109999999999
 20
-2.518054999999999
 10
-2.469704999999999
 20
-2.435665
  0
LWPOLYLINE
  5
1085
330
1E
100
AcDbEntity
  8
LAYER_1
  6
Continuous
 62
     7
100
AcDbPolyline
 90
        2
 70
     0
 43
0.0
 10
-2.531622
 20
-2.538539
 10
-2.449219999999999
 20
-2.45615
  0
LWPOLYLINE
  5
1089
330
1E
100
AcDbEntity
  8
LAYER_1
  6
Continuous
 62
     7
100
AcDbPolyline
 90
        2
 70
     0
 43
0.0
 10
-2.510912999999999
 20
-2.559247999999999
 10
-2.428512
 20
-2.476858
  0
LWPOLYLINE
  5
108D
330
1E
100
AcDbEntity
  8
LAYER_1
  6
Continuous
 62
     7
100
AcDbPolyline
 90
        2
 70
     0
 43
0.0
 10
-2.640401999999999
 20
0.596638
 10
-2.558011999999999
 20
0.514232
  0
LWPOLYLINE
  5
1091
330
1E
100
AcDbEntity
  8
LAYER_1
  6
Continuous
 62
     7
100
AcDbPolyline
 90
        2
 70
     0
 43
0.0
 10
-2.619692999999999
 20
0.617346
 10
-2.537303
 20
0.534941
  0
LWPOLYLINE
  5
1095
330
1E
100
AcDbEntity
  8
LAYER_1
  6
Continuous
 62
     7
100
AcDbPolyline
 90
        2
 70
     0
 43
0.0
 10
-2.599204999999999
 20
0.6378310000000001
 10
-2.516818999999999
 20
0.555429
  0
LWPOLYLINE
  5
1099
330
1E
100
AcDbEntity
  8
LAYER_1
  6
Continuous
 62
     7
100
AcDbPolyline
 90
        2
 70
     0
 43
0.0
 10
-2.57872
 20
0.658319
 10
-2.496331
 20
0.575913
  0
LWPOLYLINE
  5
109D
330
1E
100
AcDbEntity
  8
LAYER_1
  6
Continuous
 62
     7
100
AcDbPolyline
 90
        2
 70
     0
 43
0.0
 10
-2.640401999999999
 20
0.5761500000000001
 10
-2.558011999999999
 20
0.6585390000000001
  0
LWPOLYLINE
  5
10A1
330
1E
100
AcDbEntity
  8
LAYER_1
  6
Continuous
 62
     7
100
AcDbPolyline
 90
        2
 70
     0
 43
0.0
 10
-2.619692999999999
 20
0.555429
 10
-2.537291
 20
0.6378310000000001
  0
LWPOLYLINE
  5
10A5
330
1E
100
AcDbEntity
  8
LAYER_1
  6
Continuous
 62
     7
100
AcDbPolyline
 90
        2
 70
     0
 43
0.0
 10
-2.599204999999999
 20
0.534941
 10
-2.516802999999999
 20
0.617346
  0
LWPOLYLINE
  5
10A9
330
1E
100
AcDbEntity
  8
LAYER_1
  6
Continuous
 62
     7
100
AcDbPolyline
 90
        2
 70
     0
 43
0.0
 10
-2.5785
 20
0.514232
 10
-2.496093999999999
 20
0.596638
  0
TEXT
  5
10AD
330
1E
100
AcDbEntity
  8
LAYER_1
 62
     7
100
AcDbText
 10
-2.377149999999999
 20
1.944638
 30
0.0
 40
0.11243
  1
2.4oz CF doublers
 50
90.0
 41
0.680119026756362
  7
SN1
 72
     5
 11
-2.377149999999999
 21
3.04793
 31
0.0
100
AcDbText
  0
LWPOLYLINE
  5
10AE
330
1E
100
AcDbEntity
  8
LAYER_1
  6
DASHED
 62
     7
100
AcDbPolyline
 90
        5
 70
     0
 43
0.0
 10
-2.499791
 20
-3.873038999999999
 10
-2.379983999999999
 20
-2.994457
 10
-2.570441
 20
0.056
 10
-2.622665
 20
0.056
 10
-2.570441
 20
-3.876109999999999
  0
TEXT
  5
10B5
330
1E
100
AcDbEntity
  8
LAYER_1
 62
     7
100
AcDbText
 10
-1.522094
 20
3.485622
 30
0.0
 40
0.11243
  1
 21g tip caps
 41
0.6086356144059375
  7
SN1
 72
     5
 11
-0.756342
 21
3.485622
 31
0.0
100
AcDbText
  0
TEXT
  5
10B6
330
1E
100
AcDbEntity
  8
LAYER_1
 62
     7
100
AcDbText
 10
-1.522094
 20
3.350457
 30
0.0
 40
0.11243
  1
 22g tip webs
 41
0.6217978866999347
  7
SN1
 72
     5
 11
-0.726466
 21
3.350457
 31
0.0
100
AcDbText
  0
TEXT
  5
10B7
330
1E
100
AcDbEntity
  8
LAYER_1
 62
     7
100
AcDbText
 10
-1.522094
 20
3.215287
 30
0.0
 40
0.11243
  1
  9g tip spar wrap
 41
0.5847280604003898
  7
SN1
 72
     5
 11
-0.485891
 21
3.215287
 31
0.0
100
AcDbText
  0
TEXT
  5
10B8
330
1E
100
AcDbEntity
  8
LAYER_1
 62
     7
100
AcDbText
 10
-1.522094
 20
3.080122
 30
0.0
 40
0.11243
  1
  6g joiner tubes
 41
0.6062417215757073
  7
SN1
 72
     5
 11
-0.5613660000000001
 21
3.080122
 31
0.0
100
AcDbText
  0
TEXT
  5
10B9
330
1E
100
AcDbEntity
  8
LAYER_1
 62
     7
100
AcDbText
 10
-1.522094
 20
2.944952999999999
 30
0.0
 40
0.11243
  1
  4g joiner wood
 41
0.6116118987209456
  7
SN1
 72
     5
 11
-0.569228
 21
2.944952999999999
 31
0.0
100
AcDbText
  0
TEXT
  5
10BA
330
1E
100
AcDbEntity
  8
LAYER_1
 62
     7
100
AcDbText
 10
-1.522094
 20
2.809787
 30
0.0
 40
0.11243
  1
----------------
 41
0.3401717297496893
  7
SN1
 72
     5
 11
-0.8008930000000001
 21
2.809787
 31
0.0
100
AcDbText
  0
TEXT
  5
10BB
330
1E
100
AcDbEntity
  8
LAYER_1
 62
     7
100
AcDbText
 10
-1.522094
 20
2.674622
 30
0.0
 40
0.11243
  1
 62g tip spars
 41
0.6106798710595559
  7
SN1
 72
     5
 11
-0.711267
 21
2.674622
 31
0.0
100
AcDbText
  0
LWPOLYLINE
  5
10BC
330
1E
100
AcDbEntity
  8
LAYER_1
  6
Continuous
 62
     7
100
AcDbPolyline
 90
        4
 70
     1
 43
0.0
 10
-3.457016
 20
-0.005429
 10
-3.437574999999999
 20
-0.005429
 10
-3.437574999999999
 20
0.118984
 10
-3.457016
 20
0.118984
  0
LWPOLYLINE
  5
10C2
330
1E
100
AcDbEntity
  8
LAYER_1
  6
Continuous
 62
   153
100
AcDbPolyline
 90
       12
 70
     1
 43
0.0
 10
2.262929
 20
-4.757728
 10
2.252184
 20
-4.718485
 10
2.223948
 20
-4.690589
 10
2.18422
 20
-4.679972
 10
2.14449
 20
-4.690589
 10
2.116248
 20
-4.718485
 10
2.1055
 20
-4.757728
 10
2.116248
 20
-4.796972
 10
2.14449
 20
-4.824868
 10
2.18422
 20
-4.835483999999999
 10
2.223948
 20
-4.824868
 10
2.252184
 20
-4.796972
  0
LWPOLYLINE
  5
10D0
330
1E
100
AcDbEntity
  8
LAYER_1
  6
Continuous
 62
     7
100
AcDbPolyline
 90
        4
 70
     0
 43
0.0
 10
2.262929
 20
-4.757728
 10
2.252184
 20
-4.718485
 10
2.223948
 20
-4.690589
 10
2.18422
 20
-4.679972
  0
LWPOLYLINE
  5
10D6
330
1E
100
AcDbEntity
  8
LAYER_1
  6
Continuous
 62
     7
100
AcDbPolyline
 90
        4
 70
     0
 43
0.0
 10
2.18422
 20
-4.679972
 10
2.14449
 20
-4.690589
 10
2.116248
 20
-4.718485
 10
2.1055
 20
-4.757728
  0
LWPOLYLINE
  5
10DC
330
1E
100
AcDbEntity
  8
LAYER_1
  6
Continuous
 62
     7
100
AcDbPolyline
 90
        4
 70
     0
 43
0.0
 10
2.1055
 20
-4.757728
 10
2.116248
 20
-4.796972
 10
2.14449
 20
-4.824868
 10
2.18422
 20
-4.835483999999999
  0
LWPOLYLINE
  5
10E2
330
1E
100
AcDbEntity
  8
LAYER_1
  6
Continuous
 62
     7
100
AcDbPolyline
 90
        4
 70
     0
 43
0.0
 10
2.18422
 20
-4.835483999999999
 10
2.223948
 20
-4.824868
 10
2.252184
 20
-4.796972
 10
2.262929
 20
-4.757728
  0
LWPOLYLINE
  5
10E8
330
1E
100
AcDbEntity
  8
LAYER_1
  6
Continuous
 62
     7
100
AcDbPolyline
 90
       12
 70
     1
 43
0.0
 10
2.247177
 20
-4.757723999999999
 10
2.238579999999999
 20
-4.726327999999999
 10
2.215988
 20
-4.70401
 10
2.184204999999999
 20
-4.695516
 10
2.152422999999999
 20
-4.70401
 10
2.129831
 20
-4.726327999999999
 10
2.121232
 20
-4.757723999999999
 10
2.129831
 20
-4.789120999999999
 10
2.152422999999999
 20
-4.811439
 10
2.184204999999999
 20
-4.819932999999999
 10
2.215988
 20
-4.811439
 10
2.238579999999999
 20
-4.789120999999999
  0
LWPOLYLINE
  5
10F6
330
1E
100
AcDbEntity
  8
LAYER_1
  6
Continuous
 62
     7
100
AcDbPolyline
 90
        4
 70
     0
 43
0.0
 10
2.247177
 20
-4.757723999999999
 10
2.238579999999999
 20
-4.726327999999999
 10
2.215988
 20
-4.70401
 10
2.184204999999999
 20
-4.695516
  0
LWPOLYLINE
  5
10FC
330
1E
100
AcDbEntity
  8
LAYER_1
  6
Continuous
 62
     7
100
AcDbPolyline
 90
        4
 70
     0
 43
0.0
 10
2.184204999999999
 20
-4.695516
 10
2.152422999999999
 20
-4.70401
 10
2.129831
 20
-4.726327999999999
 10
2.121232
 20
-4.757723999999999
  0
LWPOLYLINE
  5
1102
330
1E
100
AcDbEntity
  8
LAYER_1
  6
Continuous
 62
     7
100
AcDbPolyline
 90
        4
 70
     0
 43
0.0
 10
2.121232
 20
-4.757723999999999
 10
2.129831
 20
-4.789120999999999
 10
2.152422999999999
 20
-4.811439
 10
2.184204999999999
 20
-4.819932999999999
  0
LWPOLYLINE
  5
1108
330
1E
100
AcDbEntity
  8
LAYER_1
  6
Continuous
 62
     7
100
AcDbPolyline
 90
        4
 70
     0
 43
0.0
 10
2.184204999999999
 20
-4.819932999999999
 10
2.215988
 20
-4.811439
 10
2.238579999999999
 20
-4.789120999999999
 10
2.247177
 20
-4.757723999999999
  0
LWPOLYLINE
  5
110E
330
1E
100
AcDbEntity
  8
LAYER_1
  6
Continuous
 62
   153
100
AcDbPolyline
 90
       12
 70
     1
 43
0.0
 10
1.291412999999999
 20
-4.761562999999999
 10
1.280668
 20
-4.722319999999999
 10
1.252431999999999
 20
-4.694426999999999
 10
1.212704999999999
 20
-4.683811
 10
1.172975
 20
-4.694426999999999
 10
1.144733
 20
-4.722319999999999
 10
1.133984
 20
-4.761562999999999
 10
1.144733
 20
-4.800808999999999
 10
1.172975
 20
-4.828702999999999
 10
1.212704999999999
 20
-4.839319
 10
1.252431999999999
 20
-4.828702999999999
 10
1.280668
 20
-4.800808999999999
  0
LWPOLYLINE
  5
111C
330
1E
100
AcDbEntity
  8
LAYER_1
  6
Continuous
 62
     7
100
AcDbPolyline
 90
        4
 70
     0
 43
0.0
 10
1.291412999999999
 20
-4.761562999999999
 10
1.280668
 20
-4.722319999999999
 10
1.252431999999999
 20
-4.694426999999999
 10
1.212704999999999
 20
-4.683811
  0
LWPOLYLINE
  5
1122
330
1E
100
AcDbEntity
  8
LAYER_1
  6
Continuous
 62
     7
100
AcDbPolyline
 90
        4
 70
     0
 43
0.0
 10
1.212704999999999
 20
-4.683811
 10
1.172975
 20
-4.694426999999999
 10
1.144733
 20
-4.722319999999999
 10
1.133984
 20
-4.761562999999999
  0
LWPOLYLINE
  5
1128
330
1E
100
AcDbEntity
  8
LAYER_1
  6
Continuous
 62
     7
100
AcDbPolyline
 90
        4
 70
     0
 43
0.0
 10
1.133984
 20
-4.761562999999999
 10
1.144733
 20
-4.800808999999999
 10
1.172975
 20
-4.828702999999999
 10
1.212704999999999
 20
-4.839319
  0
LWPOLYLINE
  5
112E
330
1E
100
AcDbEntity
  8
LAYER_1
  6
Continuous
 62
     7
100
AcDbPolyline
 90
        4
 70
     0
 43
0.0
 10
1.212704999999999
 20
-4.839319
 10
1.252431999999999
 20
-4.828702999999999
 10
1.280668
 20
-4.800808999999999
 10
1.291412999999999
 20
-4.761562999999999
  0
LWPOLYLINE
  5
1134
330
1E
100
AcDbEntity
  8
LAYER_1
  6
Continuous
 62
     7
100
AcDbPolyline
 90
       12
 70
     1
 43
0.0
 10
1.275665
 20
-4.761562999999999
 10
1.267066999999999
 20
-4.730169
 10
1.244474999999999
 20
-4.707851999999999
 10
1.212693
 20
-4.699358
 10
1.180916
 20
-4.707851999999999
 10
1.158320999999999
 20
-4.730169
 10
1.14972
 20
-4.761562999999999
 10
1.158320999999999
 20
-4.792959999999999
 10
1.180916
 20
-4.815278
 10
1.212693
 20
-4.823771999999999
 10
1.244474999999999
 20
-4.815278
 10
1.267066999999999
 20
-4.792959999999999
  0
LWPOLYLINE
  5
1142
330
1E
100
AcDbEntity
  8
LAYER_1
  6
Continuous
 62
     7
100
AcDbPolyline
 90
        4
 70
     0
 43
0.0
 10
1.275665
 20
-4.761562999999999
 10
1.267066999999999
 20
-4.730169
 10
1.244474999999999
 20
-4.707851999999999
 10
1.212693
 20
-4.699358
  0
LWPOLYLINE
  5
1148
330
1E
100
AcDbEntity
  8
LAYER_1
  6
Continuous
 62
     7
100
AcDbPolyline
 90
        4
 70
     0
 43
0.0
 10
1.212693
 20
-4.699358
 10
1.180916
 20
-4.707851999999999
 10
1.158320999999999
 20
-4.730169
 10
1.14972
 20
-4.761562999999999
  0
LWPOLYLINE
  5
114E
330
1E
100
AcDbEntity
  8
LAYER_1
  6
Continuous
 62
     7
100
AcDbPolyline
 90
        4
 70
     0
 43
0.0
 10
1.14972
 20
-4.761562999999999
 10
1.158320999999999
 20
-4.792959999999999
 10
1.180916
 20
-4.815278
 10
1.212693
 20
-4.823771999999999
  0
LWPOLYLINE
  5
1154
330
1E
100
AcDbEntity
  8
LAYER_1
  6
Continuous
 62
     7
100
AcDbPolyline
 90
        4
 70
     0
 43
0.0
 10
1.212693
 20
-4.823771999999999
 10
1.244474999999999
 20
-4.815278
 10
1.267066999999999
 20
-4.792959999999999
 10
1.275665
 20
-4.761562999999999
  0
LWPOLYLINE
  5
115A
330
1E
100
AcDbEntity
  8
LAYER_1
  6
Continuous
 62
     7
100
AcDbPolyline
 90
        4
 70
     1
 43
0.0
 10
-2.770436999999999
 20
-0.002358
 10
-2.752940999999999
 20
-0.002358
 10
-2.752940999999999
 20
0.122055
 10
-2.770436999999999
 20
0.122055
  0
LWPOLYLINE
  5
1160
330
1E
100
AcDbEntity
  8
LAYER_1
  6
Continuous
 62
     7
100
AcDbPolyline
 90
        2
 70
     0
 43
0.0
 10
-3.338676999999999
 20
-1.543941
 10
-3.276256
 20
-1.606357999999999
  0
LWPOLYLINE
  5
1164
330
1E
100
AcDbEntity
  8
LAYER_1
  6
Continuous
 62
     7
100
AcDbPolyline
 90
        2
 70
     0
 43
0.0
 10
-3.32298
 20
-1.528248
 10
-3.260559
 20
-1.590664999999999
  0
LWPOLYLINE
  5
1168
330
1E
100
AcDbEntity
  8
LAYER_1
  6
Continuous
 62
     7
100
AcDbPolyline
 90
        2
 70
     0
 43
0.0
 10
-3.307465
 20
-1.51272
 10
-3.245042999999999
 20
-1.57515
  0
LWPOLYLINE
  5
116C
330
1E
100
AcDbEntity
  8
LAYER_1
  6
Continuous
 62
     7
100
AcDbPolyline
 90
        2
 70
     0
 43
0.0
 10
-3.291944999999999
 20
-1.497204999999999
 10
-3.229527999999999
 20
-1.559621999999999
  0
LWPOLYLINE
  5
1170
330
1E
100
AcDbEntity
  8
LAYER_1
  6
Continuous
 62
     7
100
AcDbPolyline
 90
        2
 70
     0
 43
0.0
 10
-3.338676999999999
 20
-1.559456999999999
 10
-3.276256
 20
-1.497039
  0
LWPOLYLINE
  5
1174
330
1E
100
AcDbEntity
  8
LAYER_1
  6
Continuous
 62
     7
100
AcDbPolyline
 90
        2
 70
     0
 43
0.0
 10
-3.322983999999999
 20
-1.57515
 10
-3.260566999999999
 20
-1.51272
  0
LWPOLYLINE
  5
1178
330
1E
100
AcDbEntity
  8
LAYER_1
  6
Continuous
 62
     7
100
AcDbPolyline
 90
        2
 70
     0
 43
0.0
 10
-3.307469
 20
-1.590664999999999
 10
-3.245050999999999
 20
-1.528248
  0
LWPOLYLINE
  5
117C
330
1E
100
AcDbEntity
  8
LAYER_1
  6
Continuous
 62
     7
100
AcDbPolyline
 90
        2
 70
     0
 43
0.0
 10
-3.291771999999999
 20
-1.606357999999999
 10
-3.229354
 20
-1.543941
  0
LWPOLYLINE
  5
1180
330
1E
100
AcDbEntity
  8
LAYER_1
  6
DASHED
 62
     7
100
AcDbPolyline
 90
        2
 70
     0
 43
0.0
 10
-2.605775999999999
 20
-3.863819
 10
-2.667205
 20
-0.042303
  0
LWPOLYLINE
  5
1184
330
1E
100
AcDbEntity
  8
LAYER_1
  6
Continuous
 62
     7
100
AcDbPolyline
 90
        2
 70
     0
 43
0.0
 10
-2.496957
 20
-0.302874
 10
-2.434539
 20
-0.365291
  0
LWPOLYLINE
  5
1188
330
1E
100
AcDbEntity
  8
LAYER_1
  6
Continuous
 62
     7
100
AcDbPolyline
 90
        2
 70
     0
 43
0.0
 10
-2.481263999999999
 20
-0.287177
 10
-2.418845999999999
 20
-0.349594
  0
LWPOLYLINE
  5
118C
330
1E
100
AcDbEntity
  8
LAYER_1
  6
Continuous
 62
     7
100
AcDbPolyline
 90
        2
 70
     0
 43
0.0
 10
-2.465748
 20
-0.27165
 10
-2.403331
 20
-0.334083
  0
LWPOLYLINE
  5
1190
330
1E
100
AcDbEntity
  8
LAYER_1
  6
Continuous
 62
     7
100
AcDbPolyline
 90
        2
 70
     0
 43
0.0
 10
-2.450232
 20
-0.256138
 10
-2.387818999999999
 20
-0.318555
  0
LWPOLYLINE
  5
1194
330
1E
100
AcDbEntity
  8
LAYER_1
  6
Continuous
 62
     7
100
AcDbPolyline
 90
        2
 70
     0
 43
0.0
 10
-2.496957
 20
-0.318386
 10
-2.434539
 20
-0.255969
  0
LWPOLYLINE
  5
1198
330
1E
100
AcDbEntity
  8
LAYER_1
  6
Continuous
 62
     7
100
AcDbPolyline
 90
        2
 70
     0
 43
0.0
 10
-2.481275999999999
 20
-0.334083
 10
-2.418845999999999
 20
-0.27165
  0
LWPOLYLINE
  5
119C
330
1E
100
AcDbEntity
  8
LAYER_1
  6
Continuous
 62
     7
100
AcDbPolyline
 90
        2
 70
     0
 43
0.0
 10
-2.465748
 20
-0.349594
 10
-2.403331
 20
-0.287177
  0
LWPOLYLINE
  5
11A0
330
1E
100
AcDbEntity
  8
LAYER_1
  6
Continuous
 62
     7
100
AcDbPolyline
 90
        2
 70
     0
 43
0.0
 10
-2.450054999999999
 20
-0.365291
 10
-2.387637999999999
 20
-0.302874
  0
TEXT
  5
11A4
330
1E
100
AcDbEntity
  8
LAYER_1
 62
     7
100
AcDbText
 10
-3.277429
 20
-5.154382
 30
0.0
 40
0.128285
  1
Mark Drela  20 Jun 04
 41
0.6242461788411086
  7
SN3
 72
     5
 11
-1.755881999999999
 21
-5.154382
 31
0.0
100
AcDbText
  0
LWPOLYLINE
  5
11A5
330
1E
100
AcDbEntity
  8
LAYER_1
  6
Continuous
 62
     7
100
AcDbPolyline
 90
       11
 70
     0
 43
0.0
 10
1.212731999999999
 20
1.697665
 10
1.198582999999999
 20
2.103121999999999
 10
1.184845999999999
 20
2.573122
 10
1.16772
 20
3.217763999999999
 10
1.162582999999999
 20
3.518676999999999
 10
1.155483999999999
 20
3.875999999999999
 10
1.144747999999999
 20
3.875621999999999
 10
1.086512
 20
3.233731999999999
 10
1.033511999999999
 20
2.672693
 10
0.9823459999999998
 20
2.135902
 10
0.9519569999999999
 20
1.774593999999999
  0
LWPOLYLINE
  5
11B2
330
1E
100
AcDbEntity
  8
LAYER_1
  6
Continuous
 62
     7
100
AcDbPolyline
 90
        2
 70
     0
 43
0.0
 10
0.9385389999999999
 20
1.663402
 10
1.212704999999999
 20
1.67415
  0
LWPOLYLINE
  5
11B6
330
1E
100
AcDbEntity
  8
LAYER_1
  6
Continuous
 62
     7
100
AcDbPolyline
 90
        2
 70
     0
 43
0.0
 10
0.169776
 20
0.793276
 10
0.334886
 20
0.800177
  0
LWPOLYLINE
  5
11BA
330
1E
100
AcDbEntity
  8
LAYER_1
  6
Continuous
 62
     7
100
AcDbPolyline
 90
        2
 70
     0
 43
0.0
 10
0.176677
 20
0.860083
 10
0.336429
 20
0.8078579999999998
  0
LWPOLYLINE
  5
11BE
330
1E
100
AcDbEntity
  8
LAYER_1
  6
Continuous
 62
     7
100
AcDbPolyline
 90
        2
 70
     0
 43
0.0
 10
-0.16661
 20
0.390083
 10
-0.094413
 20
0.367039
  0
LWPOLYLINE
  5
11C2
330
1E
100
AcDbEntity
  8
LAYER_1
  6
Continuous
 62
     7
100
AcDbPolyline
 90
        2
 70
     0
 43
0.0
 10
-0.169677
 20
0.35322
 10
-0.09365
 20
0.355512
  0
LWPOLYLINE
  5
11C6
330
1E
100
AcDbEntity
  8
LAYER_1
  6
Continuous
 62
     7
100
AcDbPolyline
 90
        2
 70
     0
 43
0.0
 10
1.226528
 20
1.684886
 10
1.589012
 20
1.558940999999999
  0
LWPOLYLINE
  5
11CA
330
1E
100
AcDbEntity
  8
LAYER_1
  6
Continuous
 62
     7
100
AcDbPolyline
 90
        2
 70
     0
 43
0.0
 10
1.226528
 20
1.675677
 10
1.579803
 20
1.687968999999999
  0
LWPOLYLINE
  5
11CE
330
1E
100
AcDbEntity
  8
LAYER_1
  6
Continuous
 62
     7
100
AcDbPolyline
 90
        2
 70
     0
 43
0.0
 10
3.258621999999999
 20
2.194083
 10
2.940676999999999
 20
2.265499999999999
  0
LWPOLYLINE
  5
11D2
330
1E
100
AcDbEntity
  8
LAYER_1
  6
Continuous
 62
     7
100
AcDbPolyline
 90
        2
 70
     0
 43
0.0
 10
3.258621999999999
 20
2.182554999999999
 10
2.932999999999999
 20
2.198676999999999
  0
LWPOLYLINE
  5
11D6
330
1E
100
AcDbEntity
  8
LAYER_1
  6
Continuous
 62
     7
100
AcDbPolyline
 90
        2
 70
     0
 43
0.0
 10
2.185747999999999
 20
1.676456999999999
 10
1.916957
 20
1.684138
  0
LWPOLYLINE
  5
11DA
330
1E
100
AcDbEntity
  8
LAYER_1
  6
Continuous
 62
     7
100
AcDbPolyline
 90
        2
 70
     0
 43
0.0
 10
2.185747999999999
 20
1.687204999999999
 10
1.923093999999999
 20
1.745583
  0
LWPOLYLINE
  5
11DE
330
1E
100
AcDbEntity
  8
LAYER_1
  6
DASHED
 62
     7
100
AcDbPolyline
 90
        2
 70
     0
 43
0.0
 10
3.918330999999999
 20
2.209440999999999
 10
3.27322
 20
2.184874
  0
LWPOLYLINE
  5
11E2
330
1E
100
AcDbEntity
  8
LAYER_1
  6
Continuous
 62
     7
100
AcDbPolyline
 90
        2
 70
     0
 43
0.0
 10
3.783165
 20
2.15722
 10
3.279358
 20
2.181791
  0
LWPOLYLINE
  5
11E6
330
1E
100
AcDbEntity
  8
LAYER_1
  6
Continuous
 62
     7
100
AcDbPolyline
 90
        2
 70
     0
 43
0.0
 10
3.773956999999999
 20
2.074275999999999
 10
3.279358
 20
2.187940999999999
  0
TEXT
  5
11EA
330
1E
100
AcDbEntity
  8
LAYER_1
 62
     7
100
AcDbText
 10
3.929912999999999
 20
2.068138
 30
0.0
 40
0.11243
  1
5
 50
90.0
 41
0.8234927876691886
  7
SN1
 72
     5
 11
3.929912999999999
 21
2.143088
 31
0.0
100
AcDbText
  0
LWPOLYLINE
  5
11EB
330
1E
100
AcDbEntity
  8
LAYER_1
  6
Continuous
 62
     7
100
AcDbPolyline
 90
        4
 70
     0
 43
0.0
 10
3.836012
 20
2.189649999999999
 10
3.825837
 20
2.186900999999999
 10
3.818608
 20
2.179678
 10
3.815858
 20
2.169512
  0
LWPOLYLINE
  5
11F1
330
1E
100
AcDbEntity
  8
LAYER_1
  6
Continuous
 62
     7
100
AcDbPolyline
 90
        4
 70
     0
 43
0.0
 10
3.815858
 20
2.169512
 10
3.818608
 20
2.159341999999999
 10
3.825837
 20
2.152111
 10
3.836012
 20
2.149358
  0
LWPOLYLINE
  5
11F7
330
1E
100
AcDbEntity
  8
LAYER_1
  6
Continuous
 62
     7
100
AcDbPolyline
 90
        4
 70
     0
 43
0.0
 10
3.836012
 20
2.149358
 10
3.846178
 20
2.152111
 10
3.853401
 20
2.159341999999999
 10
3.856149999999999
 20
2.169512
  0
LWPOLYLINE
  5
11FD
330
1E
100
AcDbEntity
  8
LAYER_1
  6
Continuous
 62
     7
100
AcDbPolyline
 90
        4
 70
     0
 43
0.0
 10
3.856149999999999
 20
2.169512
 10
3.853401
 20
2.179678
 10
3.846178
 20
2.186900999999999
 10
3.836012
 20
2.189649999999999
  0
LWPOLYLINE
  5
1203
330
1E
100
AcDbEntity
  8
LAYER_1
  6
Continuous
 62
     7
100
AcDbPolyline
 90
        4
 70
     0
 43
0.0
 10
3.7715
 20
2.054483999999999
 10
3.761323
 20
2.051734999999999
 10
3.754096
 20
2.044509999999999
 10
3.751345999999999
 20
2.034345999999999
  0
LWPOLYLINE
  5
1209
330
1E
100
AcDbEntity
  8
LAYER_1
  6
Continuous
 62
     7
100
AcDbPolyline
 90
        4
 70
     0
 43
0.0
 10
3.751345999999999
 20
2.034345999999999
 10
3.754096
 20
2.02417
 10
3.761323
 20
2.016941999999999
 10
3.7715
 20
2.014193
  0
LWPOLYLINE
  5
120F
330
1E
100
AcDbEntity
  8
LAYER_1
  6
Continuous
 62
     7
100
AcDbPolyline
 90
        4
 70
     0
 43
0.0
 10
3.7715
 20
2.014193
 10
3.781664
 20
2.016941999999999
 10
3.788887999999999
 20
2.02417
 10
3.791637999999999
 20
2.034345999999999
  0
LWPOLYLINE
  5
1215
330
1E
100
AcDbEntity
  8
LAYER_1
  6
Continuous
 62
     7
100
AcDbPolyline
 90
        4
 70
     0
 43
0.0
 10
3.791637999999999
 20
2.034345999999999
 10
3.788887999999999
 20
2.044509999999999
 10
3.781664
 20
2.051734999999999
 10
3.7715
 20
2.054483999999999
  0
TEXT
  5
121B
330
1E
100
AcDbEntity
  8
LAYER_1
 62
     7
100
AcDbText
 10
3.868469
 20
1.877677
 30
0.0
 40
0.11243
  1
15
 50
90.00038222413138
 41
0.7567281503854764
  7
SN1
 72
     5
 11
3.868468
 21
2.027578
 31
0.0
100
AcDbText
  0
LWPOLYLINE
  5
121C
330
1E
100
AcDbEntity
  8
LAYER_1
  6
Continuous
 62
     7
100
AcDbPolyline
 90
        4
 70
     0
 43
0.0
 10
1.602692999999999
 20
1.787231999999999
 10
1.592522999999999
 20
1.784479999999999
 10
1.585291999999999
 20
1.777249999999999
 10
1.582538999999999
 20
1.767083
  0
LWPOLYLINE
  5
1222
330
1E
100
AcDbEntity
  8
LAYER_1
  6
Continuous
 62
     7
100
AcDbPolyline
 90
        4
 70
     0
 43
0.0
 10
1.582538999999999
 20
1.767083
 10
1.585291999999999
 20
1.756913
 10
1.592522999999999
 20
1.749681999999999
 10
1.602692999999999
 20
1.746929
  0
LWPOLYLINE
  5
1228
330
1E
100
AcDbEntity
  8
LAYER_1
  6
Continuous
 62
     7
100
AcDbPolyline
 90
        4
 70
     0
 43
0.0
 10
1.602692999999999
 20
1.746929
 10
1.612862999999999
 20
1.749681999999999
 10
1.620094
 20
1.756913
 10
1.622846
 20
1.767083
  0
LWPOLYLINE
  5
122E
330
1E
100
AcDbEntity
  8
LAYER_1
  6
Continuous
 62
     7
100
AcDbPolyline
 90
        4
 70
     0
 43
0.0
 10
1.622846
 20
1.767083
 10
1.620094
 20
1.777249999999999
 10
1.612862999999999
 20
1.784479999999999
 10
1.602692999999999
 20
1.787231999999999
  0
LWPOLYLINE
  5
1234
330
1E
100
AcDbEntity
  8
LAYER_1
  6
Continuous
 62
     7
100
AcDbPolyline
 90
        4
 70
     0
 43
0.0
 10
1.611901999999999
 20
1.621345999999999
 10
1.601736
 20
1.618596999999999
 10
1.594512
 20
1.611368
 10
1.591763999999999
 20
1.601193
  0
LWPOLYLINE
  5
123A
330
1E
100
AcDbEntity
  8
LAYER_1
  6
Continuous
 62
     7
100
AcDbPolyline
 90
        4
 70
     0
 43
0.0
 10
1.591763999999999
 20
1.601193
 10
1.594512
 20
1.591026999999999
 10
1.601736
 20
1.583803999999999
 10
1.611901999999999
 20
1.581054999999999
  0
LWPOLYLINE
  5
1240
330
1E
100
AcDbEntity
  8
LAYER_1
  6
Continuous
 62
     7
100
AcDbPolyline
 90
        4
 70
     0
 43
0.0
 10
1.611901999999999
 20
1.581054999999999
 10
1.622076999999999
 20
1.583803999999999
 10
1.629305
 20
1.591026999999999
 10
1.632055
 20
1.601193
  0
LWPOLYLINE
  5
1246
330
1E
100
AcDbEntity
  8
LAYER_1
  6
Continuous
 62
     7
100
AcDbPolyline
 90
        4
 70
     0
 43
0.0
 10
1.632055
 20
1.601193
 10
1.629305
 20
1.611368
 10
1.622076999999999
 20
1.618596999999999
 10
1.611901999999999
 20
1.621345999999999
  0
TEXT
  5
124C
330
1E
100
AcDbEntity
  8
LAYER_1
 62
     7
100
AcDbText
 10
1.696609999999999
 20
1.665704999999999
 30
0.0
 40
0.11243
  1
0
 50
90.0
 41
0.8234927876691886
  7
SN1
 72
     5
 11
1.696609999999999
 21
1.740654999999999
 31
0.0
100
AcDbText
  0
TEXT
  5
124D
330
1E
100
AcDbEntity
  8
LAYER_1
 62
     7
100
AcDbText
 10
1.708893999999999
 20
1.444528
 30
0.0
 40
0.11243
  1
20
 50
90.0
 41
0.7567231021824991
  7
SN1
 72
     5
 11
1.708893999999999
 21
1.594427999999999
 31
0.0
100
AcDbText
  0
LWPOLYLINE
  5
124E
330
1E
100
AcDbEntity
  8
LAYER_1
  6
Continuous
 62
     7
100
AcDbPolyline
 90
        4
 70
     0
 43
0.0
 10
1.973775999999999
 20
-2.475290999999999
 10
1.973775999999999
 20
-2.474759999999999
 10
1.973775999999999
 20
-2.471044
 10
1.973775999999999
 20
-2.460957
  0
LWPOLYLINE
  5
1254
330
1E
100
AcDbEntity
  8
LAYER_1
  6
Continuous
 62
     7
100
AcDbPolyline
 90
        4
 70
     0
 43
0.0
 10
1.973775999999999
 20
-2.460957
 10
1.974458
 20
-2.443205999999999
 10
1.979236
 20
-2.424088999999999
 10
1.992205
 20
-2.411802999999999
  0
LWPOLYLINE
  5
125A
330
1E
100
AcDbEntity
  8
LAYER_1
  6
Continuous
 62
     7
100
AcDbPolyline
 90
        4
 70
     0
 43
0.0
 10
1.992205
 20
-2.411802999999999
 10
2.015722
 20
-2.410432
 10
2.045158
 20
-2.407700999999999
 10
2.074138
 20
-2.38722
  0
LWPOLYLINE
  5
1260
330
1E
100
AcDbEntity
  8
LAYER_1
  6
Continuous
 62
     7
100
AcDbPolyline
 90
        4
 70
     0
 43
0.0
 10
2.074138
 20
-2.38722
 10
2.097415999999999
 20
-2.338831
 10
2.114330999999999
 20
-2.277238
 10
2.125331
 20
-2.223386
  0
LWPOLYLINE
  5
1266
330
1E
100
AcDbEntity
  8
LAYER_1
  6
Continuous
 62
     7
100
AcDbPolyline
 90
        4
 70
     0
 43
0.0
 10
2.125331
 20
-2.223386
 10
2.131099
 20
-2.193127
 10
2.133224
 20
-2.181977999999999
 10
2.133528
 20
-2.180385999999999
  0
LWPOLYLINE
  5
126C
330
1E
100
AcDbEntity
  8
LAYER_1
  6
Continuous
 62
     7
100
AcDbPolyline
 90
        4
 70
     0
 43
0.0
 10
-2.416858
 20
1.871731999999999
 10
-2.416858
 20
1.870633
 10
-2.416858
 20
1.862934
 10
-2.416858
 20
1.842038999999999
  0
LWPOLYLINE
  5
1272
330
1E
100
AcDbEntity
  8
LAYER_1
  6
Continuous
 62
     7
100
AcDbPolyline
 90
        4
 70
     0
 43
0.0
 10
-2.416858
 20
1.842038999999999
 10
-2.417483999999999
 20
1.805743
 10
-2.421863
 20
1.769441999999999
 10
-2.433748
 20
1.752941
  0
LWPOLYLINE
  5
1278
330
1E
100
AcDbEntity
  8
LAYER_1
  6
Continuous
 62
     7
100
AcDbPolyline
 90
        4
 70
     0
 43
0.0
 10
-2.433748
 20
1.752941
 10
-2.455731999999999
 20
1.768674
 10
-2.485741999999999
 20
1.799599
 10
-2.520538999999999
 20
1.821302999999999
  0
LWPOLYLINE
  5
127E
330
1E
100
AcDbEntity
  8
LAYER_1
  6
Continuous
 62
     7
100
AcDbPolyline
 90
        4
 70
     0
 43
0.0
 10
-2.520538999999999
 20
1.821302999999999
 10
-2.556599
 20
1.816088999999999
 10
-2.589420999999999
 20
1.793068
 10
-2.614219999999999
 20
1.768054999999999
  0
LWPOLYLINE
  5
1284
330
1E
100
AcDbEntity
  8
LAYER_1
  6
Continuous
 62
     7
100
AcDbPolyline
 90
        4
 70
     0
 43
0.0
 10
-2.614219999999999
 20
1.768054999999999
 10
-2.627737999999999
 20
1.753462999999999
 10
-2.632718
 20
1.748086999999999
 10
-2.633429
 20
1.747318999999999
  0
LWPOLYLINE
  5
128A
330
1E
100
AcDbEntity
  8
LAYER_1
  6
Continuous
 62
     7
100
AcDbPolyline
 90
        2
 70
     0
 43
0.0
 10
-3.261575
 20
0.070957
 10
-3.205083
 20
0.070957
  0
LWPOLYLINE
  5
128E
330
1E
100
AcDbEntity
  8
LAYER_1
  6
Continuous
 62
     7
100
AcDbPolyline
 90
        2
 70
     0
 43
0.0
 10
-3.261575
 20
0.08515
 10
-3.205083
 20
0.08515
  0
LWPOLYLINE
  5
1292
330
1E
100
AcDbEntity
  8
LAYER_1
  6
Continuous
 62
     7
100
AcDbPolyline
 90
        2
 70
     0
 43
0.0
 10
-3.261575
 20
0.099205
 10
-3.205083
 20
0.099205
  0
LWPOLYLINE
  5
1296
330
1E
100
AcDbEntity
  8
LAYER_1
  6
Continuous
 62
     7
100
AcDbPolyline
 90
        2
 70
     0
 43
0.0
 10
-3.261575
 20
0.113248
 10
-3.205083
 20
0.113248
  0
LWPOLYLINE
  5
129A
330
1E
100
AcDbEntity
  8
LAYER_1
  6
Continuous
 62
     7
100
AcDbPolyline
 90
        2
 70
     0
 43
0.0
 10
-3.254554999999999
 20
0.063929
 10
-3.254554999999999
 20
0.120429
  0
LWPOLYLINE
  5
129E
330
1E
100
AcDbEntity
  8
LAYER_1
  6
Continuous
 62
     7
100
AcDbPolyline
 90
        2
 70
     0
 43
0.0
 10
-3.240349999999999
 20
0.063929
 10
-3.240349999999999
 20
0.120429
  0
LWPOLYLINE
  5
12A2
330
1E
100
AcDbEntity
  8
LAYER_1
  6
Continuous
 62
     7
100
AcDbPolyline
 90
        2
 70
     0
 43
0.0
 10
-3.226302999999999
 20
0.063929
 10
-3.226302999999999
 20
0.120429
  0
LWPOLYLINE
  5
12A6
330
1E
100
AcDbEntity
  8
LAYER_1
  6
Continuous
 62
     7
100
AcDbPolyline
 90
        2
 70
     0
 43
0.0
 10
-3.212102
 20
0.063929
 10
-3.212102
 20
0.120429
  0
LWPOLYLINE
  5
12AA
330
1E
100
AcDbEntity
  8
LAYER_1
  6
DASHED
 62
     7
100
AcDbPolyline
 90
        2
 70
     0
 43
0.0
 10
-3.455173
 20
0.125122
 10
-2.375386
 20
0.125122
  0
TEXT
  5
12AE
330
1E
100
AcDbEntity
  8
LAYER_1
 62
     7
100
AcDbText
 10
-3.593461
 20
0.416705
 30
0.0
 40
0.11243
  1
2.0 oz glass
 50
90.0
 41
0.6410006226096226
  7
SN1
 72
     5
 11
-3.593461
 21
1.137381999999999
 31
0.0
100
AcDbText
  0
TEXT
  5
12AF
330
1E
100
AcDbEntity
  8
LAYER_1
 62
     7
100
AcDbText
 10
-1.509819
 20
1.298386
 30
0.0
 40
0.11243
  1
123g cen caps
 41
0.6559187405496749
  7
SN1
 72
     5
 11
-0.631903
 21
1.298386
 31
0.0
100
AcDbText
  0
TEXT
  5
12B0
330
1E
100
AcDbEntity
  8
LAYER_1
 62
     7
100
AcDbText
 10
-1.509819
 20
1.16322
 30
0.0
 40
0.11243
  1
 37g cen web
 41
0.6301693602816919
  7
SN1
 72
     5
 11
-0.7068529999999999
 21
1.16322
 31
0.0
100
AcDbText
  0
TEXT
  5
12B1
330
1E
100
AcDbEntity
  8
LAYER_1
 62
     7
100
AcDbText
 10
-1.509819
 20
1.028051
 30
0.0
 40
0.11243
  1
 28g cen spar wrap
 41
0.6199286235391685
  7
SN1
 72
     5
 11
-0.361452
 21
1.028051
 31
0.0
100
AcDbText
  0
TEXT
  5
12B2
330
1E
100
AcDbEntity
  8
LAYER_1
 62
     7
100
AcDbText
 10
-1.509819
 20
0.892886
 30
0.0
 40
0.11243
  1
  6g joiner tubes
 41
0.6062423525989744
  7
SN1
 72
     5
 11
-0.54909
 21
0.892886
 31
0.0
100
AcDbText
  0
TEXT
  5
12B3
330
1E
100
AcDbEntity
  8
LAYER_1
 62
     7
100
AcDbText
 10
-1.509819
 20
0.75772
 30
0.0
 40
0.11243
  1
  6g joiner wood
 41
0.6116125405865364
  7
SN1
 72
     5
 11
-0.556952
 21
0.75772
 31
0.0
100
AcDbText
  0
TEXT
  5
12B4
330
1E
100
AcDbEntity
  8
LAYER_1
 62
     7
100
AcDbText
 10
-1.509819
 20
0.6225510000000001
 30
0.0
 40
0.11243
  1
 10g bolt beam
 41
0.6247894570104542
  7
SN1
 72
     5
 11
-0.6167030000000001
 21
0.6225510000000001
 31
0.0
100
AcDbText
  0
TEXT
  5
12B5
330
1E
100
AcDbEntity
  8
LAYER_1
 62
     7
100
AcDbText
 10
-1.509819
 20
0.487386
 30
0.0
 40
0.11243
  1
---------------
 41
0.340401490906711
  7
SN1
 72
     5
 11
-0.8336919999999999
 21
0.487386
 31
0.0
100
AcDbText
  0
TEXT
  5
12B6
330
1E
100
AcDbEntity
  8
LAYER_1
 62
     7
100
AcDbText
 10
-1.509819
 20
0.352217
 30
0.0
 40
0.11243
  1
210g cen spar
 41
0.6442345129442556
  7
SN1
 72
     5
 11
-0.65444
 21
0.352217
 31
0.0
100
AcDbText
  0
TEXT
  5
12B7
330
1E
100
AcDbEntity
  8
LAYER_1
 62
     7
100
AcDbText
 10
-1.476747999999999
 20
2.279885999999999
 30
0.0
 40
0.11243
  1
 62g tip spars
 41
0.6106806242163583
  7
SN1
 72
     5
 11
-0.66592
 21
2.279885999999999
 31
0.0
100
AcDbText
  0
TEXT
  5
12B8
330
1E
100
AcDbEntity
  8
LAYER_1
 62
     7
100
AcDbText
 10
-1.476747999999999
 20
2.144719999999999
 30
0.0
 40
0.11243
  1
103g tip foam
 41
0.6314851555017151
  7
SN1
 72
     5
 11
-0.658582
 21
2.144719999999999
 31
0.0
100
AcDbText
  0
TEXT
  5
12B9
330
1E
100
AcDbEntity
  8
LAYER_1
 62
     7
100
AcDbText
 10
-1.476747999999999
 20
2.009550999999999
 30
0.0
 40
0.11243
  1
 63g tip skin
 41
0.600938917548697
  7
SN1
 72
     5
 11
-0.7560700000000001
 21
2.009550999999999
 31
0.0
100
AcDbText
  0
TEXT
  5
12BA
330
1E
100
AcDbEntity
  8
LAYER_1
 62
     7
100
AcDbText
 10
-1.476747999999999
 20
1.874386
 30
0.0
 40
0.11243
  1
 10g tip paint
 41
0.599170050668687
  7
SN1
 72
     5
 11
-0.703658
 21
1.874386
 31
0.0
100
AcDbText
  0
TEXT
  5
12BB
330
1E
100
AcDbEntity
  8
LAYER_1
 62
     7
100
AcDbText
 10
-1.476747999999999
 20
1.739219999999999
 30
0.0
 40
0.11243
  1
---------------
 41
0.3404014909067108
  7
SN1
 72
     5
 11
-0.8006209999999999
 21
1.739219999999999
 31
0.0
100
AcDbText
  0
TEXT
  5
12BC
330
1E
100
AcDbEntity
  8
LAYER_1
 62
     7
100
AcDbText
 10
-1.476747999999999
 20
1.604051
 30
0.0
 40
0.11243
  1
238g tip panels
 41
0.6499256148904142
  7
SN1
 72
     5
 11
-0.561619
 21
1.604051
 31
0.0
100
AcDbText
  0
TEXT
  5
12BD
330
1E
100
AcDbEntity
  8
LAYER_1
 62
     7
100
AcDbText
 10
-3.267831
 20
-1.334512
 30
0.0
 40
0.11243
  1
1.7 oz Kevlar
 50
90.0
 41
0.6486303176014366
  7
SN1
 72
     5
 11
-3.267831
 21
-0.5462220000000001
 31
0.0
100
AcDbText
  0
LWPOLYLINE
  5
12BE
330
1E
100
AcDbEntity
  8
LAYER_1
  6
DASHED
 62
     7
100
AcDbPolyline
 90
        2
 70
     0
 43
0.0
 10
-3.480476
 20
-2.145066999999999
 10
-2.628012
 20
-2.997527999999999
  0
LWPOLYLINE
  5
12C2
330
1E
100
AcDbEntity
  8
LAYER_1
  6
Continuous
 62
     7
100
AcDbPolyline
 90
        2
 70
     0
 43
0.0
 10
-3.383815
 20
-3.349302999999999
 10
-3.301416999999999
 20
-3.431693
  0
LWPOLYLINE
  5
12C6
330
1E
100
AcDbEntity
  8
LAYER_1
  6
Continuous
 62
     7
100
AcDbPolyline
 90
        2
 70
     0
 43
0.0
 10
-3.363105999999999
 20
-3.328594
 10
-3.280708999999999
 20
-3.410983999999999
  0
LWPOLYLINE
  5
12CA
330
1E
100
AcDbEntity
  8
LAYER_1
  6
Continuous
 62
     7
100
AcDbPolyline
 90
        2
 70
     0
 43
0.0
 10
-3.342621999999999
 20
-3.308109999999999
 10
-3.260224
 20
-3.390499999999999
  0
LWPOLYLINE
  5
12CE
330
1E
100
AcDbEntity
  8
LAYER_1
  6
Continuous
 62
     7
100
AcDbPolyline
 90
        2
 70
     0
 43
0.0
 10
-3.322133999999999
 20
-3.287622
 10
-3.23974
 20
-3.370012
  0
LWPOLYLINE
  5
12D2
330
1E
100
AcDbEntity
  8
LAYER_1
  6
Continuous
 62
     7
100
AcDbPolyline
 90
        2
 70
     0
 43
0.0
 10
-3.383815
 20
-3.369791
 10
-3.301416999999999
 20
-3.287386
  0
LWPOLYLINE
  5
12D6
330
1E
100
AcDbEntity
  8
LAYER_1
  6
Continuous
 62
     7
100
AcDbPolyline
 90
        2
 70
     0
 43
0.0
 10
-3.363101999999999
 20
-3.390499999999999
 10
-3.280705
 20
-3.308109999999999
  0
LWPOLYLINE
  5
12DA
330
1E
100
AcDbEntity
  8
LAYER_1
  6
Continuous
 62
     7
100
AcDbPolyline
 90
        2
 70
     0
 43
0.0
 10
-3.342613999999999
 20
-3.410983999999999
 10
-3.260219999999999
 20
-3.328594
  0
LWPOLYLINE
  5
12DE
330
1E
100
AcDbEntity
  8
LAYER_1
  6
Continuous
 62
     7
100
AcDbPolyline
 90
        2
 70
     0
 43
0.0
 10
-3.321905999999999
 20
-3.431693
 10
-3.239511999999999
 20
-3.349302999999999
  0
TEXT
  5
12E2
330
1E
100
AcDbEntity
  8
LAYER_1
 62
     7
100
AcDbText
 10
-3.280311
 20
-3.173232
 30
0.0
 40
0.11243
  1
2.4 oz CF
 50
90.0
 41
0.6553909525075085
  7
SN1
 72
     5
 11
-3.280311
 21
-2.587256
 31
0.0
100
AcDbText
  0
LWPOLYLINE
  5
12E3
330
1E
100
AcDbEntity
  8
LAYER_1
  6
Continuous
 62
     7
100
AcDbPolyline
 90
        2
 70
     0
 43
0.0
 10
-2.892298999999999
 20
-3.545901999999999
 10
-2.809902
 20
-3.628302999999999
  0
LWPOLYLINE
  5
12E7
330
1E
100
AcDbEntity
  8
LAYER_1
  6
Continuous
 62
     7
100
AcDbPolyline
 90
        2
 70
     0
 43
0.0
 10
-2.871591
 20
-3.525193
 10
-2.789193
 20
-3.607582999999999
  0
LWPOLYLINE
  5
12EB
330
1E
100
AcDbEntity
  8
LAYER_1
  6
Continuous
 62
     7
100
AcDbPolyline
 90
        2
 70
     0
 43
0.0
 10
-2.851109999999999
 20
-3.504705
 10
-2.768704999999999
 20
-3.587094
  0
LWPOLYLINE
  5
12EF
330
1E
100
AcDbEntity
  8
LAYER_1
  6
Continuous
 62
     7
100
AcDbPolyline
 90
        2
 70
     0
 43
0.0
 10
-2.830621999999999
 20
-3.484219999999999
 10
-2.748219999999999
 20
-3.566609999999999
  0
LWPOLYLINE
  5
12F3
330
1E
100
AcDbEntity
  8
LAYER_1
  6
Continuous
 62
     7
100
AcDbPolyline
 90
        2
 70
     0
 43
0.0
 10
-2.892298999999999
 20
-3.566386
 10
-2.809902
 20
-3.483999999999999
  0
LWPOLYLINE
  5
12F7
330
1E
100
AcDbEntity
  8
LAYER_1
  6
Continuous
 62
     7
100
AcDbPolyline
 90
        2
 70
     0
 43
0.0
 10
-2.871586999999999
 20
-3.587094
 10
-2.789193
 20
-3.504705
  0
LWPOLYLINE
  5
12FB
330
1E
100
AcDbEntity
  8
LAYER_1
  6
Continuous
 62
     7
100
AcDbPolyline
 90
        2
 70
     0
 43
0.0
 10
-2.851093999999999
 20
-3.607582999999999
 10
-2.768704999999999
 20
-3.525193
  0
LWPOLYLINE
  5
12FF
330
1E
100
AcDbEntity
  8
LAYER_1
  6
Continuous
 62
     7
100
AcDbPolyline
 90
        2
 70
     0
 43
0.0
 10
-2.830385999999999
 20
-3.628302999999999
 10
-2.748
 20
-3.545901999999999
  0
LWPOLYLINE
  5
1303
330
1E
100
AcDbEntity
  8
LAYER_1
  6
DASHED
 62
     7
100
AcDbPolyline
 90
        2
 70
     0
 43
0.0
 10
-3.467461
 20
-0.013122
 10
-2.387665
 20
-0.013122
  0
LWPOLYLINE
  5
1307
330
1E
100
AcDbEntity
  8
LAYER_1
  6
Continuous
 62
     7
100
AcDbPolyline
 90
        4
 70
     0
 43
0.0
 10
-3.638676999999999
 20
0.347831
 10
-3.638715
 20
0.346958
 10
-3.63898
 20
0.340851
 10
-3.639701
 20
0.324276
  0
LWPOLYLINE
  5
130D
330
1E
100
AcDbEntity
  8
LAYER_1
  6
Continuous
 62
     7
100
AcDbPolyline
 90
        4
 70
     0
 43
0.0
 10
-3.639701
 20
0.324276
 10
-3.640420999999999
 20
0.294888
 10
-3.637955999999999
 20
0.2618559999999999
 10
-3.628437
 20
0.237248
  0
LWPOLYLINE
  5
1313
330
1E
100
AcDbEntity
  8
LAYER_1
  6
Continuous
 62
     7
100
AcDbPolyline
 90
        4
 70
     0
 43
0.0
 10
-3.628437
 20
0.237248
 10
-3.608658
 20
0.228236
 10
-3.578071
 20
0.222527
 10
-3.536787
 20
0.202941
  0
LWPOLYLINE
  5
1319
330
1E
100
AcDbEntity
  8
LAYER_1
  6
Continuous
 62
     7
100
AcDbPolyline
 90
        4
 70
     0
 43
0.0
 10
-3.536787
 20
0.202941
 10
-3.486654
 20
0.158335
 10
-3.436404
 20
0.101788
 10
-3.396504
 20
0.052413
  0
LWPOLYLINE
  5
131F
330
1E
100
AcDbEntity
  8
LAYER_1
  6
Continuous
 62
     7
100
AcDbPolyline
 90
        4
 70
     0
 43
0.0
 10
-3.396504
 20
0.052413
 10
-3.374526
 20
0.024678
 10
-3.366427999999999
 20
0.01446
 10
-3.365272
 20
0.013
  0
LWPOLYLINE
  5
1325
330
1E
100
AcDbEntity
  8
LAYER_1
  6
Continuous
 62
     7
100
AcDbPolyline
 90
        4
 70
     0
 43
0.0
 10
-3.638676999999999
 20
0.347831
 10
-3.638695999999999
 20
0.346978
 10
-3.63883
 20
0.341008
 10
-3.639193
 20
0.324803
  0
LWPOLYLINE
  5
132B
330
1E
100
AcDbEntity
  8
LAYER_1
  6
Continuous
 62
     7
100
AcDbPolyline
 90
        4
 70
     0
 43
0.0
 10
-3.639193
 20
0.324803
 10
-3.639304
 20
0.296376
 10
-3.636344999999999
 20
0.266356
 10
-3.626901999999999
 20
0.248512
  0
LWPOLYLINE
  5
1331
330
1E
100
AcDbEntity
  8
LAYER_1
  6
Continuous
 62
     7
100
AcDbPolyline
 90
        4
 70
     0
 43
0.0
 10
-3.626901999999999
 20
0.248512
 10
-3.607957999999999
 20
0.250996
 10
-3.578091
 20
0.2595070000000001
 10
-3.536276
 20
0.254138
  0
LWPOLYLINE
  5
1337
330
1E
100
AcDbEntity
  8
LAYER_1
  6
Continuous
 62
     7
100
AcDbPolyline
 90
        4
 70
     0
 43
0.0
 10
-3.536276
 20
0.254138
 10
-3.483636
 20
0.221465
 10
-3.429858999999999
 20
0.174003
 10
-3.386776
 20
0.130748
  0
LWPOLYLINE
  5
133D
330
1E
100
AcDbEntity
  8
LAYER_1
  6
Continuous
 62
     7
100
AcDbPolyline
 90
        4
 70
     0
 43
0.0
 10
-3.386776
 20
0.130748
 10
-3.362994
 20
0.106246
 10
-3.354232
 20
0.097219
 10
-3.35298
 20
0.095929
  0
LWPOLYLINE
  5
1343
330
1E
100
AcDbEntity
  8
LAYER_1
  6
DASHED
 62
     7
100
AcDbPolyline
 90
        2
 70
     0
 43
0.0
 10
-3.343771999999999
 20
2.774677
 10
-2.489764
 20
1.920676999999999
  0
LWPOLYLINE
  5
1347
330
1E
100
AcDbEntity
  8
LAYER_1
  6
DASHED
 62
     7
100
AcDbPolyline
 90
        5
 70
     0
 43
0.0
 10
-2.451373999999999
 20
0.06215
 10
-2.677165
 20
3.284622
 10
-2.757038999999999
 20
4.043401999999999
 10
-2.780066999999999
 20
4.067984
 10
-2.624941
 20
0.06215
  0
TEXT
  5
134E
330
1E
100
AcDbEntity
  8
LAYER_1
 62
     7
100
AcDbText
 10
-1.533940999999999
 20
-0.017941
 30
0.0
 40
0.11243
  1
210g cen spar
 41
0.6442345129442555
  7
SN1
 72
     5
 11
-0.678562
 21
-0.017941
 31
0.0
100
AcDbText
  0
TEXT
  5
134F
330
1E
100
AcDbEntity
  8
LAYER_1
 62
     7
100
AcDbText
 10
-1.533940999999999
 20
-0.15311
 30
0.0
 40
0.11243
  1
165g cen foam
 41
0.646584438068958
  7
SN1
 72
     5
 11
-0.640825
 21
-0.15311
 31
0.0
100
AcDbText
  0
TEXT
  5
1350
330
1E
100
AcDbEntity
  8
LAYER_1
 62
     7
100
AcDbText
 10
-1.533940999999999
 20
-0.288276
 30
0.0
 40
0.11243
  1
110g cen skin
 41
0.6508805292888895
  7
SN1
 72
     5
 11
-0.7011
 21
-0.288276
 31
0.0
100
AcDbText
  0
TEXT
  5
1351
330
1E
100
AcDbEntity
  8
LAYER_1
 62
     7
100
AcDbText
 10
-1.533940999999999
 20
-0.423445
 30
0.0
 40
0.11243
  1
 15g cen paint
 41
0.616340647410183
  7
SN1
 72
     5
 11
-0.6859
 21
-0.423445
 31
0.0
100
AcDbText
  0
TEXT
  5
1352
330
1E
100
AcDbEntity
  8
LAYER_1
 62
     7
100
AcDbText
 10
-1.533940999999999
 20
-0.55861
 30
0.0
 40
0.11243
  1
 --------------
 41
0.3403769490480424
  7
SN1
 72
     5
 11
-0.8651519999999999
 21
-0.55861
 31
0.0
100
AcDbText
  0
TEXT
  5
1353
330
1E
100
AcDbEntity
  8
LAYER_1
 62
     7
100
AcDbText
 10
-1.533940999999999
 20
-0.6937800000000001
 30
0.0
 40
0.11243
  1
500g cen panel
 41
0.6601572779384572
  7
SN1
 72
     5
 11
-0.611474
 21
-0.6937800000000001
 31
0.0
100
AcDbText
  0
TEXT
  5
1354
330
1E
100
AcDbEntity
  8
LAYER_1
 62
     7
100
AcDbText
 10
-1.525897999999999
 20
-1.160716999999999
 30
0.0
 40
0.11243
  1
500g cen panel
 41
0.6601579935817027
  7
SN1
 72
     5
 11
-0.60343
 21
-1.160716999999999
 31
0.0
100
AcDbText
  0
TEXT
  5
1355
330
1E
100
AcDbEntity
  8
LAYER_1
 62
     7
100
AcDbText
 10
-1.525897999999999
 20
-1.295881999999999
 30
0.0
 40
0.11243
  1
238g tip panels
 41
0.6499263250915054
  7
SN1
 72
     5
 11
-0.6107680000000001
 21
-1.295881999999999
 31
0.0
100
AcDbText
  0
TEXT
  5
1356
330
1E
100
AcDbEntity
  8
LAYER_1
 62
     7
100
AcDbText
 10
-1.525897999999999
 20
-1.431051
 30
0.0
 40
0.11243
  1
 29g joiner rods
 41
0.6228305497614285
  7
SN1
 72
     5
 11
-0.595568
 21
-1.431051
 31
0.0
100
AcDbText
  0
TEXT
  5
1357
330
1E
100
AcDbEntity
  8
LAYER_1
 62
     7
100
AcDbText
 10
-1.525897999999999
 20
-1.566216999999999
 30
0.0
 40
0.11243
  1
----------------
 41
0.3401722014236466
  7
SN1
 72
     5
 11
-0.804696
 21
-1.566216999999999
 31
0.0
100
AcDbText
  0
TEXT
  5
1358
330
1E
100
AcDbEntity
  8
LAYER_1
 62
     7
100
AcDbText
 10
-1.525897999999999
 20
-1.701381999999999
 30
0.0
 40
0.11243
  1
767g total 
 41
0.6133950013341633
  7
SN1
 72
     5
 11
-0.8953700000000001
 21
-1.701381999999999
 31
0.0
100
AcDbText
  0
TEXT
  5
1359
330
1E
100
AcDbEntity
  8
LAYER_1
 62
     7
100
AcDbText
 10
-1.525897999999999
 20
-1.836550999999999
 30
0.0
 40
0.11243
  1
27.0 oz total
 41
0.6363398954411139
  7
SN1
 72
     5
 11
-0.79002
 21
-1.836550999999999
 31
0.0
100
AcDbText
  0
TEXT
  5
135A
330
1E
100
AcDbEntity
  8
LAYER_1
 62
     7
100
AcDbText
 10
3.182818999999999
 20
-0.103732
 30
0.0
 40
0.11243
  1
Hi-Load 60 foam
 50
90.0
 41
0.6340084624083558
  7
SN1
 72
     5
 11
3.182818999999999
 21
0.8942099999999999
 31
0.0
100
AcDbText
  0
TEXT
  5
135B
330
1E
100
AcDbEntity
  8
LAYER_1
 62
     7
100
AcDbText
 10
1.106176999999999
 20
-0.914732
 30
0.0
 40
0.11243
  1
Hi-Load 60 foam
 50
90.0
 41
0.6340084624083557
  7
SN1
 72
     5
 11
1.106176999999999
 21
0.08321
 31
0.0
100
AcDbText
  0
TEXT
  5
135C
330
1E
100
AcDbEntity
  8
LAYER_1
 62
     7
100
AcDbText
 10
1.788154
 20
-3.144968999999999
 30
0.0
 40
0.11243
  1
hard
 50
90.0
 41
0.720253491061105
  7
SN1
 72
     5
 11
1.788154
 21
-2.875041999999999
 31
0.0
100
AcDbText
  0
TEXT
  5
135D
330
1E
100
AcDbEntity
  8
LAYER_1
 62
     7
100
AcDbText
 10
1.923322999999999
 20
-3.144968999999999
 30
0.0
 40
0.11243
  1
endgrain
 50
90.0
 41
0.7153021084976797
  7
SN1
 72
     5
 11
1.923322999999999
 21
-2.620315
 31
0.0
100
AcDbText
  0
TEXT
  5
135E
330
1E
100
AcDbEntity
  8
LAYER_1
 62
     7
100
AcDbText
 10
2.058488
 20
-3.144968999999999
 30
0.0
 40
0.11243
  1
balsa
 50
90.0
 41
0.7342389736269494
  7
SN1
 72
     5
 11
2.058488
 21
-2.822629
 31
0.0
100
AcDbText
  0
TEXT
  5
135F
330
1E
100
AcDbEntity
  8
LAYER_1
 62
     7
100
AcDbText
 10
2.193656999999999
 20
-3.144968999999999
 30
0.0
 40
0.11243
  1
at joiner
 50
90.0
 41
0.6405358889975982
  7
SN1
 72
     5
 11
2.193656999999999
 21
-2.664865999999999
 31
0.0
100
AcDbText
  0
TEXT
  5
1360
330
1E
100
AcDbEntity
  8
LAYER_1
 62
     7
100
AcDbText
 10
0.258323
 20
-1.307941
 30
0.0
 40
0.11243
  1
Hi-Load 60 foam spar core
 50
90.0
 41
0.6259748483612729
  7
SN1
 72
     5
 11
0.258323
 21
0.290653
 31
0.0
100
AcDbText
  0
LWPOLYLINE
  5
1361
330
1E
100
AcDbEntity
  8
LAYER_1
  6
Continuous
 62
     7
100
AcDbPolyline
 90
        4
 70
     0
 43
0.0
 10
0.222764
 20
-1.350956999999999
 10
0.222688
 20
-1.351412
 10
0.222158
 20
-1.354598999999999
 10
0.22072
 20
-1.363248
  0
LWPOLYLINE
  5
1367
330
1E
100
AcDbEntity
  8
LAYER_1
  6
Continuous
 62
     7
100
AcDbPolyline
 90
        4
 70
     0
 43
0.0
 10
0.22072
 20
-1.363248
 10
0.2186
 20
-1.378875
 10
0.218753
 20
-1.398141
 10
0.224819
 20
-1.4165
  0
LWPOLYLINE
  5
136D
330
1E
100
AcDbEntity
  8
LAYER_1
  6
Continuous
 62
     7
100
AcDbPolyline
 90
        4
 70
     0
 43
0.0
 10
0.224819
 20
-1.4165
 10
0.2386989999999999
 20
-1.431283999999999
 10
0.255313
 20
-1.44744
 10
0.267831
 20
-1.471791
  0
LWPOLYLINE
  5
1373
330
1E
100
AcDbEntity
  8
LAYER_1
  6
Continuous
 62
     7
100
AcDbPolyline
 90
        4
 70
     0
 43
0.0
 10
0.267831
 20
-1.471791
 10
0.271315
 20
-1.508197999999999
 10
0.268434
 20
-1.548696999999999
 10
0.263732
 20
-1.582373999999999
  0
LWPOLYLINE
  5
1379
330
1E
100
AcDbEntity
  8
LAYER_1
  6
Continuous
 62
     7
100
AcDbPolyline
 90
        4
 70
     0
 43
0.0
 10
0.263732
 20
-1.582373999999999
 10
0.260851
 20
-1.601110999999999
 10
0.259789
 20
-1.608013999999999
 10
0.259638
 20
-1.608999999999999
  0
TEXT
  5
137F
330
1E
100
AcDbEntity
  8
LAYER_1
 62
     7
100
AcDbText
 10
2.851039
 20
-1.221929
 30
0.0
 40
0.11243
  1
endgrain balsa spar core
 50
90.0
 41
0.649751612296467
  7
SN1
 72
     5
 11
2.851039
 21
0.263453
 31
0.0
100
AcDbText
  0
TEXT
  5
1380
330
1E
100
AcDbEntity
  8
LAYER_1
 62
     7
100
AcDbText
 10
2.986209
 20
-1.221929
 30
0.0
 40
0.11243
  1
over wing saddle
 50
90.0
 41
0.6683375505889963
  7
SN1
 72
     5
 11
2.986209
 21
-0.209312
 31
0.0
100
AcDbText
  0
TEXT
  5
1381
330
1E
100
AcDbEntity
  8
LAYER_1
 62
     7
100
AcDbText
 10
3.625538999999999
 20
4.240483999999999
 30
0.0
 40
0.099938
  1
+12 winch
 50
90.0
 41
0.6690888235098837
  7
SN1
 72
     5
 11
3.625538999999999
 21
4.791344
 31
0.0
100
AcDbText
  0
TEXT
  5
1382
330
1E
100
AcDbEntity
  8
LAYER_1
 62
     7
100
AcDbText
 10
1.797747999999999
 20
3.859626
 30
0.0
 40
0.099938
  1
+12 winch
 50
90.0
 41
0.669088823509882
  7
SN1
 72
     5
 11
1.797747999999999
 21
4.410485999999999
 31
0.0
100
AcDbText
  0
LWPOLYLINE
  5
1383
330
1E
100
AcDbEntity
  8
LAYER_1
  6
Continuous
 62
     7
100
AcDbPolyline
 90
       11
 70
     0
 43
0.0
 10
1.212830999999999
 20
1.675775999999999
 10
1.234067
 20
2.080929
 10
1.261357999999999
 20
2.550345999999999
 10
1.300469
 20
3.194011999999999
 10
1.321582999999999
 20
3.494231999999999
 10
1.34565
 20
3.850819
 10
1.334913
 20
3.851373999999999
 10
1.220957
 20
3.217011999999999
 10
1.119264
 20
2.662704999999999
 10
1.021527999999999
 20
2.132429
 10
0.9597479999999999
 20
1.775138
  0
LWPOLYLINE
  5
1390
330
1E
100
AcDbEntity
  8
LAYER_1
  6
Continuous
 62
     7
100
AcDbPolyline
 90
        9
 70
     0
 43
0.0
 10
3.264676999999999
 20
2.200345999999999
 10
3.482983999999999
 20
2.681275999999999
 10
3.740345999999999
 20
3.233176999999999
 10
4.002512
 20
3.785830999999999
 10
4.299083
 20
4.402705
 10
4.291763999999999
 20
4.406121999999999
 10
3.685583
 20
3.472791
 10
3.328845999999999
 20
2.918165
 10
3.019775999999999
 20
2.427527999999999
  0
TEXT
  5
139B
330
1E
100
AcDbEntity
  8
LAYER_1
 62
     7
100
AcDbText
 10
3.908165
 20
3.801192999999999
 30
0.0
 40
0.099938
  1
+25 crawl
 50
90.0
 41
0.6588339261360007
  7
SN1
 72
     5
 11
3.908165
 21
4.324798
 31
0.0
100
AcDbText
  0
LWPOLYLINE
  5
139C
330
1E
100
AcDbEntity
  8
LAYER_1
  6
Continuous
 62
     7
100
AcDbPolyline
 90
       11
 70
     0
 43
0.0
 10
1.213122
 20
1.692902
 10
1.269594
 20
2.094664999999999
 10
1.337677
 20
2.559902
 10
1.432747999999999
 20
3.197719999999999
 10
1.479956999999999
 20
3.494969
 10
1.535012
 20
3.848083
 10
1.524358
 20
3.849582999999999
 10
1.355554999999999
 20
3.227554999999999
 10
1.205929
 20
2.684232
 10
1.062346
 20
2.164483999999999
 10
0.9696649999999999
 20
1.813940999999999
  0
TEXT
  5
13A9
330
1E
100
AcDbEntity
  8
LAYER_1
 62
     7
100
AcDbText
 10
1.588858
 20
3.933358
 30
0.0
 40
0.099938
  1
+8 crawl
 50
90.0
 41
0.6518227015035038
  7
SN1
 72
     5
 11
1.588858
 21
4.389351
 31
0.0
100
AcDbText
  0
LWPOLYLINE
  5
13AA
330
1E
100
AcDbEntity
  8
LAYER_1
  6
Continuous
 62
     7
100
AcDbPolyline
 90
       11
 70
     0
 43
0.0
 10
1.213082999999999
 20
1.692539
 10
1.108082999999999
 20
2.084429
 10
0.9889839999999999
 20
2.539290999999999
 10
0.8272759999999999
 20
3.163539
 10
0.7545830000000001
 20
3.45561
 10
0.667291
 20
3.802165
 10
0.6569020000000001
 20
3.799373999999999
 10
0.744555
 20
3.160845999999999
 10
0.8191219999999999
 20
2.602247999999999
 10
0.890028
 20
2.06772
 10
0.941693
 20
1.708831
  0
TEXT
  5
13B7
330
1E
100
AcDbEntity
  8
LAYER_1
 62
     7
100
AcDbText
 10
0.7137760000000001
 20
3.859012
 30
0.0
 40
0.099938
  1
-15 brake
 50
90.0
 41
0.6196693674215941
  7
SN1
 72
     5
 11
0.7137760000000001
 21
4.372133999999999
 31
0.0
100
AcDbText
  0
TEXT
  5
13B8
330
1E
100
AcDbEntity
  8
LAYER_1
 62
     7
100
AcDbText
 10
3.313441
 20
4.738787
 30
0.0
 40
0.099938
  1
0
 50
90.0
 41
0.8357375690575178
  7
SN1
 72
     5
 11
3.313441
 21
4.8064
 31
0.0
100
AcDbText
  0
TEXT
  5
13B9
330
1E
100
AcDbEntity
  8
LAYER_1
 62
     7
100
AcDbText
 10
3.183488
 20
4.675219999999999
 30
0.0
 40
0.099938
  1
-2 run
 50
90.0
 41
0.5744146715791392
  7
SN1
 72
     5
 11
3.183488
 21
4.992319
 31
0.0
100
AcDbText
  0
TEXT
  5
13BA
330
1E
100
AcDbEntity
  8
LAYER_1
 62
     7
100
AcDbText
 10
3.44924
 20
4.674593999999999
 30
0.0
 40
0.099938
  1
+3 float
 50
90.0
 41
0.6157936898979553
  7
SN1
 72
     5
 11
3.44924
 21
5.076076999999999
 31
0.0
100
AcDbText
  0
TEXT
  5
13BB
330
1E
100
AcDbEntity
  8
LAYER_1
 62
     7
100
AcDbText
 10
0.529461
 20
3.828291
 30
0.0
 40
0.099938
  1
-20 max ail.
 50
90.0
 41
0.5970238652036661
  7
SN1
 72
     5
 11
0.529461
 21
4.456198
 31
0.0
100
AcDbText
  0
TEXT
  5
13BC
330
1E
100
AcDbEntity
  8
LAYER_1
 62
     7
100
AcDbText
 10
2.734975999999999
 20
4.361881999999999
 30
0.0
 40
0.099938
  1
-10 max ail.
 50
90.0
 41
0.5970238652036669
  7
SN1
 72
     5
 11
2.734975999999999
 21
4.989789
 31
0.0
100
AcDbText
  0
SOLID
  5
13BD
330
1E
100
AcDbEntity
  8
LAYER_1
  6
Continuous
100
AcDbTrace
 10
2.895358
 20
-4.974334999999999
 30
0.0
 11
3.119613999999999
 21
-4.974334999999999
 31
0.0
 12
2.895358
 22
-4.539654
 32
0.0
 13
3.119613999999999
 23
-4.539654
 33
0.0
  0
LWPOLYLINE
  5
13BE
330
1E
100
AcDbEntity
  8
LAYER_1
  6
Continuous
100
AcDbPolyline
 90
        4
 70
     1
 43
0.0
 10
2.895358
 20
-4.974334999999999
 10
3.119613999999999
 20
-4.974334999999999
 10
3.119613999999999
 20
-4.539654
 10
2.895358
 20
-4.539654
  0
TEXT
  5
13C4
330
1E
100
AcDbEntity
  8
LAYER_1
 62
     7
100
AcDbText
 10
2.828902
 20
-4.943349999999999
 30
0.0
 40
0.099938
  1
x=0.0in
 50
90.0
 41
0.6978320676466466
  7
SN0
 72
     5
 11
2.828902
 21
-4.548156999999999
 31
0.0
100
AcDbText
  0
TEXT
  5
13C5
330
1E
100
AcDbEntity
  8
LAYER_1
 62
     7
100
AcDbText
 10
2.950554999999999
 20
-4.943349999999999
 30
0.0
 40
0.099938
  1
y=0.0
 50
90.0
 41
0.7090740079073746
  7
SN0
 72
     5
 11
2.950554999999999
 21
-4.643023999999999
 31
0.0
100
AcDbText
  0
TEXT
  5
13C6
330
1E
100
AcDbEntity
  8
LAYER_1
 62
     7
100
AcDbText
 10
3.072204999999999
 20
-4.943349999999999
 30
0.0
 40
0.099938
  1
c= 9.75in
 50
90.0
 41
0.6518635303888408
  7
SN0
 72
     5
 11
3.072204999999999
 21
-4.447
 31
0.0
100
AcDbText
  0
TEXT
  5
13C7
330
1E
100
AcDbEntity
  8
LAYER_1
 62
     7
100
AcDbText
 10
3.193858
 20
-4.943349999999999
 30
0.0
 40
0.099938
  1
AG40d
 50
90.0
 41
0.8197702162969894
  7
SN0
 72
     5
 11
3.193858
 21
-4.564929
 31
0.0
100
AcDbText
  0
TEXT
  5
13C8
330
1E
100
AcDbEntity
  8
LAYER_1
 62
     7
100
AcDbText
 10
3.315512
 20
-4.943349999999999
 30
0.0
 40
0.099938
  1
0 deg
 50
90.0
 41
0.6724058389885932
  7
SN0
 72
     5
 11
3.315512
 21
-4.639355
 31
0.0
100
AcDbText
  0
LWPOLYLINE
  5
13C9
330
1E
100
AcDbEntity
  8
LAYER_1
  6
Continuous
 62
     7
100
AcDbPolyline
 90
        4
 70
     0
 43
0.0
 10
3.037999999999999
 20
-1.492830999999999
 10
3.037973
 20
-1.492062999999999
 10
3.037781999999999
 20
-1.486690999999999
 10
3.037263999999999
 20
-1.472109999999999
  0
LWPOLYLINE
  5
13CF
330
1E
100
AcDbEntity
  8
LAYER_1
  6
Continuous
 62
     7
100
AcDbPolyline
 90
        4
 70
     0
 43
0.0
 10
3.037263999999999
 20
-1.472109999999999
 10
3.036325999999999
 20
-1.445246999999999
 10
3.035067999999999
 20
-1.409175
 10
3.03365
 20
-1.3685
  0
LWPOLYLINE
  5
13D5
330
1E
100
AcDbEntity
  8
LAYER_1
  6
Continuous
 62
     7
100
AcDbPolyline
 90
        4
 70
     0
 43
0.0
 10
3.03365
 20
-1.3685
 10
3.032995999999999
 20
-1.327795
 10
3.037104999999999
 20
-1.291530999999999
 10
3.050748
 20
-1.26415
  0
LWPOLYLINE
  5
13DB
330
1E
100
AcDbEntity
  8
LAYER_1
  6
Continuous
 62
     7
100
AcDbPolyline
 90
        4
 70
     0
 43
0.0
 10
3.050748
 20
-1.26415
 10
3.076362
 20
-1.249425999999999
 10
3.107064999999999
 20
-1.248358
 10
3.133649999999999
 20
-1.261263999999999
  0
LWPOLYLINE
  5
13E1
330
1E
100
AcDbEntity
  8
LAYER_1
  6
Continuous
 62
     7
100
AcDbPolyline
 90
        4
 70
     0
 43
0.0
 10
3.133649999999999
 20
-1.261263999999999
 10
3.149168999999999
 20
-1.287617
 10
3.155799
 20
-1.323499999999999
 10
3.157983999999999
 20
-1.364149999999999
  0
LWPOLYLINE
  5
13E7
330
1E
100
AcDbEntity
  8
LAYER_1
  6
Continuous
 62
     7
100
AcDbPolyline
 90
        4
 70
     0
 43
0.0
 10
3.157983999999999
 20
-1.364149999999999
 10
3.159406
 20
-1.404837999999999
 10
3.160668999999999
 20
-1.440914
 10
3.16161
 20
-1.467775999999999
  0
LWPOLYLINE
  5
13ED
330
1E
100
AcDbEntity
  8
LAYER_1
  6
Continuous
 62
     7
100
AcDbPolyline
 90
        4
 70
     0
 43
0.0
 10
3.16161
 20
-1.467775999999999
 10
3.162116999999999
 20
-1.482347999999999
 10
3.162304
 20
-1.487716999999999
 10
3.162331
 20
-1.488483999999999
  0
LWPOLYLINE
  5
13F3
330
1E
100
AcDbEntity
  8
LAYER_1
  6
Continuous
 62
     7
100
AcDbPolyline
 90
        4
 70
     0
 43
0.0
 10
1.562138
 20
-1.220763999999999
 10
1.5621
 20
-1.221597999999999
 10
1.561833
 20
-1.227438999999999
 10
1.56111
 20
-1.243290999999999
  0
LWPOLYLINE
  5
13F9
330
1E
100
AcDbEntity
  8
LAYER_1
  6
Continuous
 62
     7
100
AcDbPolyline
 90
        4
 70
     0
 43
0.0
 10
1.56111
 20
-1.243290999999999
 10
1.561209
 20
-1.270768
 10
1.569379
 20
-1.297906
 10
1.594386
 20
-1.309345999999999
  0
LWPOLYLINE
  5
13FF
330
1E
100
AcDbEntity
  8
LAYER_1
  6
Continuous
 62
     7
100
AcDbPolyline
 90
        4
 70
     0
 43
0.0
 10
1.594386
 20
-1.309345999999999
 10
1.641022999999999
 20
-1.297091999999999
 10
1.698123
 20
-1.282680999999999
 10
1.750554999999999
 20
-1.295012
  0
LWPOLYLINE
  5
1405
330
1E
100
AcDbEntity
  8
LAYER_1
  6
Continuous
 62
     7
100
AcDbPolyline
 90
        4
 70
     0
 43
0.0
 10
1.750554999999999
 20
-1.295012
 10
1.786526999999999
 20
-1.352859999999999
 10
1.807593999999999
 20
-1.434603
 10
1.81865
 20
-1.508495999999999
  0
LWPOLYLINE
  5
140B
330
1E
100
AcDbEntity
  8
LAYER_1
  6
Continuous
 62
     7
100
AcDbPolyline
 90
        4
 70
     0
 43
0.0
 10
1.81865
 20
-1.508495999999999
 10
1.824054999999999
 20
-1.5503
 10
1.826045999999999
 20
-1.565700999999999
 10
1.826331
 20
-1.567902
  0
LWPOLYLINE
  5
1411
330
1E
100
AcDbEntity
  8
LAYER_1
  6
Continuous
 62
     7
100
AcDbPolyline
 90
        4
 70
     0
 43
0.0
 10
2.105874
 20
-1.116319
 10
2.105855
 20
-1.117684
 10
2.105720999999999
 20
-1.12724
 10
2.105358
 20
-1.153177
  0
LWPOLYLINE
  5
1417
330
1E
100
AcDbEntity
  8
LAYER_1
  6
Continuous
 62
     7
100
AcDbPolyline
 90
        4
 70
     0
 43
0.0
 10
2.105358
 20
-1.153177
 10
2.10529
 20
-1.199644
 10
2.108515
 20
-1.254523999999999
 10
2.118676999999999
 20
-1.301665
  0
LWPOLYLINE
  5
141D
330
1E
100
AcDbEntity
  8
LAYER_1
  6
Continuous
 62
     7
100
AcDbPolyline
 90
        4
 70
     0
 43
0.0
 10
2.118676999999999
 20
-1.301665
 10
2.137623
 20
-1.330449999999999
 10
2.159981
 20
-1.352408
 10
2.178583
 20
-1.38461
  0
LWPOLYLINE
  5
1423
330
1E
100
AcDbEntity
  8
LAYER_1
  6
Continuous
 62
     7
100
AcDbPolyline
 90
        4
 70
     0
 43
0.0
 10
2.178583
 20
-1.38461
 10
2.188099999999999
 20
-1.438195
 10
2.190567999999999
 20
-1.500658999999999
 10
2.189845999999999
 20
-1.553566999999999
  0
LWPOLYLINE
  5
1429
330
1E
100
AcDbEntity
  8
LAYER_1
  6
Continuous
 62
     7
100
AcDbPolyline
 90
        4
 70
     0
 43
0.0
 10
2.189845999999999
 20
-1.553566999999999
 10
2.189122999999999
 20
-1.583103
 10
2.188857
 20
-1.593984999999999
 10
2.188819
 20
-1.595539
  0
LWPOLYLINE
  5
142F
330
1E
100
AcDbEntity
  8
LAYER_1
  6
Continuous
 62
     7
100
AcDbPolyline
 90
        4
 70
     0
 43
0.0
 10
2.852358
 20
-1.288345999999999
 10
2.852358
 20
-1.288877
 10
2.852358
 20
-1.292593
 10
2.852358
 20
-1.302677
  0
LWPOLYLINE
  5
1435
330
1E
100
AcDbEntity
  8
LAYER_1
  6
Continuous
 62
     7
100
AcDbPolyline
 90
        4
 70
     0
 43
0.0
 10
2.852358
 20
-1.302677
 10
2.852984
 20
-1.320521999999999
 10
2.857366999999999
 20
-1.340302
 10
2.869263999999999
 20
-1.354386
  0
LWPOLYLINE
  5
143B
330
1E
100
AcDbEntity
  8
LAYER_1
  6
Continuous
 62
     7
100
AcDbPolyline
 90
        4
 70
     0
 43
0.0
 10
2.869263999999999
 20
-1.354386
 10
2.890656
 20
-1.359195999999999
 10
2.916546999999999
 20
-1.367246999999999
 10
2.940165
 20
-1.395094
  0
LWPOLYLINE
  5
1441
330
1E
100
AcDbEntity
  8
LAYER_1
  6
Continuous
 62
     7
100
AcDbPolyline
 90
        4
 70
     0
 43
0.0
 10
2.940165
 20
-1.395094
 10
2.956247
 20
-1.452703
 10
2.965561
 20
-1.523679999999999
 10
2.970373999999999
 20
-1.585038999999999
  0
LWPOLYLINE
  5
1447
330
1E
100
AcDbEntity
  8
LAYER_1
  6
Continuous
 62
     7
100
AcDbPolyline
 90
        4
 70
     0
 43
0.0
 10
2.970373999999999
 20
-1.585038999999999
 10
2.972718
 20
-1.619452
 10
2.973581
 20
-1.632129999999999
 10
2.973704999999999
 20
-1.633941
  0
LWPOLYLINE
  5
144D
330
1E
100
AcDbEntity
  8
LAYER_1
  6
Continuous
 62
     7
100
AcDbPolyline
 90
        4
 70
     0
 43
0.0
 10
1.939983999999999
 20
-1.524885999999999
 10
1.939975
 20
-1.524601
 10
1.939909999999999
 20
-1.52261
 10
1.939732
 20
-1.517204999999999
  0
LWPOLYLINE
  5
1453
330
1E
100
AcDbEntity
  8
LAYER_1
  6
Continuous
 62
     7
100
AcDbPolyline
 90
        4
 70
     0
 43
0.0
 10
1.939732
 20
-1.517204999999999
 10
1.939386
 20
-1.506766999999999
 10
1.938806999999999
 20
-1.490012999999999
 10
1.937941
 20
-1.465748
  0
LWPOLYLINE
  5
1459
330
1E
100
AcDbEntity
  8
LAYER_1
  6
Continuous
 62
     7
100
AcDbPolyline
 90
        4
 70
     0
 43
0.0
 10
1.937941
 20
-1.465748
 10
1.937561999999999
 20
-1.434212999999999
 10
1.941738
 20
-1.401302999999999
 10
1.955358
 20
-1.374357999999999
  0
LWPOLYLINE
  5
145F
330
1E
100
AcDbEntity
  8
LAYER_1
  6
Continuous
 62
     7
100
AcDbPolyline
 90
        4
 70
     0
 43
0.0
 10
1.955358
 20
-1.374357999999999
 10
1.980952999999999
 20
-1.359569
 10
2.01167
 20
-1.358431999999999
 10
2.038291
 20
-1.371291
  0
LWPOLYLINE
  5
1465
330
1E
100
AcDbEntity
  8
LAYER_1
  6
Continuous
 62
     7
100
AcDbPolyline
 90
        4
 70
     0
 43
0.0
 10
2.038291
 20
-1.371291
 10
2.053866999999999
 20
-1.39714
 10
2.060513999999999
 20
-1.429583
 10
2.062609999999999
 20
-1.460886
  0
LWPOLYLINE
  5
146B
330
1E
100
AcDbEntity
  8
LAYER_1
  6
Continuous
 62
     7
100
AcDbPolyline
 90
        4
 70
     0
 43
0.0
 10
2.062609999999999
 20
-1.460886
 10
2.063792999999999
 20
-1.484831999999999
 10
2.064753
 20
-1.501206999999999
 10
2.065428999999999
 20
-1.511319
  0
LWPOLYLINE
  5
1471
330
1E
100
AcDbEntity
  8
LAYER_1
  6
Continuous
 62
     7
100
AcDbPolyline
 90
        4
 70
     0
 43
0.0
 10
2.065428999999999
 20
-1.511319
 10
2.065789
 20
-1.516546999999999
 10
2.065922
 20
-1.518473
 10
2.065941
 20
-1.518747999999999
  0
TEXT
  5
1477
330
1E
100
AcDbEntity
  8
LAYER_1
 62
     7
100
AcDbText
 10
-1.597803
 20
5.022358
 30
0.0
 40
0.105703
  1
Design (never-exceed) Loads
 41
0.6886203867509976
  7
SN1
 72
     5
 11
0.086748
 21
5.022358
 31
0.0
100
AcDbText
  0
TEXT
  5
1478
330
1E
100
AcDbEntity
  8
LAYER_1
 62
     7
100
AcDbText
 10
-1.597803
 20
4.893952999999999
 30
0.0
 40
0.105703
  1
---------------------------
 41
0.3435780535889208
  7
SN1
 72
     5
 11
-0.4373810000000001
 21
4.893952999999999
 31
0.0
100
AcDbText
  0
TEXT
  5
1479
330
1E
100
AcDbEntity
  8
LAYER_1
 62
     7
100
AcDbText
 10
-1.597803
 20
4.765543
 30
0.0
 40
0.105703
  1
load   200 lb @ 95 mph, CL=1.2
 41
0.616761914187721
  7
SN1
 72
     5
 11
0.218304
 21
4.765543
 31
0.0
100
AcDbText
  0
TEXT
  5
147A
330
1E
100
AcDbEntity
  8
LAYER_1
 62
     7
100
AcDbText
 10
-1.597803
 20
4.637137999999999
 30
0.0
 40
0.105703
  1
root bend.mom.  2900 lb-in
 41
0.6251993570532873
  7
SN1
 72
     5
 11
-0.06525
 21
4.637137999999999
 31
0.0
100
AcDbText
  0
TEXT
  5
147B
330
1E
100
AcDbEntity
  8
LAYER_1
 62
     7
100
AcDbText
 10
-1.597803
 20
4.508732
 30
0.0
 40
0.105703
  1
root cap load   4460 lb
 41
0.5988013338048441
  7
SN1
 72
     5
 11
-0.328887
 21
4.508732
 31
0.0
100
AcDbText
  0
TEXT
  5
147C
330
1E
100
AcDbEntity
  8
LAYER_1
 62
     7
100
AcDbText
 10
-1.597803
 20
4.380323
 30
0.0
 40
0.105703
  1
root cap area   0.063 inò
 41
0.6334682299243372
  7
SN1
 72
     5
 11
-0.147014
 21
4.380323
 31
0.0
100
AcDbText
  0
TEXT
  5
147D
330
1E
100
AcDbEntity
  8
LAYER_1
 62
     7
100
AcDbText
 10
-1.597803
 20
4.251916999999999
 30
0.0
 40
0.105703
  1
root cap stress 71 ksi
 41
0.6329710321171019
  7
SN1
 72
     5
 11
-0.38392
 21
4.251916999999999
 31
0.0
100
AcDbText
  0
TEXT
  5
147E
330
1E
100
AcDbEntity
  8
LAYER_1
 62
     7
100
AcDbText
 10
-1.597803
 20
4.123508
 30
0.0
 40
0.105703
  1
tip deflection  20 in
 41
0.6154153002115438
  7
SN1
 72
     5
 11
-0.5291040000000001
 21
4.123508
 31
0.0
100
AcDbText
  0
TEXT
  5
147F
330
1E
100
AcDbEntity
  8
LAYER_1
 62
     7
100
AcDbText
 10
-1.597803
 20
3.995101999999999
 30
0.0
 40
0.105703
  1
   
 41
0.3371774374111116
  7
SN1
 72
     5
 11
-1.490880999999999
 21
3.995101999999999
 31
0.0
100
AcDbText
  0
TEXT
  5
1480
330
1E
100
AcDbEntity
  8
LAYER_1
 62
     7
100
AcDbText
 10
-1.649066999999999
 20
0.2665389999999999
 30
0.0
 40
0.099938
  1
ACP 72 x 0.50->0.25 x 0.042->0.007
 50
90.0
 41
0.6288217000137668
  7
SN1
 72
     5
 11
-1.649066999999999
 21
2.244602999999999
 31
0.0
100
AcDbText
  0
TEXT
  5
1481
330
1E
100
AcDbEntity
  8
LAYER_1
 62
     7
100
AcDbText
 10
-1.810440999999999
 20
-3.668649999999999
 30
0.0
 40
0.099938
  1
ACP 72 x 0.75 x 0.084->0.020 (two 3/8" widths)
 50
90.0
 41
0.6191946264748652
  7
SN1
 72
     5
 11
-1.810440999999999
 21
-1.110899
 31
0.0
100
AcDbText
  0
ENDSEC
  0
SECTION
  2
OBJECTS
  0
DICTIONARY
  5
C
330
0
100
AcDbDictionary
281
     1
  3
ACAD_GROUP
350
D
  3
ACAD_LAYOUT
350
19
  3
ACAD_MLINESTYLE
350
16
  3
ACAD_PLOTSETTINGS
350
18
  3
ACAD_PLOTSTYLENAME
350
E
  0
DICTIONARY
  5
D
102
{ACAD_REACTORS
330
C
102
}
330
C
100
AcDbDictionary
281
     1
  0
DICTIONARY
  5
19
102
{ACAD_REACTORS
330
C
102
}
330
C
100
AcDbDictionary
281
     1
  3
Layout1
350
1D
  3
Model
350
21
  0
DICTIONARY
  5
16
102
{ACAD_REACTORS
330
C
102
}
330
C
100
AcDbDictionary
281
     1
  3
Standard
350
17
  0
DICTIONARY
  5
18
102
{ACAD_REACTORS
330
C
102
}
330
C
100
AcDbDictionary
281
     1
  0
ACDBDICTIONARYWDFLT
  5
E
102
{ACAD_REACTORS
330
C
102
}
330
C
100
AcDbDictionary
281
     1
  3
Normal
350
F
100
AcDbDictionaryWithDefault
340
F
  0
LAYOUT
  5
1D
102
{ACAD_REACTORS
330
19
102
}
330
19
100
AcDbPlotSettings
  1

  2
Epson FX-80
  4

  6

 40
0.0
 41
0.0
 42
0.0
 43
0.0
 44
0.0
 45
0.0
 46
0.0
 47
0.0
 48
0.0
 49
0.0
140
0.0
141
0.0
142
1.0
143
1.0
 70
   688
 72
     0
 73
     0
 74
     5
  7

 75
    16
147
1.0
148
0.0
149
0.0
100
AcDbLayout
  1
Layout1
 70
     1
 71
     1
 10
0.0
 20
0.0
 11
12.0
 21
9.0
 12
0.0
 22
0.0
 32
0.0
 14
1.000000000000000E+20
 24
1.000000000000000E+20
 34
1.000000000000000E+20
 15
-1.000000000000000E+20
 25
-1.000000000000000E+20
 35
-1.000000000000000E+20
146
0.0
 13
0.0
 23
0.0
 33
0.0
 16
1.0
 26
0.0
 36
0.0
 17
0.0
 27
1.0
 37
0.0
 76
     0
330
1A
  0
LAYOUT
  5
21
102
{ACAD_REACTORS
330
19
102
}
330
19
100
AcDbPlotSettings
  1

  2
Epson FX-80
  4

  6

 40
0.0
 41
0.0
 42
0.0
 43
0.0
 44
0.0
 45
0.0
 46
0.0
 47
0.0
 48
0.0
 49
0.0
140
0.0
141
0.0
142
1.0
143
1.0
 70
  1712
 72
     0
 73
     0
 74
     0
  7

 75
     0
147
1.0
148
0.0
149
0.0
100
AcDbLayout
  1
Model
 70
     1
 71
     0
 10
0.0
 20
0.0
 11
12.0
 21
9.0
 12
0.0
 22
0.0
 32
0.0
 14
0.0
 24
0.0
 34
0.0
 15
0.0
 25
0.0
 35
0.0
146
0.0
 13
0.0
 23
0.0
 33
0.0
 16
1.0
 26
0.0
 36
0.0
 17
0.0
 27
1.0
 37
0.0
 76
     0
330
1E
  0
MLINESTYLE
  5
17
102
{ACAD_REACTORS
330
16
102
}
330
16
100
AcDbMlineStyle
  2
STANDARD
 70
     0
  3

 62
   256
 51
90.0
 52
90.0
 71
     2
 49
0.5
 62
   256
  6
BYLAYER
 49
-0.5
 62
   256
  6
BYLAYER
  0
ACDBPLACEHOLDER
  5
F
102
{ACAD_REACTORS
330
E
102
}
330
E
  0
ENDSEC
  0
EOF
