  0
SECTION
  2
HEADER
  9
$ACADVER
  1
AC1015
  9
$ACADMAINTVER
 70
    10
  9
$DWGCODEPAGE
  3
ANSI_1252
  9
$INSBASE
 10
0.0
 20
0.0
 30
0.0
  9
$EXTMIN
 10
-4.25
 20
-15.495319
 30
0.0
  9
$EXTMAX
 10
4.253176999999999
 20
9.499582999999999
 30
0.0
  9
$LIMMIN
 10
0.0
 20
0.0
  9
$LIMMAX
 10
12.0
 20
9.0
  9
$ORTHOMODE
 70
     0
  9
$REGENMODE
 70
     1
  9
$FILLMODE
 70
     1
  9
$QTEXTMODE
 70
     0
  9
$MIRRTEXT
 70
     1
  9
$LTSCALE
 40
0.000394
  9
$ATTMODE
 70
     1
  9
$TEXTSIZE
 40
0.2
  9
$TRACEWID
 40
0.05
  9
$TEXTSTYLE
  7
Standard
  9
$CLAYER
  8
0
  9
$CELTYPE
  6
CONTINUOUS
  9
$CECOLOR
 62
   256
  9
$CELTSCALE
 40
1.0
  9
$DISPSILH
 70
     0
  9
$DIMSCALE
 40
1.0
  9
$DIMASZ
 40
0.18
  9
$DIMEXO
 40
0.0625
  9
$DIMDLI
 40
0.38
  9
$DIMRND
 40
0.0
  9
$DIMDLE
 40
0.0
  9
$DIMEXE
 40
0.18
  9
$DIMTP
 40
0.0
  9
$DIMTM
 40
0.0
  9
$DIMTXT
 40
0.18
  9
$DIMCEN
 40
0.09
  9
$DIMTSZ
 40
0.0
  9
$DIMTOL
 70
     0
  9
$DIMLIM
 70
     0
  9
$DIMTIH
 70
     1
  9
$DIMTOH
 70
     1
  9
$DIMSE1
 70
     0
  9
$DIMSE2
 70
     0
  9
$DIMTAD
 70
     0
  9
$DIMZIN
 70
     0
  9
$DIMBLK
  1

  9
$DIMASO
 70
     1
  9
$DIMSHO
 70
     1
  9
$DIMPOST
  1

  9
$DIMAPOST
  1

  9
$DIMALT
 70
     0
  9
$DIMALTD
 70
     2
  9
$DIMALTF
 40
25.4
  9
$DIMLFAC
 40
1.0
  9
$DIMTOFL
 70
     0
  9
$DIMTVP
 40
0.0
  9
$DIMTIX
 70
     0
  9
$DIMSOXD
 70
     0
  9
$DIMSAH
 70
     0
  9
$DIMBLK1
  1

  9
$DIMBLK2
  1

  9
$DIMSTYLE
  2
Standard
  9
$DIMCLRD
 70
     0
  9
$DIMCLRE
 70
     0
  9
$DIMCLRT
 70
     0
  9
$DIMTFAC
 40
1.0
  9
$DIMGAP
 40
0.09
  9
$DIMJUST
 70
     0
  9
$DIMSD1
 70
     0
  9
$DIMSD2
 70
     0
  9
$DIMTOLJ
 70
     1
  9
$DIMTZIN
 70
     0
  9
$DIMALTZ
 70
     0
  9
$DIMALTTZ
 70
     0
  9
$DIMUPT
 70
     0
  9
$DIMDEC
 70
     4
  9
$DIMTDEC
 70
     4
  9
$DIMALTU
 70
     2
  9
$DIMALTTD
 70
     2
  9
$DIMTXSTY
  7
Standard
  9
$DIMAUNIT
 70
     0
  9
$DIMADEC
 70
     0
  9
$DIMALTRND
 40
0.0
  9
$DIMAZIN
 70
     0
  9
$DIMDSEP
 70
    46
  9
$DIMATFIT
 70
     3
  9
$DIMFRAC
 70
     0
  9
$DIMLDRBLK
  1

  9
$DIMLUNIT
 70
     2
  9
$DIMLWD
 70
    -2
  9
$DIMLWE
 70
    -2
  9
$DIMTMOVE
 70
     0
  9
$LUNITS
 70
     2
  9
$LUPREC
 70
     4
  9
$SKETCHINC
 40
0.1
  9
$FILLETRAD
 40
0.0
  9
$AUNITS
 70
     0
  9
$AUPREC
 70
     0
  9
$MENU
  1
.
  9
$ELEVATION
 40
0.0
  9
$PELEVATION
 40
0.0
  9
$THICKNESS
 40
0.0
  9
$LIMCHECK
 70
     0
  9
$CHAMFERA
 40
0.0
  9
$CHAMFERB
 40
0.0
  9
$CHAMFERC
 40
0.0
  9
$CHAMFERD
 40
0.0
  9
$SKPOLY
 70
     0
  9
$TDCREATE
 40
2453215.880370417
  9
$TDUCREATE
 40
2453216.047037083
  9
$TDUPDATE
 40
2453215.880644421
  9
$TDUUPDATE
 40
2453216.047311088
  9
$TDINDWG
 40
0.0002744676
  9
$TDUSRTIMER
 40
0.0002744676
  9
$USRTIMER
 70
     1
  9
$ANGBASE
 50
0.0
  9
$ANGDIR
 70
     0
  9
$PDMODE
 70
    35
  9
$PDSIZE
 40
0.000315
  9
$PLINEWID
 40
0.0
  9
$SPLFRAME
 70
     0
  9
$SPLINETYPE
 70
     6
  9
$SPLINESEGS
 70
     8
  9
$HANDSEED
  5
17A6
  9
$SURFTAB1
 70
     6
  9
$SURFTAB2
 70
     6
  9
$SURFTYPE
 70
     6
  9
$SURFU
 70
     6
  9
$SURFV
 70
     6
  9
$UCSBASE
  2

  9
$UCSNAME
  2

  9
$UCSORG
 10
0.0
 20
0.0
 30
0.0
  9
$UCSXDIR
 10
1.0
 20
0.0
 30
0.0
  9
$UCSYDIR
 10
0.0
 20
1.0
 30
0.0
  9
$UCSORTHOREF
  2

  9
$UCSORTHOVIEW
 70
     0
  9
$UCSORGTOP
 10
0.0
 20
0.0
 30
0.0
  9
$UCSORGBOTTOM
 10
0.0
 20
0.0
 30
0.0
  9
$UCSORGLEFT
 10
0.0
 20
0.0
 30
0.0
  9
$UCSORGRIGHT
 10
0.0
 20
0.0
 30
0.0
  9
$UCSORGFRONT
 10
0.0
 20
0.0
 30
0.0
  9
$UCSORGBACK
 10
0.0
 20
0.0
 30
0.0
  9
$PUCSBASE
  2

  9
$PUCSNAME
  2

  9
$PUCSORG
 10
0.0
 20
0.0
 30
0.0
  9
$PUCSXDIR
 10
1.0
 20
0.0
 30
0.0
  9
$PUCSYDIR
 10
0.0
 20
1.0
 30
0.0
  9
$PUCSORTHOREF
  2

  9
$PUCSORTHOVIEW
 70
     0
  9
$PUCSORGTOP
 10
0.0
 20
0.0
 30
0.0
  9
$PUCSORGBOTTOM
 10
0.0
 20
0.0
 30
0.0
  9
$PUCSORGLEFT
 10
0.0
 20
0.0
 30
0.0
  9
$PUCSORGRIGHT
 10
0.0
 20
0.0
 30
0.0
  9
$PUCSORGFRONT
 10
0.0
 20
0.0
 30
0.0
  9
$PUCSORGBACK
 10
0.0
 20
0.0
 30
0.0
  9
$USERI1
 70
     0
  9
$USERI2
 70
     0
  9
$USERI3
 70
     0
  9
$USERI4
 70
     0
  9
$USERI5
 70
     0
  9
$USERR1
 40
0.0
  9
$USERR2
 40
0.0
  9
$USERR3
 40
0.0
  9
$USERR4
 40
0.0
  9
$USERR5
 40
0.0
  9
$WORLDVIEW
 70
     1
  9
$SHADEDGE
 70
     3
  9
$SHADEDIF
 70
    70
  9
$TILEMODE
 70
     1
  9
$MAXACTVP
 70
    64
  9
$PINSBASE
 10
0.0
 20
0.0
 30
0.0
  9
$PLIMCHECK
 70
     0
  9
$PEXTMIN
 10
1.000000000000000E+20
 20
1.000000000000000E+20
 30
1.000000000000000E+20
  9
$PEXTMAX
 10
-1.000000000000000E+20
 20
-1.000000000000000E+20
 30
-1.000000000000000E+20
  9
$PLIMMIN
 10
0.0
 20
0.0
  9
$PLIMMAX
 10
12.0
 20
9.0
  9
$UNITMODE
 70
     0
  9
$VISRETAIN
 70
     1
  9
$PLINEGEN
 70
     0
  9
$PSLTSCALE
 70
     1
  9
$TREEDEPTH
 70
  3020
  9
$CMLSTYLE
  2
Standard
  9
$CMLJUST
 70
     0
  9
$CMLSCALE
 40
1.0
  9
$PROXYGRAPHICS
 70
     1
  9
$MEASUREMENT
 70
     0
  9
$CELWEIGHT
370
    -1
  9
$ENDCAPS
280
     0
  9
$JOINSTYLE
280
     0
  9
$LWDISPLAY
290
     0
  9
$INSUNITS
 70
     0
  9
$HYPERLINKBASE
  1

  9
$STYLESHEET
  1

  9
$XEDIT
290
     1
  9
$CEPSNTYPE
380
     0
  9
$PSTYLEMODE
290
     1
  9
$FINGERPRINTGUID
  2
{1DA1427B-2EF9-48BA-BD4E-BC1AF627E52C}
  9
$VERSIONGUID
  2
{77930C35-0C3F-4826-9809-39BA22D18039}
  9
$EXTNAMES
290
     1
  9
$PSVPSCALE
 40
0.0
  9
$OLESTARTUP
290
     0
  0
ENDSEC
  0
SECTION
  2
CLASSES
  0
CLASS
  1
ACDBDICTIONARYWDFLT
  2
AcDbDictionaryWithDefault
  3
AutoCAD 2000
 90
        0
280
     0
281
     0
  0
CLASS
  1
ACDBPLACEHOLDER
  2
AcDbPlaceHolder
  3
AutoCAD 2000
 90
        0
280
     0
281
     0
  0
CLASS
  1
LAYOUT
  2
AcDbLayout
  3
AutoCAD 2000
 90
        0
280
     0
281
     0
  0
ENDSEC
  0
SECTION
  2
TABLES
  0
TABLE
  2
VPORT
  5
8
330
0
100
AcDbSymbolTable
 70
     2
  0
VPORT
  5
17A5
330
8
100
AcDbSymbolTableRecord
100
AcDbViewportTableRecord
  2
*Active
 70
     0
 10
0.0
 20
0.0
 11
1.0
 21
1.0
 12
6.91444945239121
 22
4.985668125267757
 13
0.0
 23
0.0
 14
1.0
 24
1.0
 15
0.0
 25
0.0
 16
0.0
 26
0.0
 36
1.0
 17
0.0
 27
0.0
 37
0.0
 40
67.76582394147482
 41
1.760330578512396
 42
50.0
 43
0.0
 44
0.0
 50
0.0
 51
0.0
 71
     0
 72
   100
 73
     1
 74
     1
 75
     0
 76
     0
 77
     0
 78
     0
281
     0
 65
     1
110
0.0
120
0.0
130
0.0
111
1.0
121
0.0
131
0.0
112
0.0
122
1.0
132
0.0
 79
     0
146
0.0
  0
ENDTAB
  0
TABLE
  2
LTYPE
  5
5
330
0
100
AcDbSymbolTable
 70
    10
  0
LTYPE
  5
13
330
5
100
AcDbSymbolTableRecord
100
AcDbLinetypeTableRecord
  2
ByBlock
 70
     0
  3

 72
    65
 73
     0
 40
0.0
  0
LTYPE
  5
14
330
5
100
AcDbSymbolTableRecord
100
AcDbLinetypeTableRecord
  2
ByLayer
 70
     0
  3

 72
    65
 73
     0
 40
0.0
  0
LTYPE
  5
15
330
5
100
AcDbSymbolTableRecord
100
AcDbLinetypeTableRecord
  2
CONTINUOUS
 70
     0
  3
Solid line
 72
    65
 73
     0
 40
0.0
  0
LTYPE
  5
22
330
5
100
AcDbSymbolTableRecord
100
AcDbLinetypeTableRecord
  2
DASHED
 70
     0
  3
__ __ __ __ __ __ __ __ __ __ __ __ __ __ __
 72
    65
 73
     2
 40
0.000003
 49
0.000002
 74
     0
 49
-0.000001
 74
     0
  0
LTYPE
  5
23
330
5
100
AcDbSymbolTableRecord
100
AcDbLinetypeTableRecord
  2
HIDDEN
 70
     0
  3
 _ _ _ _ _ _ _ _ _ _ _ _ _ _ _ _ _ _ _ _ _ _
 72
    65
 73
     2
 40
0.000001
 49
0.000001
 74
     0
 49
0.0
 74
     0
  0
LTYPE
  5
24
330
5
100
AcDbSymbolTableRecord
100
AcDbLinetypeTableRecord
  2
CENTER
 70
     0
  3
____ _ ____ _ ____ _ ____ _ ____ _ ____ _ ____
 72
    65
 73
     4
 40
0.000008
 49
0.000005
 74
     0
 49
-0.000001
 74
     0
 49
0.000001
 74
     0
 49
-0.000001
 74
     0
  0
LTYPE
  5
25
330
5
100
AcDbSymbolTableRecord
100
AcDbLinetypeTableRecord
  2
PHANTOM
 70
     0
  3
_____ _ _ _____ _ _ _____ _ _ _____ _ _ ____
 72
    65
 73
     6
 40
0.00001
 49
0.000005
 74
     0
 49
-0.000001
 74
     0
 49
0.000001
 74
     0
 49
-0.000001
 74
     0
 49
0.000001
 74
     0
 49
-0.000001
 74
     0
  0
LTYPE
  5
26
330
5
100
AcDbSymbolTableRecord
100
AcDbLinetypeTableRecord
  2
DOT
 70
     0
  3
...............................................
 72
    65
 73
     2
 40
0.000001
 49
0.0
 74
     0
 49
-0.000001
 74
     0
  0
LTYPE
  5
27
330
5
100
AcDbSymbolTableRecord
100
AcDbLinetypeTableRecord
  2
DASHDOT
 70
     0
  3
__ . __ . __ . __ . __ . __ . __ . __ . __ . __
 72
    65
 73
     4
 40
0.000004
 49
0.000002
 74
     0
 49
-0.000001
 74
     0
 49
0.0
 74
     0
 49
-0.000001
 74
     0
  0
LTYPE
  5
28
330
5
100
AcDbSymbolTableRecord
100
AcDbLinetypeTableRecord
  2
BORDER
 70
     0
  3
__ __ . __ __ . __ __ . __ __ . __ __ . __ __
 72
    65
 73
     6
 40
0.000007
 49
0.000002
 74
     0
 49
-0.000001
 74
     0
 49
0.000002
 74
     0
 49
-0.000001
 74
     0
 49
0.0
 74
     0
 49
-0.000001
 74
     0
  0
LTYPE
  5
29
330
5
100
AcDbSymbolTableRecord
100
AcDbLinetypeTableRecord
  2
DIVIDE
 70
     0
  3
__ . . __ . . __ . . __ . . __ . . __ . . __
 72
    65
 73
     6
 40
0.000005
 49
0.000002
 74
     0
 49
-0.000001
 74
     0
 49
0.0
 74
     0
 49
-0.000001
 74
     0
 49
0.0
 74
     0
 49
-0.000001
 74
     0
  0
LTYPE
  5
2A
330
5
100
AcDbSymbolTableRecord
100
AcDbLinetypeTableRecord
  2
DOTDOT
 70
     0
  3
 . .  . .  . .  . .  . .  . . 
 72
    65
 73
     5
 40
0.000002
 49
-0.000001
 74
     0
 49
0.0
 74
     0
 49
-0.000001
 74
     0
 49
0.0
 74
     0
 49
-0.000001
 74
     0
  0
ENDTAB
  0
TABLE
  2
LAYER
  5
2
330
0
100
AcDbSymbolTable
 70
     4
  0
LAYER
  5
10
330
2
100
AcDbSymbolTableRecord
100
AcDbLayerTableRecord
  2
0
 70
     0
 62
     7
  6
CONTINUOUS
370
    -3
390
F
  0
LAYER
  5
33
330
2
100
AcDbSymbolTableRecord
100
AcDbLayerTableRecord
  2
FOREGROUND
 70
     0
 62
     7
  6
CONTINUOUS
370
    -3
390
F
  0
LAYER
  5
34
330
2
100
AcDbSymbolTableRecord
100
AcDbLayerTableRecord
  2
BACKGROUND
 70
     1
 62
    -7
  6
CONTINUOUS
370
    -3
390
F
  0
LAYER
  5
35
330
2
100
AcDbSymbolTableRecord
100
AcDbLayerTableRecord
  2
LAYER_1
 70
     0
 62
     7
  6
CONTINUOUS
370
    -3
390
F
  0
ENDTAB
  0
TABLE
  2
STYLE
  5
3
330
0
100
AcDbSymbolTable
 70
     9
  0
STYLE
  5
11
330
3
100
AcDbSymbolTableRecord
100
AcDbTextStyleTableRecord
  2
Standard
 70
     0
 40
0.0
 41
1.0
 50
0.0
 71
     0
 42
0.2
  3
txt
  4

  0
STYLE
  5
2B
330
3
100
AcDbSymbolTableRecord
100
AcDbTextStyleTableRecord
  2
SN0
 70
     0
 40
0.0
 41
0.000004
 50
0.0
 71
     0
 42
0.0
  3
ROMAND
  4

  0
STYLE
  5
2C
330
3
100
AcDbSymbolTableRecord
100
AcDbTextStyleTableRecord
  2
SV0
 70
     4
 40
0.0
 41
0.000004
 50
0.0
 71
     0
 42
0.0
  3
ROMAND
  4

  0
STYLE
  5
2D
330
3
100
AcDbSymbolTableRecord
100
AcDbTextStyleTableRecord
  2
SN1
 70
     0
 40
0.0
 41
0.000004
 50
0.0
 71
     0
 42
0.0
  3
ROMAND
  4

  0
STYLE
  5
2E
330
3
100
AcDbSymbolTableRecord
100
AcDbTextStyleTableRecord
  2
SV1
 70
     4
 40
0.0
 41
0.000004
 50
0.0
 71
     0
 42
0.0
  3
ROMAND
  4

  0
STYLE
  5
2F
330
3
100
AcDbSymbolTableRecord
100
AcDbTextStyleTableRecord
  2
SN2
 70
     0
 40
0.0
 41
0.000004
 50
0.0
 71
     0
 42
0.0
  3
ROMAND
  4

  0
STYLE
  5
30
330
3
100
AcDbSymbolTableRecord
100
AcDbTextStyleTableRecord
  2
SV2
 70
     4
 40
0.0
 41
0.000004
 50
0.0
 71
     0
 42
0.0
  3
ROMAND
  4

  0
STYLE
  5
31
330
3
100
AcDbSymbolTableRecord
100
AcDbTextStyleTableRecord
  2
SN3
 70
     0
 40
0.0
 41
0.000004
 50
0.0
 71
     0
 42
0.0
  3
ROMAND
  4

  0
STYLE
  5
32
330
3
100
AcDbSymbolTableRecord
100
AcDbTextStyleTableRecord
  2
SV3
 70
     4
 40
0.0
 41
0.000004
 50
0.0
 71
     0
 42
0.0
  3
ROMAND
  4

  0
ENDTAB
  0
TABLE
  2
VIEW
  5
6
330
0
100
AcDbSymbolTable
 70
     0
  0
ENDTAB
  0
TABLE
  2
UCS
  5
7
330
0
100
AcDbSymbolTable
 70
     0
  0
ENDTAB
  0
TABLE
  2
APPID
  5
9
330
0
100
AcDbSymbolTable
 70
     1
  0
APPID
  5
12
330
9
100
AcDbSymbolTableRecord
100
AcDbRegAppTableRecord
  2
ACAD
 70
     0
  0
ENDTAB
  0
TABLE
  2
DIMSTYLE
  5
A
330
0
100
AcDbSymbolTable
 70
     1
100
AcDbDimStyleTable
 71
     0
  0
DIMSTYLE
105
17A3
330
A
100
AcDbSymbolTableRecord
100
AcDbDimStyleTableRecord
  2
Standard
 70
     0
340
11
  0
ENDTAB
  0
TABLE
  2
BLOCK_RECORD
  5
1
330
0
100
AcDbSymbolTable
 70
     0
  0
BLOCK_RECORD
  5
1E
330
1
100
AcDbSymbolTableRecord
100
AcDbBlockTableRecord
  2
*Model_Space
340
21
  0
BLOCK_RECORD
  5
1A
330
1
100
AcDbSymbolTableRecord
100
AcDbBlockTableRecord
  2
*Paper_Space
340
1D
  0
ENDTAB
  0
ENDSEC
  0
SECTION
  2
BLOCKS
  0
BLOCK
  5
1F
330
1E
100
AcDbEntity
  8
0
100
AcDbBlockBegin
  2
*Model_Space
 70
     0
 10
0.0
 20
0.0
 30
0.0
  3
*Model_Space
  1

  0
ENDBLK
  5
20
330
1E
100
AcDbEntity
  8
0
100
AcDbBlockEnd
  0
BLOCK
  5
1B
330
1A
100
AcDbEntity
 67
     1
  8
0
100
AcDbBlockBegin
  2
*Paper_Space
 70
     0
 10
0.0
 20
0.0
 30
0.0
  3
*Paper_Space
  1

  0
ENDBLK
  5
1C
330
1A
100
AcDbEntity
 67
     1
  8
0
100
AcDbBlockEnd
  0
ENDSEC
  0
SECTION
  2
ENTITIES
  0
LWPOLYLINE
  5
39
330
1E
100
AcDbEntity
  8
LAYER_1
  6
Continuous
 62
     7
100
AcDbPolyline
 90
        4
 70
     0
 43
0.0
 10
-1.935845999999999
 20
-4.000066999999999
 10
-1.935845999999999
 20
7.550483999999999
 10
-1.87772
 20
7.550483999999999
 10
-1.87772
 20
-4.012357999999999
  0
LWPOLYLINE
  5
3F
330
1E
100
AcDbEntity
  8
LAYER_1
  6
Continuous
 62
     7
100
AcDbPolyline
 90
        4
 70
     0
 43
0.0
 10
-2.147555
 20
-3.998539
 10
-2.147555
 20
1.494121999999999
 10
-2.086886
 20
1.494121999999999
 10
-2.086886
 20
-3.998539
  0
SOLID
  5
45
330
1E
100
AcDbEntity
  8
LAYER_1
  6
Continuous
100
AcDbTrace
 10
-2.247775999999999
 20
-1.626984
 30
0.0
 11
-1.793122
 21
-2.302818999999999
 31
0.0
 12
-2.260054999999999
 22
-0.05415
 32
0.0
 13
-1.780831
 23
-0.07872
 33
0.0
  0
LWPOLYLINE
  5
46
330
1E
100
AcDbEntity
  8
LAYER_1
  6
Continuous
100
AcDbPolyline
 90
        4
 70
     1
 43
0.0
 10
-2.247775999999999
 20
-1.626984
 10
-1.793122
 20
-2.302818999999999
 10
-1.780831
 20
-0.07872
 10
-2.260054999999999
 20
-0.05415
  0
LWPOLYLINE
  5
4C
330
1E
100
AcDbEntity
  8
LAYER_1
  6
DASHED
 62
     7
100
AcDbPolyline
 90
        2
 70
     0
 43
0.0
 10
-3.752345999999999
 20
-4.002346
 10
1.752609999999999
 20
-4.002346
  0
LWPOLYLINE
  5
50
330
1E
100
AcDbEntity
  8
LAYER_1
  6
Continuous
 62
     7
100
AcDbPolyline
 90
       12
 70
     1
 43
0.0
 10
-1.976109999999999
 20
-0.638594
 10
-1.979074
 20
-0.62763
 10
-1.986862999999999
 20
-0.619839
 10
-1.997818999999999
 20
-0.6168740000000001
 10
-2.008783
 20
-0.619839
 10
-2.016575
 20
-0.62763
 10
-2.019538999999999
 20
-0.638594
 10
-2.016575
 20
-0.649551
 10
-2.008783
 20
-0.657339
 10
-1.997818999999999
 20
-0.660303
 10
-1.986862999999999
 20
-0.657339
 10
-1.979074
 20
-0.649551
  0
LWPOLYLINE
  5
5E
330
1E
100
AcDbEntity
  8
LAYER_1
  6
Continuous
 62
     7
100
AcDbPolyline
 90
        4
 70
     0
 43
0.0
 10
-1.976109999999999
 20
-0.638594
 10
-1.979074
 20
-0.62763
 10
-1.986862999999999
 20
-0.619839
 10
-1.997818999999999
 20
-0.6168740000000001
  0
LWPOLYLINE
  5
64
330
1E
100
AcDbEntity
  8
LAYER_1
  6
Continuous
 62
     7
100
AcDbPolyline
 90
        4
 70
     0
 43
0.0
 10
-1.997818999999999
 20
-0.6168740000000001
 10
-2.008783
 20
-0.619839
 10
-2.016575
 20
-0.62763
 10
-2.019538999999999
 20
-0.638594
  0
LWPOLYLINE
  5
6A
330
1E
100
AcDbEntity
  8
LAYER_1
  6
Continuous
 62
     7
100
AcDbPolyline
 90
        4
 70
     0
 43
0.0
 10
-2.019538999999999
 20
-0.638594
 10
-2.016575
 20
-0.649551
 10
-2.008783
 20
-0.657339
 10
-1.997818999999999
 20
-0.660303
  0
LWPOLYLINE
  5
70
330
1E
100
AcDbEntity
  8
LAYER_1
  6
Continuous
 62
     7
100
AcDbPolyline
 90
        4
 70
     0
 43
0.0
 10
-1.997818999999999
 20
-0.660303
 10
-1.986862999999999
 20
-0.657339
 10
-1.979074
 20
-0.649551
 10
-1.976109999999999
 20
-0.638594
  0
LWPOLYLINE
  5
76
330
1E
100
AcDbEntity
  8
LAYER_1
  6
Continuous
 62
     7
100
AcDbPolyline
 90
        4
 70
     0
 43
0.0
 10
-1.985055
 20
-1.815511999999999
 10
-1.986515999999999
 20
-1.810106
 10
-1.990358
 20
-1.806265
 10
-1.995763999999999
 20
-1.804802999999999
  0
LWPOLYLINE
  5
7C
330
1E
100
AcDbEntity
  8
LAYER_1
  6
Continuous
 62
     7
100
AcDbPolyline
 90
        4
 70
     0
 43
0.0
 10
-1.995763999999999
 20
-1.804802999999999
 10
-2.001166999999999
 20
-1.806265
 10
-2.005006999999999
 20
-1.810106
 10
-2.006469
 20
-1.815511999999999
  0
LWPOLYLINE
  5
82
330
1E
100
AcDbEntity
  8
LAYER_1
  6
Continuous
 62
     7
100
AcDbPolyline
 90
        4
 70
     0
 43
0.0
 10
-2.006469
 20
-1.815511999999999
 10
-2.005006999999999
 20
-1.820917999999999
 10
-2.001166999999999
 20
-1.824759
 10
-1.995763999999999
 20
-1.82622
  0
LWPOLYLINE
  5
88
330
1E
100
AcDbEntity
  8
LAYER_1
  6
Continuous
 62
     7
100
AcDbPolyline
 90
        4
 70
     0
 43
0.0
 10
-1.995763999999999
 20
-1.82622
 10
-1.990358
 20
-1.824759
 10
-1.986515999999999
 20
-1.820917999999999
 10
-1.985055
 20
-1.815511999999999
  0
LWPOLYLINE
  5
8E
330
1E
100
AcDbEntity
  8
LAYER_1
  6
DASHED
 62
     7
100
AcDbPolyline
 90
        4
 70
     1
 43
0.0
 10
-2.332122
 20
-0.961402
 10
-2.478791
 20
-0.961402
 10
-2.477055
 20
-0.4246380000000001
 10
-2.332122
 20
-0.4246380000000001
  0
LWPOLYLINE
  5
94
330
1E
100
AcDbEntity
  8
LAYER_1
  6
DASHED
 62
     7
100
AcDbPolyline
 90
        4
 70
     0
 43
0.0
 10
-2.479831
 20
-0.4213310000000001
 10
-2.565846
 20
-0.319957
 10
-2.240219999999999
 20
-0.319957
 10
-2.329318999999999
 20
-0.4213310000000001
  0
LWPOLYLINE
  5
9A
330
1E
100
AcDbEntity
  8
LAYER_1
  6
Continuous
 62
     7
100
AcDbPolyline
 90
        4
 70
     0
 43
0.0
 10
-2.040413
 20
-0.6989840000000001
 10
-2.040015
 20
-0.698974
 10
-2.037228999999999
 20
-0.6989060000000001
 10
-2.029665
 20
-0.69872
  0
LWPOLYLINE
  5
A0
330
1E
100
AcDbEntity
  8
LAYER_1
  6
Continuous
 62
     7
100
AcDbPolyline
 90
        4
 70
     0
 43
0.0
 10
-2.029665
 20
-0.69872
 10
-2.01589
 20
-0.698121
 10
-1.998304
 20
-0.69582
 10
-1.980264
 20
-0.690276
  0
LWPOLYLINE
  5
A6
330
1E
100
AcDbEntity
  8
LAYER_1
  6
Continuous
 62
     7
100
AcDbPolyline
 90
        4
 70
     0
 43
0.0
 10
-1.980264
 20
-0.690276
 10
-1.964768999999999
 20
-0.6803390000000001
 10
-1.953427999999999
 20
-0.6664210000000001
 10
-1.947499999999999
 20
-0.6493190000000001
  0
LWPOLYLINE
  5
AC
330
1E
100
AcDbEntity
  8
LAYER_1
  6
Continuous
 62
     7
100
AcDbPolyline
 90
        4
 70
     0
 43
0.0
 10
-1.947499999999999
 20
-0.6493190000000001
 10
-1.948016999999999
 20
-0.629882
 10
-1.955247999999999
 20
-0.609258
 10
-1.969247999999999
 20
-0.588638
  0
LWPOLYLINE
  5
B2
330
1E
100
AcDbEntity
  8
LAYER_1
  6
Continuous
 62
     7
100
AcDbPolyline
 90
        4
 70
     0
 43
0.0
 10
-1.969247999999999
 20
-0.588638
 10
-1.989174999999999
 20
-0.569287
 10
-2.010584
 20
-0.552783
 10
-2.028122
 20
-0.5407760000000001
  0
LWPOLYLINE
  5
B8
330
1E
100
AcDbEntity
  8
LAYER_1
  6
Continuous
 62
     7
100
AcDbPolyline
 90
        4
 70
     0
 43
0.0
 10
-2.028122
 20
-0.5407760000000001
 10
-2.037858
 20
-0.534287
 10
-2.041443999999999
 20
-0.5318970000000001
 10
-2.041957
 20
-0.531555
  0
SOLID
  5
BE
330
1E
100
AcDbEntity
  8
LAYER_1
100
AcDbTrace
 10
-3.059617999999999
 20
-0.7892200000000001
 30
0.0
 11
-2.703272
 21
-0.7892200000000001
 31
0.0
 12
-3.059617999999999
 22
-0.211693
 32
0.0
 13
-2.703272
 23
-0.211693
 33
0.0
  0
LWPOLYLINE
  5
BF
330
1E
100
AcDbEntity
  8
LAYER_1
  6
Continuous
100
AcDbPolyline
 90
        4
 70
     1
 43
0.0
 10
-3.059617999999999
 20
-0.7892200000000001
 10
-2.703272
 20
-0.7892200000000001
 10
-2.703272
 20
-0.211693
 10
-3.059617999999999
 20
-0.211693
  0
SOLID
  5
C5
330
1E
100
AcDbEntity
  8
LAYER_1
100
AcDbTrace
 10
0.7004570000000001
 20
-0.6909130000000001
 30
0.0
 11
0.9830709999999999
 21
-0.6909130000000001
 31
0.0
 12
0.7004570000000001
 22
-0.273134
 32
0.0
 13
0.9830709999999999
 23
-0.273134
 33
0.0
  0
LWPOLYLINE
  5
C6
330
1E
100
AcDbEntity
  8
LAYER_1
  6
Continuous
100
AcDbPolyline
 90
        4
 70
     1
 43
0.0
 10
0.7004570000000001
 20
-0.6909130000000001
 10
0.9830709999999999
 20
-0.6909130000000001
 10
0.9830709999999999
 20
-0.273134
 10
0.7004570000000001
 20
-0.273134
  0
LWPOLYLINE
  5
CC
330
1E
100
AcDbEntity
  8
LAYER_1
  6
Continuous
 62
     7
100
AcDbPolyline
 90
        4
 70
     0
 43
0.0
 10
1.254941
 20
-0.4947910000000001
 10
1.254344
 20
-0.494758
 10
1.250167999999999
 20
-0.494528
 10
1.238831
 20
-0.4939020000000001
  0
LWPOLYLINE
  5
D2
330
1E
100
AcDbEntity
  8
LAYER_1
  6
Continuous
 62
     7
100
AcDbPolyline
 90
        4
 70
     0
 43
0.0
 10
1.238831
 20
-0.4939020000000001
 10
1.217651
 20
-0.492749
 10
1.187516
 20
-0.491115
 10
1.150204999999999
 20
-0.4891100000000001
  0
LWPOLYLINE
  5
D8
330
1E
100
AcDbEntity
  8
LAYER_1
  6
Continuous
 62
     7
100
AcDbPolyline
 90
        4
 70
     0
 43
0.0
 10
1.150204999999999
 20
-0.4891100000000001
 10
1.107512999999999
 20
-0.4868380000000001
 10
1.061236
 20
-0.484387
 10
1.013193
 20
-0.481846
  0
LWPOLYLINE
  5
DE
330
1E
100
AcDbEntity
  8
LAYER_1
  6
Continuous
 62
     7
100
AcDbPolyline
 90
        4
 70
     0
 43
0.0
 10
1.013193
 20
-0.481846
 10
0.9648979999999999
 20
-0.479287
 10
0.916636
 20
-0.476725
 10
0.8683860000000001
 20
-0.474165
  0
LWPOLYLINE
  5
E4
330
1E
100
AcDbEntity
  8
LAYER_1
  6
Continuous
 62
     7
100
AcDbPolyline
 90
        4
 70
     0
 43
0.0
 10
0.8683860000000001
 20
-0.474165
 10
0.8201440000000001
 20
-0.47161
 10
0.771922
 20
-0.469054
 10
0.723732
 20
-0.4664960000000001
  0
LWPOLYLINE
  5
EA
330
1E
100
AcDbEntity
  8
LAYER_1
  6
Continuous
 62
     7
100
AcDbPolyline
 90
        4
 70
     0
 43
0.0
 10
0.723732
 20
-0.4664960000000001
 10
0.6755790000000001
 20
-0.463938
 10
0.627445
 20
-0.461361
 10
0.579291
 20
-0.458748
  0
LWPOLYLINE
  5
F0
330
1E
100
AcDbEntity
  8
LAYER_1
  6
Continuous
 62
     7
100
AcDbPolyline
 90
        4
 70
     0
 43
0.0
 10
0.579291
 20
-0.458748
 10
0.5311040000000001
 20
-0.456088
 10
0.4829
 20
-0.453408
 10
0.4347050000000001
 20
-0.4507480000000001
  0
LWPOLYLINE
  5
F6
330
1E
100
AcDbEntity
  8
LAYER_1
  6
Continuous
 62
     7
100
AcDbPolyline
 90
        4
 70
     0
 43
0.0
 10
0.4347050000000001
 20
-0.4507480000000001
 10
0.386559
 20
-0.4481350000000001
 10
0.338445
 20
-0.445557
 10
0.290346
 20
-0.4429960000000001
  0
LWPOLYLINE
  5
FC
330
1E
100
AcDbEntity
  8
LAYER_1
  6
Continuous
 62
     7
100
AcDbPolyline
 90
        4
 70
     0
 43
0.0
 10
0.290346
 20
-0.4429960000000001
 10
0.242259
 20
-0.440438
 10
0.194165
 20
-0.437861
 10
0.146067
 20
-0.435248
  0
LWPOLYLINE
  5
102
330
1E
100
AcDbEntity
  8
LAYER_1
  6
Continuous
 62
     7
100
AcDbPolyline
 90
        4
 70
     0
 43
0.0
 10
0.146067
 20
-0.435248
 10
0.097967
 20
-0.432592
 10
0.049852
 20
-0.42992
 10
0.001705
 20
-0.427264
  0
LWPOLYLINE
  5
108
330
1E
100
AcDbEntity
  8
LAYER_1
  6
Continuous
 62
     7
100
AcDbPolyline
 90
        4
 70
     0
 43
0.0
 10
0.001705
 20
-0.427264
 10
-0.046479
 20
-0.424648
 10
-0.094699
 20
-0.42207
 10
-0.142941
 20
-0.4195120000000001
  0
LWPOLYLINE
  5
10E
330
1E
100
AcDbEntity
  8
LAYER_1
  6
Continuous
 62
     7
100
AcDbPolyline
 90
        4
 70
     0
 43
0.0
 10
-0.142941
 20
-0.4195120000000001
 10
-0.191186
 20
-0.416954
 10
-0.239408
 20
-0.4143770000000001
 10
-0.287594
 20
-0.411764
  0
LWPOLYLINE
  5
114
330
1E
100
AcDbEntity
  8
LAYER_1
  6
Continuous
 62
     7
100
AcDbPolyline
 90
        4
 70
     0
 43
0.0
 10
-0.287594
 20
-0.411764
 10
-0.33575
 20
-0.4091020000000001
 10
-0.383884
 20
-0.4064230000000001
 10
-0.432039
 20
-0.403764
  0
LWPOLYLINE
  5
11A
330
1E
100
AcDbEntity
  8
LAYER_1
  6
Continuous
 62
     7
100
AcDbPolyline
 90
        4
 70
     0
 43
0.0
 10
-0.432039
 20
-0.403764
 10
-0.4802260000000001
 20
-0.401152
 10
-0.528448
 20
-0.398549
 10
-0.5766930000000001
 20
-0.395929
  0
LWPOLYLINE
  5
120
330
1E
100
AcDbEntity
  8
LAYER_1
  6
Continuous
 62
     7
100
AcDbPolyline
 90
        4
 70
     0
 43
0.0
 10
-0.5766930000000001
 20
-0.395929
 10
-0.624935
 20
-0.393278
 10
-0.6731600000000002
 20
-0.390603
 10
-0.721358
 20
-0.387941
  0
LWPOLYLINE
  5
126
330
1E
100
AcDbEntity
  8
LAYER_1
  6
Continuous
 62
     7
100
AcDbPolyline
 90
        4
 70
     0
 43
0.0
 10
-0.721358
 20
-0.387941
 10
-0.7694989999999999
 20
-0.385325
 10
-0.817633
 20
-0.382727
 10
-0.8657909999999999
 20
-0.38011
  0
LWPOLYLINE
  5
12C
330
1E
100
AcDbEntity
  8
LAYER_1
  6
Continuous
 62
     7
100
AcDbPolyline
 90
        4
 70
     0
 43
0.0
 10
-0.8657909999999999
 20
-0.38011
 10
-0.913978
 20
-0.377459
 10
-0.9621799999999998
 20
-0.374784
 10
-1.010358
 20
-0.372122
  0
LWPOLYLINE
  5
132
330
1E
100
AcDbEntity
  8
LAYER_1
  6
Continuous
 62
     7
100
AcDbPolyline
 90
        4
 70
     0
 43
0.0
 10
-1.010358
 20
-0.372122
 10
-1.058514999999999
 20
-0.369509
 10
-1.106634
 20
-0.366932
 10
-1.154731999999999
 20
-0.364374
  0
LWPOLYLINE
  5
138
330
1E
100
AcDbEntity
  8
LAYER_1
  6
Continuous
 62
     7
100
AcDbPolyline
 90
        4
 70
     0
 43
0.0
 10
-1.154731999999999
 20
-0.364374
 10
-1.202817999999999
 20
-0.361821
 10
-1.25089
 20
-0.359284
 10
-1.298929
 20
-0.356776
  0
LWPOLYLINE
  5
13E
330
1E
100
AcDbEntity
  8
LAYER_1
  6
Continuous
 62
     7
100
AcDbPolyline
 90
        4
 70
     0
 43
0.0
 10
-1.298929
 20
-0.356776
 10
-1.346932
 20
-0.354327
 10
-1.394898999999999
 20
-0.351913
 10
-1.442845999999999
 20
-0.349512
  0
LWPOLYLINE
  5
144
330
1E
100
AcDbEntity
  8
LAYER_1
  6
Continuous
 62
     7
100
AcDbPolyline
 90
        4
 70
     0
 43
0.0
 10
-1.442845999999999
 20
-0.349512
 10
-1.490788
 20
-0.347119
 10
-1.538712999999999
 20
-0.3447659999999999
 10
-1.58661
 20
-0.342484
  0
LWPOLYLINE
  5
14A
330
1E
100
AcDbEntity
  8
LAYER_1
  6
Continuous
 62
     7
100
AcDbPolyline
 90
        4
 70
     0
 43
0.0
 10
-1.58661
 20
-0.342484
 10
-1.634440999999999
 20
-0.34029
 10
-1.682193999999999
 20
-0.338192
 10
-1.729831
 20
-0.336165
  0
LWPOLYLINE
  5
150
330
1E
100
AcDbEntity
  8
LAYER_1
  6
Continuous
 62
     7
100
AcDbPolyline
 90
        4
 70
     0
 43
0.0
 10
-1.729831
 20
-0.336165
 10
-1.777334999999999
 20
-0.334196
 10
-1.82474
 20
-0.332297
 10
-1.872093999999999
 20
-0.330484
  0
LWPOLYLINE
  5
156
330
1E
100
AcDbEntity
  8
LAYER_1
  6
Continuous
 62
     7
100
AcDbPolyline
 90
        4
 70
     0
 43
0.0
 10
-1.872093999999999
 20
-0.330484
 10
-1.919431
 20
-0.328784
 10
-1.966699
 20
-0.327188
 10
-2.013831
 20
-0.325693
  0
LWPOLYLINE
  5
15C
330
1E
100
AcDbEntity
  8
LAYER_1
  6
Continuous
 62
     7
100
AcDbPolyline
 90
        4
 70
     0
 43
0.0
 10
-2.013831
 20
-0.325693
 10
-2.060786
 20
-0.324313
 10
-2.107568999999999
 20
-0.323082
 10
-2.15422
 20
-0.322028
  0
LWPOLYLINE
  5
162
330
1E
100
AcDbEntity
  8
LAYER_1
  6
Continuous
 62
     7
100
AcDbPolyline
 90
        4
 70
     0
 43
0.0
 10
-2.15422
 20
-0.322028
 10
-2.200762
 20
-0.3211650000000001
 10
-2.247150999999999
 20
-0.320521
 10
-2.293331
 20
-0.320094
  0
LWPOLYLINE
  5
168
330
1E
100
AcDbEntity
  8
LAYER_1
  6
Continuous
 62
     7
100
AcDbPolyline
 90
        4
 70
     0
 43
0.0
 10
-2.293331
 20
-0.320094
 10
-2.339281999999999
 20
-0.319882
 10
-2.384962999999999
 20
-0.319882
 10
-2.430358
 20
-0.320094
  0
LWPOLYLINE
  5
16E
330
1E
100
AcDbEntity
  8
LAYER_1
  6
Continuous
 62
     7
100
AcDbPolyline
 90
        4
 70
     0
 43
0.0
 10
-2.430358
 20
-0.320094
 10
-2.475442999999999
 20
-0.32053
 10
-2.520141999999999
 20
-0.321235
 10
-2.564374
 20
-0.322264
  0
LWPOLYLINE
  5
174
330
1E
100
AcDbEntity
  8
LAYER_1
  6
Continuous
 62
     7
100
AcDbPolyline
 90
        4
 70
     0
 43
0.0
 10
-2.564374
 20
-0.322264
 10
-2.608054
 20
-0.3236429999999999
 10
-2.65107
 20
-0.325382
 10
-2.693302999999999
 20
-0.327457
  0
LWPOLYLINE
  5
17A
330
1E
100
AcDbEntity
  8
LAYER_1
  6
Continuous
 62
     7
100
AcDbPolyline
 90
        4
 70
     0
 43
0.0
 10
-2.693302999999999
 20
-0.327457
 10
-2.734615
 20
-0.329863
 10
-2.774775999999999
 20
-0.332642
 10
-2.813539
 20
-0.335846
  0
LWPOLYLINE
  5
180
330
1E
100
AcDbEntity
  8
LAYER_1
  6
Continuous
 62
     7
100
AcDbPolyline
 90
        4
 70
     0
 43
0.0
 10
-2.813539
 20
-0.335846
 10
-2.850664
 20
-0.339508
 10
-2.885981
 20
-0.343599
 10
-2.919318999999999
 20
-0.348067
  0
LWPOLYLINE
  5
186
330
1E
100
AcDbEntity
  8
LAYER_1
  6
Continuous
 62
     7
100
AcDbPolyline
 90
        4
 70
     0
 43
0.0
 10
-2.919318999999999
 20
-0.348067
 10
-2.95052
 20
-0.352858
 10
-2.979509
 20
-0.35793
 10
-3.006216999999999
 20
-0.363248
  0
LWPOLYLINE
  5
18C
330
1E
100
AcDbEntity
  8
LAYER_1
  6
Continuous
 62
     7
100
AcDbPolyline
 90
        4
 70
     0
 43
0.0
 10
-3.006216999999999
 20
-0.363248
 10
-3.030613999999999
 20
-0.36878
 10
-3.052814
 20
-0.374429
 10
-3.072964999999999
 20
-0.38011
  0
LWPOLYLINE
  5
192
330
1E
100
AcDbEntity
  8
LAYER_1
  6
Continuous
 62
     7
100
AcDbPolyline
 90
        4
 70
     0
 43
0.0
 10
-3.072964999999999
 20
-0.38011
 10
-3.091218
 20
-0.38576
 10
-3.107724
 20
-0.391335
 10
-3.122634
 20
-0.396819
  0
LWPOLYLINE
  5
198
330
1E
100
AcDbEntity
  8
LAYER_1
  6
Continuous
 62
     7
100
AcDbPolyline
 90
        4
 70
     0
 43
0.0
 10
-3.122634
 20
-0.396819
 10
-3.136091999999999
 20
-0.4022000000000001
 10
-3.148251999999999
 20
-0.407496
 10
-3.159263999999999
 20
-0.4127200000000001
  0
LWPOLYLINE
  5
19E
330
1E
100
AcDbEntity
  8
LAYER_1
  6
Continuous
 62
     7
100
AcDbPolyline
 90
        4
 70
     0
 43
0.0
 10
-3.159263999999999
 20
-0.4127200000000001
 10
-3.169265999999999
 20
-0.41789
 10
-3.178351999999999
 20
-0.423023
 10
-3.186606
 20
-0.4281380000000001
  0
LWPOLYLINE
  5
1A4
330
1E
100
AcDbEntity
  8
LAYER_1
  6
Continuous
 62
     7
100
AcDbPolyline
 90
        4
 70
     0
 43
0.0
 10
-3.186606
 20
-0.4281380000000001
 10
-3.194115
 20
-0.4332530000000001
 10
-3.200954999999999
 20
-0.438342
 10
-3.207209
 20
-0.4434020000000001
  0
LWPOLYLINE
  5
1AA
330
1E
100
AcDbEntity
  8
LAYER_1
  6
Continuous
 62
     7
100
AcDbPolyline
 90
        4
 70
     0
 43
0.0
 10
-3.207209
 20
-0.4434020000000001
 10
-3.21295
 20
-0.448419
 10
-3.218174
 20
-0.4534310000000001
 10
-3.222865999999999
 20
-0.4584960000000001
  0
LWPOLYLINE
  5
1B0
330
1E
100
AcDbEntity
  8
LAYER_1
  6
Continuous
 62
     7
100
AcDbPolyline
 90
        4
 70
     0
 43
0.0
 10
-3.222865999999999
 20
-0.4584960000000001
 10
-3.227006999999999
 20
-0.46367
 10
-3.230565
 20
-0.4689270000000001
 10
-3.233503999999999
 20
-0.474248
  0
LWPOLYLINE
  5
1B6
330
1E
100
AcDbEntity
  8
LAYER_1
  6
Continuous
 62
     7
100
AcDbPolyline
 90
        4
 70
     0
 43
0.0
 10
-3.233503999999999
 20
-0.474248
 10
-3.235806999999999
 20
-0.479633
 10
-3.237495
 20
-0.4850680000000001
 10
-3.238598
 20
-0.490555
  0
LWPOLYLINE
  5
1BC
330
1E
100
AcDbEntity
  8
LAYER_1
  6
Continuous
 62
     7
100
AcDbPolyline
 90
        4
 70
     0
 43
0.0
 10
-3.238598
 20
-0.490555
 10
-3.239149999999999
 20
-0.4960890000000001
 10
-3.239149999999999
 20
-0.501657
 10
-3.238598
 20
-0.5072479999999999
  0
LWPOLYLINE
  5
1C2
330
1E
100
AcDbEntity
  8
LAYER_1
  6
Continuous
 62
     7
100
AcDbPolyline
 90
        4
 70
     0
 43
0.0
 10
-3.238598
 20
-0.5072479999999999
 10
-3.237495
 20
-0.512834
 10
-3.235806999999999
 20
-0.518363
 10
-3.233503999999999
 20
-0.5237910000000001
  0
LWPOLYLINE
  5
1C8
330
1E
100
AcDbEntity
  8
LAYER_1
  6
Continuous
 62
     7
100
AcDbPolyline
 90
        4
 70
     0
 43
0.0
 10
-3.233503999999999
 20
-0.5237910000000001
 10
-3.230567999999999
 20
-0.529068
 10
-3.227028999999999
 20
-0.534244
 10
-3.222941
 20
-0.5393740000000001
  0
LWPOLYLINE
  5
1CE
330
1E
100
AcDbEntity
  8
LAYER_1
  6
Continuous
 62
     7
100
AcDbPolyline
 90
        4
 70
     0
 43
0.0
 10
-3.222941
 20
-0.5393740000000001
 10
-3.218341999999999
 20
-0.544482
 10
-3.213208999999999
 20
-0.5495750000000001
 10
-3.207508
 20
-0.554638
  0
LWPOLYLINE
  5
1D4
330
1E
100
AcDbEntity
  8
LAYER_1
  6
Continuous
 62
     7
100
AcDbPolyline
 90
        4
 70
     0
 43
0.0
 10
-3.207508
 20
-0.554638
 10
-3.201209999999999
 20
-0.559647
 10
-3.19428
 20
-0.5646399999999999
 10
-3.186684999999999
 20
-0.5696500000000001
  0
LWPOLYLINE
  5
1DA
330
1E
100
AcDbEntity
  8
LAYER_1
  6
Continuous
 62
     7
100
AcDbPolyline
 90
        4
 70
     0
 43
0.0
 10
-3.186684999999999
 20
-0.5696500000000001
 10
-3.178374999999999
 20
-0.574719
 10
-3.169268999999999
 20
-0.5798560000000001
 10
-3.159263999999999
 20
-0.5850830000000001
  0
LWPOLYLINE
  5
1E0
330
1E
100
AcDbEntity
  8
LAYER_1
  6
Continuous
 62
     7
100
AcDbPolyline
 90
        4
 70
     0
 43
0.0
 10
-3.159263999999999
 20
-0.5850830000000001
 10
-3.148254999999999
 20
-0.5904030000000001
 10
-3.136114
 20
-0.5958180000000001
 10
-3.122708999999999
 20
-0.6013029999999999
  0
LWPOLYLINE
  5
1E6
330
1E
100
AcDbEntity
  8
LAYER_1
  6
Continuous
 62
     7
100
AcDbPolyline
 90
        4
 70
     0
 43
0.0
 10
-3.122708999999999
 20
-0.6013029999999999
 10
-3.107895
 20
-0.606839
 10
-3.091499
 20
-0.612409
 10
-3.073338999999999
 20
-0.618
  0
LWPOLYLINE
  5
1EC
330
1E
100
AcDbEntity
  8
LAYER_1
  6
Continuous
 62
     7
100
AcDbPolyline
 90
        4
 70
     0
 43
0.0
 10
-3.073338999999999
 20
-0.618
 10
-3.05324
 20
-0.623586
 10
-3.031059999999999
 20
-0.6291180000000001
 10
-3.006665
 20
-0.6345390000000001
  0
LWPOLYLINE
  5
1F2
330
1E
100
AcDbEntity
  8
LAYER_1
  6
Continuous
 62
     7
100
AcDbPolyline
 90
        4
 70
     0
 43
0.0
 10
-3.006665
 20
-0.6345390000000001
 10
-2.979957
 20
-0.639809
 10
-2.950969999999999
 20
-0.644862
 10
-2.919767999999999
 20
-0.64965
  0
LWPOLYLINE
  5
1F8
330
1E
100
AcDbEntity
  8
LAYER_1
  6
Continuous
 62
     7
100
AcDbPolyline
 90
        4
 70
     0
 43
0.0
 10
-2.919767999999999
 20
-0.64965
 10
-2.886432
 20
-0.6541120000000001
 10
-2.851116
 20
-0.658226
 10
-2.813983999999999
 20
-0.6619570000000001
  0
LWPOLYLINE
  5
1FE
330
1E
100
AcDbEntity
  8
LAYER_1
  6
Continuous
 62
     7
100
AcDbPolyline
 90
        4
 70
     0
 43
0.0
 10
-2.813983999999999
 20
-0.6619570000000001
 10
-2.775225999999999
 20
-0.6652600000000001
 10
-2.735063
 20
-0.668157
 10
-2.693747999999999
 20
-0.670665
  0
LWPOLYLINE
  5
204
330
1E
100
AcDbEntity
  8
LAYER_1
  6
Continuous
 62
     7
100
AcDbPolyline
 90
        4
 70
     0
 43
0.0
 10
-2.693747999999999
 20
-0.670665
 10
-2.651523
 20
-0.672795
 10
-2.608509999999999
 20
-0.6745510000000001
 10
-2.564831
 20
-0.675941
  0
LWPOLYLINE
  5
20A
330
1E
100
AcDbEntity
  8
LAYER_1
  6
Continuous
 62
     7
100
AcDbPolyline
 90
        4
 70
     0
 43
0.0
 10
-2.564831
 20
-0.675941
 10
-2.520595999999999
 20
-0.6769600000000001
 10
-2.475890999999999
 20
-0.6776600000000001
 10
-2.430803
 20
-0.678094
  0
LWPOLYLINE
  5
210
330
1E
100
AcDbEntity
  8
LAYER_1
  6
Continuous
 62
     7
100
AcDbPolyline
 90
        4
 70
     0
 43
0.0
 10
-2.430803
 20
-0.678094
 10
-2.385410999999999
 20
-0.678304
 10
-2.339751999999999
 20
-0.678283
 10
-2.293858
 20
-0.678012
  0
LWPOLYLINE
  5
216
330
1E
100
AcDbEntity
  8
LAYER_1
  6
Continuous
 62
     7
100
AcDbPolyline
 90
        4
 70
     0
 43
0.0
 10
-2.293858
 20
-0.678012
 10
-2.247761
 20
-0.677488
 10
-2.201465
 20
-0.676754
 10
-2.154968999999999
 20
-0.675858
  0
LWPOLYLINE
  5
21C
330
1E
100
AcDbEntity
  8
LAYER_1
  6
Continuous
 62
     7
100
AcDbPolyline
 90
        4
 70
     0
 43
0.0
 10
-2.154968999999999
 20
-0.675858
 10
-2.108279999999999
 20
-0.6748430000000001
 10
-2.061424
 20
-0.673699
 10
-2.014429
 20
-0.6724130000000001
  0
LWPOLYLINE
  5
222
330
1E
100
AcDbEntity
  8
LAYER_1
  6
Continuous
 62
     7
100
AcDbPolyline
 90
        4
 70
     0
 43
0.0
 10
-2.014429
 20
-0.6724130000000001
 10
-1.967335999999999
 20
-0.6709810000000001
 10
-1.920141999999999
 20
-0.669408
 10
-1.872846
 20
-0.667705
  0
LWPOLYLINE
  5
228
330
1E
100
AcDbEntity
  8
LAYER_1
  6
Continuous
 62
     7
100
AcDbPolyline
 90
        4
 70
     0
 43
0.0
 10
-1.872846
 20
-0.667705
 10
-1.825452999999999
 20
-0.6658930000000001
 10
-1.777981
 20
-0.6639960000000001
 10
-1.730440999999999
 20
-0.662028
  0
LWPOLYLINE
  5
22E
330
1E
100
AcDbEntity
  8
LAYER_1
  6
Continuous
 62
     7
100
AcDbPolyline
 90
        4
 70
     0
 43
0.0
 10
-1.730440999999999
 20
-0.662028
 10
-1.682835999999999
 20
-0.6600060000000001
 10
-1.635172999999999
 20
-0.657908
 10
-1.587429
 20
-0.65572
  0
LWPOLYLINE
  5
234
330
1E
100
AcDbEntity
  8
LAYER_1
  6
Continuous
 62
     7
100
AcDbPolyline
 90
        4
 70
     0
 43
0.0
 10
-1.587429
 20
-0.65572
 10
-1.539588999999999
 20
-0.653435
 10
-1.491662999999999
 20
-0.651075
 10
-1.443665
 20
-0.6486770000000001
  0
LWPOLYLINE
  5
23A
330
1E
100
AcDbEntity
  8
LAYER_1
  6
Continuous
 62
     7
100
AcDbPolyline
 90
        4
 70
     0
 43
0.0
 10
-1.443665
 20
-0.6486770000000001
 10
-1.395629
 20
-0.646287
 10
-1.347576
 20
-0.643872
 10
-1.299539
 20
-0.641413
  0
LWPOLYLINE
  5
240
330
1E
100
AcDbEntity
  8
LAYER_1
  6
Continuous
 62
     7
100
AcDbPolyline
 90
        4
 70
     0
 43
0.0
 10
-1.299539
 20
-0.641413
 10
-1.251530999999999
 20
-0.6389160000000001
 10
-1.203529
 20
-0.636383
 10
-1.155483999999999
 20
-0.633831
  0
LWPOLYLINE
  5
246
330
1E
100
AcDbEntity
  8
LAYER_1
  6
Continuous
 62
     7
100
AcDbPolyline
 90
        4
 70
     0
 43
0.0
 10
-1.155483999999999
 20
-0.633831
 10
-1.107344
 20
-0.6312630000000001
 10
-1.059155999999999
 20
-0.628682
 10
-1.010969
 20
-0.6260670000000001
  0
LWPOLYLINE
  5
24C
330
1E
100
AcDbEntity
  8
LAYER_1
  6
Continuous
 62
     7
100
AcDbPolyline
 90
        4
 70
     0
 43
0.0
 10
-1.010969
 20
-0.6260670000000001
 10
-0.9628149999999999
 20
-0.623416
 10
-0.914685
 20
-0.620741
 10
-0.8665389999999998
 20
-0.618083
  0
LWPOLYLINE
  5
252
330
1E
100
AcDbEntity
  8
LAYER_1
  6
Continuous
 62
     7
100
AcDbPolyline
 90
        4
 70
     0
 43
0.0
 10
-0.8665389999999998
 20
-0.618083
 10
-0.818341
 20
-0.6154640000000001
 10
-0.7701170000000001
 20
-0.6128650000000001
 10
-0.7218740000000001
 20
-0.6102479999999999
  0
LWPOLYLINE
  5
258
330
1E
100
AcDbEntity
  8
LAYER_1
  6
Continuous
 62
     7
100
AcDbPolyline
 90
        4
 70
     0
 43
0.0
 10
-0.7218740000000001
 20
-0.6102479999999999
 10
-0.6736360000000001
 20
-0.607592
 10
-0.6254109999999999
 20
-0.60492
 10
-0.57722
 20
-0.602264
  0
LWPOLYLINE
  5
25E
330
1E
100
AcDbEntity
  8
LAYER_1
  6
Continuous
 62
     7
100
AcDbPolyline
 90
        4
 70
     0
 43
0.0
 10
-0.57722
 20
-0.602264
 10
-0.5290650000000001
 20
-0.599645
 10
-0.480936
 20
-0.597046
 10
-0.4327910000000001
 20
-0.594429
  0
LWPOLYLINE
  5
264
330
1E
100
AcDbEntity
  8
LAYER_1
  6
Continuous
 62
     7
100
AcDbPolyline
 90
        4
 70
     0
 43
0.0
 10
-0.4327910000000001
 20
-0.594429
 10
-0.384599
 20
-0.5917690000000001
 10
-0.33637
 20
-0.5890890000000001
 10
-0.288122
 20
-0.586429
  0
LWPOLYLINE
  5
26A
330
1E
100
AcDbEntity
  8
LAYER_1
  6
Continuous
 62
     7
100
AcDbPolyline
 90
        4
 70
     0
 43
0.0
 10
-0.288122
 20
-0.586429
 10
-0.239878
 20
-0.583824
 10
-0.191638
 20
-0.5812510000000001
 10
-0.143402
 20
-0.578693
  0
LWPOLYLINE
  5
270
330
1E
100
AcDbEntity
  8
LAYER_1
  6
Continuous
 62
     7
100
AcDbPolyline
 90
        4
 70
     0
 43
0.0
 10
-0.143402
 20
-0.578693
 10
-0.095154
 20
-0.576124
 10
-0.046926
 20
-0.573543
 10
0.001264
 20
-0.5709290000000001
  0
LWPOLYLINE
  5
276
330
1E
100
AcDbEntity
  8
LAYER_1
  6
Continuous
 62
     7
100
AcDbPolyline
 90
        4
 70
     0
 43
0.0
 10
0.001264
 20
-0.5709290000000001
 10
0.049409
 20
-0.568278
 10
0.097524
 20
-0.565603
 10
0.145622
 20
-0.562941
  0
LWPOLYLINE
  5
27C
330
1E
100
AcDbEntity
  8
LAYER_1
  6
Continuous
 62
     7
100
AcDbPolyline
 90
        4
 70
     0
 43
0.0
 10
0.145622
 20
-0.562941
 10
0.193723
 20
-0.560328
 10
0.241839
 20
-0.5577510000000001
 10
0.289984
 20
-0.5551930000000001
  0
LWPOLYLINE
  5
282
330
1E
100
AcDbEntity
  8
LAYER_1
  6
Continuous
 62
     7
100
AcDbPolyline
 90
        4
 70
     0
 43
0.0
 10
0.289984
 20
-0.5551930000000001
 10
0.338171
 20
-0.552635
 10
0.386393
 20
-0.550057
 10
0.434638
 20
-0.547441
  0
LWPOLYLINE
  5
288
330
1E
100
AcDbEntity
  8
LAYER_1
  6
Continuous
 62
     7
100
AcDbPolyline
 90
        4
 70
     0
 43
0.0
 10
0.434638
 20
-0.547441
 10
0.4828800000000001
 20
-0.544782
 10
0.5311020000000001
 20
-0.542108
 10
0.579291
 20
-0.539457
  0
LWPOLYLINE
  5
28E
330
1E
100
AcDbEntity
  8
LAYER_1
  6
Continuous
 62
     7
100
AcDbPolyline
 90
        4
 70
     0
 43
0.0
 10
0.579291
 20
-0.539457
 10
0.627445
 20
-0.5368390000000001
 10
0.6755790000000001
 20
-0.5342550000000001
 10
0.723732
 20
-0.5316930000000001
  0
LWPOLYLINE
  5
294
330
1E
100
AcDbEntity
  8
LAYER_1
  6
Continuous
 62
     7
100
AcDbPolyline
 90
        4
 70
     0
 43
0.0
 10
0.723732
 20
-0.5316930000000001
 10
0.771922
 20
-0.5291380000000001
 10
0.8201440000000001
 20
-0.5265830000000001
 10
0.8683860000000001
 20
-0.524028
  0
LWPOLYLINE
  5
29A
330
1E
100
AcDbEntity
  8
LAYER_1
  6
Continuous
 62
     7
100
AcDbPolyline
 90
        4
 70
     0
 43
0.0
 10
0.8683860000000001
 20
-0.524028
 10
0.916636
 20
-0.52147
 10
0.9648979999999999
 20
-0.518914
 10
1.013193
 20
-0.516358
  0
LWPOLYLINE
  5
2A0
330
1E
100
AcDbEntity
  8
LAYER_1
  6
Continuous
 62
     7
100
AcDbPolyline
 90
        4
 70
     0
 43
0.0
 10
1.013193
 20
-0.516358
 10
1.061236
 20
-0.513814
 10
1.107512999999999
 20
-0.511357
 10
1.150204999999999
 20
-0.509083
  0
LWPOLYLINE
  5
2A6
330
1E
100
AcDbEntity
  8
LAYER_1
  6
Continuous
 62
     7
100
AcDbPolyline
 90
        4
 70
     0
 43
0.0
 10
1.150204999999999
 20
-0.509083
 10
1.187516
 20
-0.507078
 10
1.217651
 20
-0.505443
 10
1.238831
 20
-0.504291
  0
LWPOLYLINE
  5
2AC
330
1E
100
AcDbEntity
  8
LAYER_1
  6
Continuous
 62
     7
100
AcDbPolyline
 90
        4
 70
     0
 43
0.0
 10
1.238831
 20
-0.504291
 10
1.250167999999999
 20
-0.503674
 10
1.254344
 20
-0.503446
 10
1.254941
 20
-0.5034130000000001
  0
LWPOLYLINE
  5
2B2
330
1E
100
AcDbEntity
  8
LAYER_1
  6
Continuous
 62
     7
100
AcDbPolyline
 90
        4
 70
     0
 43
0.0
 10
0.3830119999999999
 20
4.038330999999999
 10
0.382614
 20
4.038348
 10
0.379831
 20
4.038470999999999
 10
0.372276
 20
4.038802999999999
  0
LWPOLYLINE
  5
2B8
330
1E
100
AcDbEntity
  8
LAYER_1
  6
Continuous
 62
     7
100
AcDbPolyline
 90
        4
 70
     0
 43
0.0
 10
0.372276
 20
4.038802999999999
 10
0.35815
 20
4.039433999999999
 10
0.338061
 20
4.040316999999999
 10
0.313193
 20
4.041401999999999
  0
LWPOLYLINE
  5
2BE
330
1E
100
AcDbEntity
  8
LAYER_1
  6
Continuous
 62
     7
100
AcDbPolyline
 90
        4
 70
     0
 43
0.0
 10
0.313193
 20
4.041401999999999
 10
0.284724
 20
4.042633
 10
0.253872
 20
4.043965
 10
0.221846
 20
4.045346
  0
LWPOLYLINE
  5
2C4
330
1E
100
AcDbEntity
  8
LAYER_1
  6
Continuous
 62
     7
100
AcDbPolyline
 90
        4
 70
     0
 43
0.0
 10
0.221846
 20
4.045346
 10
0.18965
 20
4.046725
 10
0.157471
 20
4.048111
 10
0.125303
 20
4.0495
  0
LWPOLYLINE
  5
2CA
330
1E
100
AcDbEntity
  8
LAYER_1
  6
Continuous
 62
     7
100
AcDbPolyline
 90
        4
 70
     0
 43
0.0
 10
0.125303
 20
4.0495
 10
0.093143
 20
4.050883999999999
 10
0.060998
 20
4.052266
 10
0.028874
 20
4.05365
  0
LWPOLYLINE
  5
2D0
330
1E
100
AcDbEntity
  8
LAYER_1
  6
Continuous
 62
     7
100
AcDbPolyline
 90
        4
 70
     0
 43
0.0
 10
0.028874
 20
4.05365
 10
-0.00323
 20
4.055037
 10
-0.035317
 20
4.05643
 10
-0.067413
 20
4.057845999999999
  0
LWPOLYLINE
  5
2D6
330
1E
100
AcDbEntity
  8
LAYER_1
  6
Continuous
 62
     7
100
AcDbPolyline
 90
        4
 70
     0
 43
0.0
 10
-0.067413
 20
4.057845999999999
 10
-0.099541
 20
4.059287
 10
-0.131683
 20
4.060737
 10
-0.163819
 20
4.062176999999999
  0
LWPOLYLINE
  5
2DC
330
1E
100
AcDbEntity
  8
LAYER_1
  6
Continuous
 62
     7
100
AcDbPolyline
 90
        4
 70
     0
 43
0.0
 10
-0.163819
 20
4.062176999999999
 10
-0.195913
 20
4.063596999999999
 10
-0.227987
 20
4.064994
 10
-0.260055
 20
4.066373999999999
  0
LWPOLYLINE
  5
2E2
330
1E
100
AcDbEntity
  8
LAYER_1
  6
Continuous
 62
     7
100
AcDbPolyline
 90
        4
 70
     0
 43
0.0
 10
-0.260055
 20
4.066373999999999
 10
-0.292113
 20
4.067764
 10
-0.324174
 20
4.069162999999999
 10
-0.356232
 20
4.070583
  0
LWPOLYLINE
  5
2E8
330
1E
100
AcDbEntity
  8
LAYER_1
  6
Continuous
 62
     7
100
AcDbPolyline
 90
        4
 70
     0
 43
0.0
 10
-0.356232
 20
4.070583
 10
-0.388301
 20
4.072014
 10
-0.420379
 20
4.073459999999999
 10
-0.4524840000000001
 20
4.074901999999999
  0
LWPOLYLINE
  5
2EE
330
1E
100
AcDbEntity
  8
LAYER_1
  6
Continuous
 62
     7
100
AcDbPolyline
 90
        4
 70
     0
 43
0.0
 10
-0.4524840000000001
 20
4.074901999999999
 10
-0.484611
 20
4.076317999999999
 10
-0.5167600000000001
 20
4.077714
 10
-0.548913
 20
4.079094
  0
LWPOLYLINE
  5
2F4
330
1E
100
AcDbEntity
  8
LAYER_1
  6
Continuous
 62
     7
100
AcDbPolyline
 90
        4
 70
     0
 43
0.0
 10
-0.548913
 20
4.079094
 10
-0.581079
 20
4.080486
 10
-0.613232
 20
4.081885999999999
 10
-0.645358
 20
4.083302999999999
  0
LWPOLYLINE
  5
2FA
330
1E
100
AcDbEntity
  8
LAYER_1
  6
Continuous
 62
     7
100
AcDbPolyline
 90
        4
 70
     0
 43
0.0
 10
-0.645358
 20
4.083302999999999
 10
-0.6774580000000001
 20
4.084737999999999
 10
-0.7095500000000001
 20
4.086187
 10
-0.74165
 20
4.087622
  0
LWPOLYLINE
  5
300
330
1E
100
AcDbEntity
  8
LAYER_1
  6
Continuous
 62
     7
100
AcDbPolyline
 90
        4
 70
     0
 43
0.0
 10
-0.74165
 20
4.087622
 10
-0.7737790000000001
 20
4.089043
 10
-0.8059279999999999
 20
4.090453
 10
-0.8380829999999999
 20
4.091873999999999
  0
LWPOLYLINE
  5
306
330
1E
100
AcDbEntity
  8
LAYER_1
  6
Continuous
 62
     7
100
AcDbPolyline
 90
        4
 70
     0
 43
0.0
 10
-0.8380829999999999
 20
4.091873999999999
 10
-0.870246
 20
4.093312
 10
-0.9023979999999999
 20
4.094758999999999
 10
-0.934528
 20
4.096205
  0
LWPOLYLINE
  5
30C
330
1E
100
AcDbEntity
  8
LAYER_1
  6
Continuous
 62
     7
100
AcDbPolyline
 90
        4
 70
     0
 43
0.0
 10
-0.934528
 20
4.096205
 10
-0.966627
 20
4.097615
 10
-0.9987169999999998
 20
4.099021999999999
 10
-1.030819
 20
4.100441
  0
LWPOLYLINE
  5
312
330
1E
100
AcDbEntity
  8
LAYER_1
  6
Continuous
 62
     7
100
AcDbPolyline
 90
        4
 70
     0
 43
0.0
 10
-1.030819
 20
4.100441
 10
-1.062940999999999
 20
4.101884
 10
-1.095075
 20
4.103331999999999
 10
-1.127205
 20
4.104764
  0
LWPOLYLINE
  5
318
330
1E
100
AcDbEntity
  8
LAYER_1
  6
Continuous
 62
     7
100
AcDbPolyline
 90
        4
 70
     0
 43
0.0
 10
-1.127205
 20
4.104764
 10
-1.159304
 20
4.106180999999999
 10
-1.191381
 20
4.10758
 10
-1.223441
 20
4.108969
  0
LWPOLYLINE
  5
31E
330
1E
100
AcDbEntity
  8
LAYER_1
  6
Continuous
 62
     7
100
AcDbPolyline
 90
        4
 70
     0
 43
0.0
 10
-1.223441
 20
4.108969
 10
-1.255498999999999
 20
4.110346999999999
 10
-1.287551
 20
4.111722
 10
-1.319582999999999
 20
4.113083
  0
LWPOLYLINE
  5
324
330
1E
100
AcDbEntity
  8
LAYER_1
  6
Continuous
 62
     7
100
AcDbPolyline
 90
        4
 70
     0
 43
0.0
 10
-1.319582999999999
 20
4.113083
 10
-1.35158
 20
4.114405999999999
 10
-1.383556999999999
 20
4.115714999999999
 10
-1.415528
 20
4.117011999999999
  0
LWPOLYLINE
  5
32A
330
1E
100
AcDbEntity
  8
LAYER_1
  6
Continuous
 62
     7
100
AcDbPolyline
 90
        4
 70
     0
 43
0.0
 10
-1.415528
 20
4.117011999999999
 10
-1.447486
 20
4.118312
 10
-1.479435999999999
 20
4.119588999999999
 10
-1.511357999999999
 20
4.120830999999999
  0
LWPOLYLINE
  5
330
330
1E
100
AcDbEntity
  8
LAYER_1
  6
Continuous
 62
     7
100
AcDbPolyline
 90
        4
 70
     0
 43
0.0
 10
-1.511357999999999
 20
4.120830999999999
 10
-1.543254
 20
4.122012999999999
 10
-1.575093999999999
 20
4.123148999999999
 10
-1.606857999999999
 20
4.124248
  0
LWPOLYLINE
  5
336
330
1E
100
AcDbEntity
  8
LAYER_1
  6
Continuous
 62
     7
100
AcDbPolyline
 90
        4
 70
     0
 43
0.0
 10
-1.606857999999999
 20
4.124248
 10
-1.638525999999999
 20
4.125312
 10
-1.670127999999999
 20
4.126336
 10
-1.701693
 20
4.127318999999999
  0
LWPOLYLINE
  5
33C
330
1E
100
AcDbEntity
  8
LAYER_1
  6
Continuous
 62
     7
100
AcDbPolyline
 90
        4
 70
     0
 43
0.0
 10
-1.701693
 20
4.127318999999999
 10
-1.733252
 20
4.128244
 10
-1.764759999999999
 20
4.129108999999999
 10
-1.796177
 20
4.129913
  0
LWPOLYLINE
  5
342
330
1E
100
AcDbEntity
  8
LAYER_1
  6
Continuous
 62
     7
100
AcDbPolyline
 90
        4
 70
     0
 43
0.0
 10
-1.796177
 20
4.129913
 10
-1.827487999999999
 20
4.130660999999999
 10
-1.858679999999999
 20
4.13133
 10
-1.889775999999999
 20
4.131901999999999
  0
LWPOLYLINE
  5
348
330
1E
100
AcDbEntity
  8
LAYER_1
  6
Continuous
 62
     7
100
AcDbPolyline
 90
        4
 70
     0
 43
0.0
 10
-1.889775999999999
 20
4.131901999999999
 10
-1.920804
 20
4.132369
 10
-1.951729999999999
 20
4.132715
 10
-1.982527999999999
 20
4.132941
  0
LWPOLYLINE
  5
34E
330
1E
100
AcDbEntity
  8
LAYER_1
  6
Continuous
 62
     7
100
AcDbPolyline
 90
        4
 70
     0
 43
0.0
 10
-1.982527999999999
 20
4.132941
 10
-2.013151999999999
 20
4.133062
 10
-2.043606
 20
4.133062
 10
-2.073873999999999
 20
4.132941
  0
LWPOLYLINE
  5
354
330
1E
100
AcDbEntity
  8
LAYER_1
  6
Continuous
 62
     7
100
AcDbPolyline
 90
        4
 70
     0
 43
0.0
 10
-2.073873999999999
 20
4.132941
 10
-2.103928999999999
 20
4.132711
 10
-2.133729
 20
4.132330999999999
 10
-2.163219999999999
 20
4.131776
  0
LWPOLYLINE
  5
35A
330
1E
100
AcDbEntity
  8
LAYER_1
  6
Continuous
 62
     7
100
AcDbPolyline
 90
        4
 70
     0
 43
0.0
 10
-2.163219999999999
 20
4.131776
 10
-2.192336
 20
4.131026
 10
-2.221013
 20
4.130087999999999
 10
-2.249165
 20
4.128969
  0
LWPOLYLINE
  5
360
330
1E
100
AcDbEntity
  8
LAYER_1
  6
Continuous
 62
     7
100
AcDbPolyline
 90
        4
 70
     0
 43
0.0
 10
-2.249165
 20
4.128969
 10
-2.276702999999999
 20
4.127658999999999
 10
-2.303476999999999
 20
4.126151
 10
-2.329318999999999
 20
4.124412999999999
  0
LWPOLYLINE
  5
366
330
1E
100
AcDbEntity
  8
LAYER_1
  6
Continuous
 62
     7
100
AcDbPolyline
 90
        4
 70
     0
 43
0.0
 10
-2.329318999999999
 20
4.124412999999999
 10
-2.354077999999999
 20
4.122429
 10
-2.377622999999999
 20
4.120214999999999
 10
-2.399845999999999
 20
4.117803
  0
LWPOLYLINE
  5
36C
330
1E
100
AcDbEntity
  8
LAYER_1
  6
Continuous
 62
     7
100
AcDbPolyline
 90
        4
 70
     0
 43
0.0
 10
-2.399845999999999
 20
4.117803
 10
-2.420649
 20
4.115205999999999
 10
-2.439973
 20
4.112452999999999
 10
-2.457775999999999
 20
4.109567
  0
LWPOLYLINE
  5
372
330
1E
100
AcDbEntity
  8
LAYER_1
  6
Continuous
 62
     7
100
AcDbPolyline
 90
        4
 70
     0
 43
0.0
 10
-2.457775999999999
 20
4.109567
 10
-2.474038
 20
4.106575
 10
-2.488836999999999
 20
4.103517
 10
-2.502275999999999
 20
4.100441
  0
LWPOLYLINE
  5
378
330
1E
100
AcDbEntity
  8
LAYER_1
  6
Continuous
 62
     7
100
AcDbPolyline
 90
        4
 70
     0
 43
0.0
 10
-2.502275999999999
 20
4.100441
 10
-2.514441
 20
4.097387999999999
 10
-2.525443999999999
 20
4.094368
 10
-2.535385999999999
 20
4.091385999999999
  0
LWPOLYLINE
  5
37E
330
1E
100
AcDbEntity
  8
LAYER_1
  6
Continuous
 62
     7
100
AcDbPolyline
 90
        4
 70
     0
 43
0.0
 10
-2.535385999999999
 20
4.091385999999999
 10
-2.544362
 20
4.088478
 10
-2.552467
 20
4.085609999999999
 10
-2.559803
 20
4.082775999999999
  0
LWPOLYLINE
  5
384
330
1E
100
AcDbEntity
  8
LAYER_1
  6
Continuous
 62
     7
100
AcDbPolyline
 90
        4
 70
     0
 43
0.0
 10
-2.559803
 20
4.082775999999999
 10
-2.566475999999999
 20
4.079977999999999
 10
-2.572534999999999
 20
4.077198
 10
-2.578038999999999
 20
4.074429
  0
LWPOLYLINE
  5
38A
330
1E
100
AcDbEntity
  8
LAYER_1
  6
Continuous
 62
     7
100
AcDbPolyline
 90
        4
 70
     0
 43
0.0
 10
-2.578038999999999
 20
4.074429
 10
-2.583038999999999
 20
4.071655999999999
 10
-2.5876
 20
4.068899
 10
-2.591775999999999
 20
4.066164999999999
  0
LWPOLYLINE
  5
390
330
1E
100
AcDbEntity
  8
LAYER_1
  6
Continuous
 62
     7
100
AcDbPolyline
 90
        4
 70
     0
 43
0.0
 10
-2.591775999999999
 20
4.066164999999999
 10
-2.595597999999999
 20
4.063442
 10
-2.599079999999999
 20
4.060725999999999
 10
-2.602205
 20
4.057983999999999
  0
LWPOLYLINE
  5
396
330
1E
100
AcDbEntity
  8
LAYER_1
  6
Continuous
 62
     7
100
AcDbPolyline
 90
        4
 70
     0
 43
0.0
 10
-2.602205
 20
4.057983999999999
 10
-2.604964999999999
 20
4.055183
 10
-2.60734
 20
4.052338999999999
 10
-2.609302999999999
 20
4.049457
  0
LWPOLYLINE
  5
39C
330
1E
100
AcDbEntity
  8
LAYER_1
  6
Continuous
 62
     7
100
AcDbPolyline
 90
        4
 70
     0
 43
0.0
 10
-2.609302999999999
 20
4.049457
 10
-2.61084
 20
4.046541
 10
-2.611962
 20
4.043595999999999
 10
-2.612693
 20
4.040621999999999
  0
LWPOLYLINE
  5
3A2
330
1E
100
AcDbEntity
  8
LAYER_1
  6
Continuous
 62
     7
100
AcDbPolyline
 90
        4
 70
     0
 43
0.0
 10
-2.612693
 20
4.040621999999999
 10
-2.613062999999999
 20
4.037625
 10
-2.613062999999999
 20
4.034608999999999
 10
-2.612693
 20
4.031583
  0
LWPOLYLINE
  5
3A8
330
1E
100
AcDbEntity
  8
LAYER_1
  6
Continuous
 62
     7
100
AcDbPolyline
 90
        4
 70
     0
 43
0.0
 10
-2.612693
 20
4.031583
 10
-2.611962
 20
4.028559999999999
 10
-2.61084
 20
4.025564
 10
-2.609302999999999
 20
4.022622
  0
LWPOLYLINE
  5
3AE
330
1E
100
AcDbEntity
  8
LAYER_1
  6
Continuous
 62
     7
100
AcDbPolyline
 90
        4
 70
     0
 43
0.0
 10
-2.609302999999999
 20
4.022622
 10
-2.607343
 20
4.019760999999999
 10
-2.604983
 20
4.016956999999999
 10
-2.602263999999999
 20
4.014177
  0
LWPOLYLINE
  5
3B4
330
1E
100
AcDbEntity
  8
LAYER_1
  6
Continuous
 62
     7
100
AcDbPolyline
 90
        4
 70
     0
 43
0.0
 10
-2.602263999999999
 20
4.014177
 10
-2.599191999999999
 20
4.011414
 10
-2.595769999999999
 20
4.008658
 10
-2.591968999999999
 20
4.005912999999999
  0
LWPOLYLINE
  5
3BA
330
1E
100
AcDbEntity
  8
LAYER_1
  6
Continuous
 62
     7
100
AcDbPolyline
 90
        4
 70
     0
 43
0.0
 10
-2.591968999999999
 20
4.005912999999999
 10
-2.587769999999999
 20
4.003203
 10
-2.583153999999999
 20
4.000497
 10
-2.578093999999999
 20
3.997775999999999
  0
LWPOLYLINE
  5
3C0
330
1E
100
AcDbEntity
  8
LAYER_1
  6
Continuous
 62
     7
100
AcDbPolyline
 90
        4
 70
     0
 43
0.0
 10
-2.578093999999999
 20
3.997775999999999
 10
-2.572550999999999
 20
3.995038999999999
 10
-2.566478
 20
3.992261
 10
-2.559803
 20
3.989428999999999
  0
LWPOLYLINE
  5
3C6
330
1E
100
AcDbEntity
  8
LAYER_1
  6
Continuous
 62
     7
100
AcDbPolyline
 90
        4
 70
     0
 43
0.0
 10
-2.559803
 20
3.989428999999999
 10
-2.55247
 20
3.986541
 10
-2.544378
 20
3.983607
 10
-2.535441
 20
3.980637999999999
  0
LWPOLYLINE
  5
3CC
330
1E
100
AcDbEntity
  8
LAYER_1
  6
Continuous
 62
     7
100
AcDbPolyline
 90
        4
 70
     0
 43
0.0
 10
-2.535441
 20
3.980637999999999
 10
-2.525566999999999
 20
3.977637999999999
 10
-2.514634999999999
 20
3.974620999999999
 10
-2.502527999999999
 20
3.971593999999999
  0
LWPOLYLINE
  5
3D2
330
1E
100
AcDbEntity
  8
LAYER_1
  6
Continuous
 62
     7
100
AcDbPolyline
 90
        4
 70
     0
 43
0.0
 10
-2.502527999999999
 20
3.971593999999999
 10
-2.489128
 20
3.968571999999999
 10
-2.474343
 20
3.965576999999999
 10
-2.458083
 20
3.962637999999999
  0
LWPOLYLINE
  5
3D8
330
1E
100
AcDbEntity
  8
LAYER_1
  6
Continuous
 62
     7
100
AcDbPolyline
 90
        4
 70
     0
 43
0.0
 10
-2.458083
 20
3.962637999999999
 10
-2.440268999999999
 20
3.959783999999999
 10
-2.420943999999999
 20
3.957048
 10
-2.40015
 20
3.954457
  0
LWPOLYLINE
  5
3DE
330
1E
100
AcDbEntity
  8
LAYER_1
  6
Continuous
 62
     7
100
AcDbPolyline
 90
        4
 70
     0
 43
0.0
 10
-2.40015
 20
3.954457
 10
-2.377923
 20
3.952033
 10
-2.354375999999999
 20
3.949805
 10
-2.329622
 20
3.947791
  0
LWPOLYLINE
  5
3E4
330
1E
100
AcDbEntity
  8
LAYER_1
  6
Continuous
 62
     7
100
AcDbPolyline
 90
        4
 70
     0
 43
0.0
 10
-2.329622
 20
3.947791
 10
-2.303779999999999
 20
3.946
 10
-2.277006
 20
3.94443
 10
-2.249468999999999
 20
3.943066999999999
  0
LWPOLYLINE
  5
3EA
330
1E
100
AcDbEntity
  8
LAYER_1
  6
Continuous
 62
     7
100
AcDbPolyline
 90
        4
 70
     0
 43
0.0
 10
-2.249468999999999
 20
3.943066999999999
 10
-2.221309999999999
 20
3.941916
 10
-2.192633
 20
3.940965
 10
-2.163511999999999
 20
3.940219999999999
  0
LWPOLYLINE
  5
3F0
330
1E
100
AcDbEntity
  8
LAYER_1
  6
Continuous
 62
     7
100
AcDbPolyline
 90
        4
 70
     0
 43
0.0
 10
-2.163511999999999
 20
3.940219999999999
 10
-2.134020999999999
 20
3.939664
 10
-2.104220999999999
 20
3.939280999999999
 10
-2.074165
 20
3.939038999999999
  0
LWPOLYLINE
  5
3F6
330
1E
100
AcDbEntity
  8
LAYER_1
  6
Continuous
 62
     7
100
AcDbPolyline
 90
        4
 70
     0
 43
0.0
 10
-2.074165
 20
3.939038999999999
 10
-2.043905
 20
3.938930999999999
 10
-2.013468
 20
3.938941999999999
 10
-1.982874
 20
3.939083
  0
LWPOLYLINE
  5
3FC
330
1E
100
AcDbEntity
  8
LAYER_1
  6
Continuous
 62
     7
100
AcDbPolyline
 90
        4
 70
     0
 43
0.0
 10
-1.982874
 20
3.939083
 10
-1.952140999999999
 20
3.939369
 10
-1.921275999999999
 20
3.939769999999999
 10
-1.890275999999999
 20
3.940263999999999
  0
LWPOLYLINE
  5
402
330
1E
100
AcDbEntity
  8
LAYER_1
  6
Continuous
 62
     7
100
AcDbPolyline
 90
        4
 70
     0
 43
0.0
 10
-1.890275999999999
 20
3.940263999999999
 10
-1.859150999999999
 20
3.940808999999999
 10
-1.827909
 20
3.941426999999999
 10
-1.796583
 20
3.942121999999999
  0
LWPOLYLINE
  5
408
330
1E
100
AcDbEntity
  8
LAYER_1
  6
Continuous
 62
     7
100
AcDbPolyline
 90
        4
 70
     0
 43
0.0
 10
-1.796583
 20
3.942121999999999
 10
-1.765188
 20
3.942898999999999
 10
-1.733725999999999
 20
3.94375
 10
-1.702193
 20
3.944665
  0
LWPOLYLINE
  5
40E
330
1E
100
AcDbEntity
  8
LAYER_1
  6
Continuous
 62
     7
100
AcDbPolyline
 90
        4
 70
     0
 43
0.0
 10
-1.702193
 20
3.944665
 10
-1.670602
 20
3.945648999999999
 10
-1.638949
 20
3.94668
 10
-1.607248
 20
3.947748
  0
LWPOLYLINE
  5
414
330
1E
100
AcDbEntity
  8
LAYER_1
  6
Continuous
 62
     7
100
AcDbPolyline
 90
        4
 70
     0
 43
0.0
 10
-1.607248
 20
3.947748
 10
-1.575519
 20
3.948847
 10
-1.543744
 20
3.949982999999999
 10
-1.511912999999999
 20
3.951164999999999
  0
LWPOLYLINE
  5
41A
330
1E
100
AcDbEntity
  8
LAYER_1
  6
Continuous
 62
     7
100
AcDbPolyline
 90
        4
 70
     0
 43
0.0
 10
-1.511912999999999
 20
3.951164999999999
 10
-1.48002
 20
3.952401999999999
 10
-1.448066
 20
3.953676999999999
 10
-1.416066999999999
 20
3.954969
  0
LWPOLYLINE
  5
420
330
1E
100
AcDbEntity
  8
LAYER_1
  6
Continuous
 62
     7
100
AcDbPolyline
 90
        4
 70
     0
 43
0.0
 10
-1.416066999999999
 20
3.954969
 10
-1.384044
 20
3.956273
 10
-1.352009999999999
 20
3.957582999999999
 10
-1.319984
 20
3.958912999999999
  0
LWPOLYLINE
  5
426
330
1E
100
AcDbEntity
  8
LAYER_1
  6
Continuous
 62
     7
100
AcDbPolyline
 90
        4
 70
     0
 43
0.0
 10
-1.319984
 20
3.958912999999999
 10
-1.287978999999999
 20
3.960264
 10
-1.255975
 20
3.96164
 10
-1.223940999999999
 20
3.963027999999999
  0
LWPOLYLINE
  5
42C
330
1E
100
AcDbEntity
  8
LAYER_1
  6
Continuous
 62
     7
100
AcDbPolyline
 90
        4
 70
     0
 43
0.0
 10
-1.223940999999999
 20
3.963027999999999
 10
-1.191854999999999
 20
3.964416
 10
-1.159732999999999
 20
3.965811
 10
-1.12761
 20
3.967219999999999
  0
LWPOLYLINE
  5
432
330
1E
100
AcDbEntity
  8
LAYER_1
  6
Continuous
 62
     7
100
AcDbPolyline
 90
        4
 70
     0
 43
0.0
 10
-1.12761
 20
3.967219999999999
 10
-1.095503
 20
3.968660999999999
 10
-1.063414999999999
 20
3.970112
 10
-1.031319
 20
3.971555
  0
LWPOLYLINE
  5
438
330
1E
100
AcDbEntity
  8
LAYER_1
  6
Continuous
 62
     7
100
AcDbPolyline
 90
        4
 70
     0
 43
0.0
 10
-1.031319
 20
3.971555
 10
-0.9991899999999999
 20
3.972969999999999
 10
-0.967037
 20
3.974373999999999
 10
-0.9348739999999999
 20
3.975791
  0
LWPOLYLINE
  5
43E
330
1E
100
AcDbEntity
  8
LAYER_1
  6
Continuous
 62
     7
100
AcDbPolyline
 90
        4
 70
     0
 43
0.0
 10
-0.9348739999999999
 20
3.975791
 10
-0.902712
 20
3.977231999999999
 10
-0.8705659999999999
 20
3.978682
 10
-0.8384409999999999
 20
3.980122
  0
LWPOLYLINE
  5
444
330
1E
100
AcDbEntity
  8
LAYER_1
  6
Continuous
 62
     7
100
AcDbPolyline
 90
        4
 70
     0
 43
0.0
 10
-0.8384409999999999
 20
3.980122
 10
-0.8063369999999999
 20
3.981533
 10
-0.774249
 20
3.98294
 10
-0.74215
 20
3.984358
  0
LWPOLYLINE
  5
44A
330
1E
100
AcDbEntity
  8
LAYER_1
  6
Continuous
 62
     7
100
AcDbPolyline
 90
        4
 70
     0
 43
0.0
 10
-0.74215
 20
3.984358
 10
-0.710023
 20
3.985801
 10
-0.6778710000000001
 20
3.987251999999999
 10
-0.645705
 20
3.988692999999999
  0
LWPOLYLINE
  5
450
330
1E
100
AcDbEntity
  8
LAYER_1
  6
Continuous
 62
     7
100
AcDbPolyline
 90
        4
 70
     0
 43
0.0
 10
-0.645705
 20
3.988692999999999
 10
-0.61354
 20
3.990107
 10
-0.581378
 20
3.991499999999999
 10
-0.54922
 20
3.992886
  0
LWPOLYLINE
  5
456
330
1E
100
AcDbEntity
  8
LAYER_1
  6
Continuous
 62
     7
100
AcDbPolyline
 90
        4
 70
     0
 43
0.0
 10
-0.54922
 20
3.992886
 10
-0.5170560000000001
 20
3.994276999999999
 10
-0.484903
 20
3.995673999999999
 10
-0.452776
 20
3.997083
  0
LWPOLYLINE
  5
45C
330
1E
100
AcDbEntity
  8
LAYER_1
  6
Continuous
 62
     7
100
AcDbPolyline
 90
        4
 70
     0
 43
0.0
 10
-0.452776
 20
3.997083
 10
-0.4206780000000001
 20
3.998523
 10
-0.388601
 20
3.999973
 10
-0.356539
 20
4.001412999999999
  0
LWPOLYLINE
  5
462
330
1E
100
AcDbEntity
  8
LAYER_1
  6
Continuous
 62
     7
100
AcDbPolyline
 90
        4
 70
     0
 43
0.0
 10
-0.356539
 20
4.001412999999999
 10
-0.324471
 20
4.002831999999999
 10
-0.292398
 20
4.004227999999999
 10
-0.260303
 20
4.005609999999999
  0
LWPOLYLINE
  5
468
330
1E
100
AcDbEntity
  8
LAYER_1
  6
Continuous
 62
     7
100
AcDbPolyline
 90
        4
 70
     0
 43
0.0
 10
-0.260303
 20
4.005609999999999
 10
-0.228176
 20
4.007000999999999
 10
-0.196024
 20
4.008399999999999
 10
-0.163858
 20
4.009819
  0
LWPOLYLINE
  5
46E
330
1E
100
AcDbEntity
  8
LAYER_1
  6
Continuous
 62
     7
100
AcDbPolyline
 90
        4
 70
     0
 43
0.0
 10
-0.163858
 20
4.009819
 10
-0.131695
 20
4.011248
 10
-0.099543
 20
4.012694999999999
 10
-0.067413
 20
4.014137999999999
  0
LWPOLYLINE
  5
474
330
1E
100
AcDbEntity
  8
LAYER_1
  6
Continuous
 62
     7
100
AcDbPolyline
 90
        4
 70
     0
 43
0.0
 10
-0.067413
 20
4.014137999999999
 10
-0.035317
 20
4.015554999999999
 10
-0.00323
 20
4.016955
 10
0.028874
 20
4.018346
  0
LWPOLYLINE
  5
47A
330
1E
100
AcDbEntity
  8
LAYER_1
  6
Continuous
 62
     7
100
AcDbPolyline
 90
        4
 70
     0
 43
0.0
 10
0.028874
 20
4.018346
 10
0.060998
 20
4.019725
 10
0.093143
 20
4.021111
 10
0.125303
 20
4.022499999999999
  0
LWPOLYLINE
  5
480
330
1E
100
AcDbEntity
  8
LAYER_1
  6
Continuous
 62
     7
100
AcDbPolyline
 90
        4
 70
     0
 43
0.0
 10
0.125303
 20
4.022499999999999
 10
0.157471
 20
4.023883999999999
 10
0.18965
 20
4.025266
 10
0.221846
 20
4.02665
  0
LWPOLYLINE
  5
486
330
1E
100
AcDbEntity
  8
LAYER_1
  6
Continuous
 62
     7
100
AcDbPolyline
 90
        4
 70
     0
 43
0.0
 10
0.221846
 20
4.02665
 10
0.253872
 20
4.028026999999999
 10
0.284724
 20
4.029351999999999
 10
0.313193
 20
4.030583
  0
LWPOLYLINE
  5
48C
330
1E
100
AcDbEntity
  8
LAYER_1
  6
Continuous
 62
     7
100
AcDbPolyline
 90
        4
 70
     0
 43
0.0
 10
0.313193
 20
4.030583
 10
0.338061
 20
4.031674999999999
 10
0.35815
 20
4.032556999999999
 10
0.372276
 20
4.033176999999999
  0
LWPOLYLINE
  5
492
330
1E
100
AcDbEntity
  8
LAYER_1
  6
Continuous
 62
     7
100
AcDbPolyline
 90
        4
 70
     0
 43
0.0
 10
0.372276
 20
4.033176999999999
 10
0.379831
 20
4.033521
 10
0.382614
 20
4.033647
 10
0.3830119999999999
 20
4.033665
  0
LWPOLYLINE
  5
498
330
1E
100
AcDbEntity
  8
LAYER_1
  6
Continuous
 62
     7
100
AcDbPolyline
 90
       12
 70
     1
 43
0.0
 10
-1.875193
 20
-0.642941
 10
-1.879295999999999
 20
-0.627778
 10
-1.890079
 20
-0.6170020000000001
 10
-1.905248
 20
-0.6129020000000001
 10
-1.920416999999999
 20
-0.6170020000000001
 10
-1.9312
 20
-0.627778
 10
-1.935302999999999
 20
-0.642941
 10
-1.9312
 20
-0.6581100000000001
 10
-1.920416999999999
 20
-0.6688930000000001
 10
-1.905248
 20
-0.6729960000000001
 10
-1.890079
 20
-0.6688930000000001
 10
-1.879295999999999
 20
-0.6581100000000001
  0
LWPOLYLINE
  5
4A6
330
1E
100
AcDbEntity
  8
LAYER_1
  6
Continuous
 62
     7
100
AcDbPolyline
 90
        4
 70
     0
 43
0.0
 10
-1.875193
 20
-0.642941
 10
-1.879295999999999
 20
-0.627778
 10
-1.890079
 20
-0.6170020000000001
 10
-1.905248
 20
-0.6129020000000001
  0
LWPOLYLINE
  5
4AC
330
1E
100
AcDbEntity
  8
LAYER_1
  6
Continuous
 62
     7
100
AcDbPolyline
 90
        4
 70
     0
 43
0.0
 10
-1.905248
 20
-0.6129020000000001
 10
-1.920416999999999
 20
-0.6170020000000001
 10
-1.9312
 20
-0.627778
 10
-1.935302999999999
 20
-0.642941
  0
LWPOLYLINE
  5
4B2
330
1E
100
AcDbEntity
  8
LAYER_1
  6
Continuous
 62
     7
100
AcDbPolyline
 90
        4
 70
     0
 43
0.0
 10
-1.935302999999999
 20
-0.642941
 10
-1.9312
 20
-0.6581100000000001
 10
-1.920416999999999
 20
-0.6688930000000001
 10
-1.905248
 20
-0.6729960000000001
  0
LWPOLYLINE
  5
4B8
330
1E
100
AcDbEntity
  8
LAYER_1
  6
Continuous
 62
     7
100
AcDbPolyline
 90
        4
 70
     0
 43
0.0
 10
-1.905248
 20
-0.6729960000000001
 10
-1.890079
 20
-0.6688930000000001
 10
-1.879295999999999
 20
-0.6581100000000001
 10
-1.875193
 20
-0.642941
  0
LWPOLYLINE
  5
4BE
330
1E
100
AcDbEntity
  8
LAYER_1
  6
Continuous
 62
     7
100
AcDbPolyline
 90
       12
 70
     1
 43
0.0
 10
-1.875193
 20
-0.36222
 10
-1.879295999999999
 20
-0.347061
 10
-1.890079
 20
-0.336281
 10
-1.905248
 20
-0.332177
 10
-1.920416999999999
 20
-0.336281
 10
-1.9312
 20
-0.347061
 10
-1.935302999999999
 20
-0.36222
 10
-1.9312
 20
-0.37739
 10
-1.920416999999999
 20
-0.3881719999999999
 10
-1.905248
 20
-0.392276
 10
-1.890079
 20
-0.3881719999999999
 10
-1.879295999999999
 20
-0.37739
  0
LWPOLYLINE
  5
4CC
330
1E
100
AcDbEntity
  8
LAYER_1
  6
Continuous
 62
     7
100
AcDbPolyline
 90
        4
 70
     0
 43
0.0
 10
-1.875193
 20
-0.36222
 10
-1.879295999999999
 20
-0.347061
 10
-1.890079
 20
-0.336281
 10
-1.905248
 20
-0.332177
  0
LWPOLYLINE
  5
4D2
330
1E
100
AcDbEntity
  8
LAYER_1
  6
Continuous
 62
     7
100
AcDbPolyline
 90
        4
 70
     0
 43
0.0
 10
-1.905248
 20
-0.332177
 10
-1.920416999999999
 20
-0.336281
 10
-1.9312
 20
-0.347061
 10
-1.935302999999999
 20
-0.36222
  0
LWPOLYLINE
  5
4D8
330
1E
100
AcDbEntity
  8
LAYER_1
  6
Continuous
 62
     7
100
AcDbPolyline
 90
        4
 70
     0
 43
0.0
 10
-1.935302999999999
 20
-0.36222
 10
-1.9312
 20
-0.37739
 10
-1.920416999999999
 20
-0.3881719999999999
 10
-1.905248
 20
-0.392276
  0
LWPOLYLINE
  5
4DE
330
1E
100
AcDbEntity
  8
LAYER_1
  6
Continuous
 62
     7
100
AcDbPolyline
 90
        4
 70
     0
 43
0.0
 10
-1.905248
 20
-0.392276
 10
-1.890079
 20
-0.3881719999999999
 10
-1.879295999999999
 20
-0.37739
 10
-1.875193
 20
-0.36222
  0
LWPOLYLINE
  5
4E4
330
1E
100
AcDbEntity
  8
LAYER_1
  6
Continuous
 62
     7
100
AcDbPolyline
 90
       12
 70
     1
 43
0.0
 10
-1.875193
 20
3.971649999999999
 10
-1.879295999999999
 20
3.986819
 10
-1.890079
 20
3.997601
 10
-1.905248
 20
4.001705
 10
-1.920416999999999
 20
3.997601
 10
-1.9312
 20
3.986819
 10
-1.935302999999999
 20
3.971649999999999
 10
-1.9312
 20
3.956481999999999
 10
-1.920416999999999
 20
3.945698999999999
 10
-1.905248
 20
3.941594
 10
-1.890079
 20
3.945698999999999
 10
-1.879295999999999
 20
3.956481999999999
  0
LWPOLYLINE
  5
4F2
330
1E
100
AcDbEntity
  8
LAYER_1
  6
Continuous
 62
     7
100
AcDbPolyline
 90
        4
 70
     0
 43
0.0
 10
-1.875193
 20
3.971649999999999
 10
-1.879295999999999
 20
3.986819
 10
-1.890079
 20
3.997601
 10
-1.905248
 20
4.001705
  0
LWPOLYLINE
  5
4F8
330
1E
100
AcDbEntity
  8
LAYER_1
  6
Continuous
 62
     7
100
AcDbPolyline
 90
        4
 70
     0
 43
0.0
 10
-1.905248
 20
4.001705
 10
-1.920416999999999
 20
3.997601
 10
-1.9312
 20
3.986819
 10
-1.935302999999999
 20
3.971649999999999
  0
LWPOLYLINE
  5
4FE
330
1E
100
AcDbEntity
  8
LAYER_1
  6
Continuous
 62
     7
100
AcDbPolyline
 90
        4
 70
     0
 43
0.0
 10
-1.935302999999999
 20
3.971649999999999
 10
-1.9312
 20
3.956481999999999
 10
-1.920416999999999
 20
3.945698999999999
 10
-1.905248
 20
3.941594
  0
LWPOLYLINE
  5
504
330
1E
100
AcDbEntity
  8
LAYER_1
  6
Continuous
 62
     7
100
AcDbPolyline
 90
        4
 70
     0
 43
0.0
 10
-1.905248
 20
3.941594
 10
-1.890079
 20
3.945698999999999
 10
-1.879295999999999
 20
3.956481999999999
 10
-1.875193
 20
3.971649999999999
  0
LWPOLYLINE
  5
50A
330
1E
100
AcDbEntity
  8
LAYER_1
  6
Continuous
 62
     7
100
AcDbPolyline
 90
       12
 70
     1
 43
0.0
 10
-1.875193
 20
4.102205
 10
-1.879295999999999
 20
4.117375
 10
-1.890079
 20
4.128158999999999
 10
-1.905248
 20
4.132264
 10
-1.920416999999999
 20
4.128158999999999
 10
-1.9312
 20
4.117375
 10
-1.935302999999999
 20
4.102205
 10
-1.9312
 20
4.087037
 10
-1.920416999999999
 20
4.076254
 10
-1.905248
 20
4.072149999999999
 10
-1.890079
 20
4.076254
 10
-1.879295999999999
 20
4.087037
  0
LWPOLYLINE
  5
518
330
1E
100
AcDbEntity
  8
LAYER_1
  6
Continuous
 62
     7
100
AcDbPolyline
 90
        4
 70
     0
 43
0.0
 10
-1.875193
 20
4.102205
 10
-1.879295999999999
 20
4.117375
 10
-1.890079
 20
4.128158999999999
 10
-1.905248
 20
4.132264
  0
LWPOLYLINE
  5
51E
330
1E
100
AcDbEntity
  8
LAYER_1
  6
Continuous
 62
     7
100
AcDbPolyline
 90
        4
 70
     0
 43
0.0
 10
-1.905248
 20
4.132264
 10
-1.920416999999999
 20
4.128158999999999
 10
-1.9312
 20
4.117375
 10
-1.935302999999999
 20
4.102205
  0
LWPOLYLINE
  5
524
330
1E
100
AcDbEntity
  8
LAYER_1
  6
Continuous
 62
     7
100
AcDbPolyline
 90
        4
 70
     0
 43
0.0
 10
-1.935302999999999
 20
4.102205
 10
-1.9312
 20
4.087037
 10
-1.920416999999999
 20
4.076254
 10
-1.905248
 20
4.072149999999999
  0
LWPOLYLINE
  5
52A
330
1E
100
AcDbEntity
  8
LAYER_1
  6
Continuous
 62
     7
100
AcDbPolyline
 90
        4
 70
     0
 43
0.0
 10
-1.905248
 20
4.072149999999999
 10
-1.890079
 20
4.076254
 10
-1.879295999999999
 20
4.087037
 10
-1.875193
 20
4.102205
  0
LWPOLYLINE
  5
530
330
1E
100
AcDbEntity
  8
LAYER_1
  6
Continuous
 62
     7
100
AcDbPolyline
 90
       12
 70
     1
 43
0.0
 10
-2.070275999999999
 20
-0.6444840000000001
 10
-2.074378999999999
 20
-0.629315
 10
-2.085158
 20
-0.6185330000000001
 10
-2.100318999999999
 20
-0.614429
 10
-2.115486
 20
-0.6185330000000001
 10
-2.126269999999999
 20
-0.629315
 10
-2.130374
 20
-0.6444840000000001
 10
-2.126269999999999
 20
-0.65965
 10
-2.115486
 20
-0.6704270000000001
 10
-2.100318999999999
 20
-0.6745280000000001
 10
-2.085158
 20
-0.6704270000000001
 10
-2.074378999999999
 20
-0.65965
  0
LWPOLYLINE
  5
53E
330
1E
100
AcDbEntity
  8
LAYER_1
  6
Continuous
 62
     7
100
AcDbPolyline
 90
        4
 70
     0
 43
0.0
 10
-2.070275999999999
 20
-0.6444840000000001
 10
-2.074378999999999
 20
-0.629315
 10
-2.085158
 20
-0.6185330000000001
 10
-2.100318999999999
 20
-0.614429
  0
LWPOLYLINE
  5
544
330
1E
100
AcDbEntity
  8
LAYER_1
  6
Continuous
 62
     7
100
AcDbPolyline
 90
        4
 70
     0
 43
0.0
 10
-2.100318999999999
 20
-0.614429
 10
-2.115486
 20
-0.6185330000000001
 10
-2.126269999999999
 20
-0.629315
 10
-2.130374
 20
-0.6444840000000001
  0
LWPOLYLINE
  5
54A
330
1E
100
AcDbEntity
  8
LAYER_1
  6
Continuous
 62
     7
100
AcDbPolyline
 90
        4
 70
     0
 43
0.0
 10
-2.130374
 20
-0.6444840000000001
 10
-2.126269999999999
 20
-0.65965
 10
-2.115486
 20
-0.6704270000000001
 10
-2.100318999999999
 20
-0.6745280000000001
  0
LWPOLYLINE
  5
550
330
1E
100
AcDbEntity
  8
LAYER_1
  6
Continuous
 62
     7
100
AcDbPolyline
 90
        4
 70
     0
 43
0.0
 10
-2.100318999999999
 20
-0.6745280000000001
 10
-2.085158
 20
-0.6704270000000001
 10
-2.074378999999999
 20
-0.65965
 10
-2.070275999999999
 20
-0.6444840000000001
  0
LWPOLYLINE
  5
556
330
1E
100
AcDbEntity
  8
LAYER_1
  6
Continuous
 62
     7
100
AcDbPolyline
 90
       12
 70
     1
 43
0.0
 10
-2.071803
 20
-0.354555
 10
-2.075908
 20
-0.339386
 10
-2.086691
 20
-0.328604
 10
-2.101858
 20
-0.3245
 10
-2.117027
 20
-0.328604
 10
-2.127809999999999
 20
-0.339386
 10
-2.131912999999999
 20
-0.354555
 10
-2.127809999999999
 20
-0.369718
 10
-2.117027
 20
-0.380494
 10
-2.101858
 20
-0.384594
 10
-2.086691
 20
-0.380494
 10
-2.075908
 20
-0.369718
  0
LWPOLYLINE
  5
564
330
1E
100
AcDbEntity
  8
LAYER_1
  6
Continuous
 62
     7
100
AcDbPolyline
 90
        4
 70
     0
 43
0.0
 10
-2.071803
 20
-0.354555
 10
-2.075908
 20
-0.339386
 10
-2.086691
 20
-0.328604
 10
-2.101858
 20
-0.3245
  0
LWPOLYLINE
  5
56A
330
1E
100
AcDbEntity
  8
LAYER_1
  6
Continuous
 62
     7
100
AcDbPolyline
 90
        4
 70
     0
 43
0.0
 10
-2.101858
 20
-0.3245
 10
-2.117027
 20
-0.328604
 10
-2.127809999999999
 20
-0.339386
 10
-2.131912999999999
 20
-0.354555
  0
LWPOLYLINE
  5
570
330
1E
100
AcDbEntity
  8
LAYER_1
  6
Continuous
 62
     7
100
AcDbPolyline
 90
        4
 70
     0
 43
0.0
 10
-2.131912999999999
 20
-0.354555
 10
-2.127809999999999
 20
-0.369718
 10
-2.117027
 20
-0.380494
 10
-2.101858
 20
-0.384594
  0
LWPOLYLINE
  5
576
330
1E
100
AcDbEntity
  8
LAYER_1
  6
Continuous
 62
     7
100
AcDbPolyline
 90
        4
 70
     0
 43
0.0
 10
-2.101858
 20
-0.384594
 10
-2.086691
 20
-0.380494
 10
-2.075908
 20
-0.369718
 10
-2.071803
 20
-0.354555
  0
LWPOLYLINE
  5
57C
330
1E
100
AcDbEntity
  8
LAYER_1
  6
Continuous
 62
     7
100
AcDbPolyline
 90
        2
 70
     0
 43
0.0
 10
-1.256303
 20
-2.515275999999999
 10
-1.079264
 20
-2.338248
  0
LWPOLYLINE
  5
580
330
1E
100
AcDbEntity
  8
LAYER_1
  6
Continuous
 62
     7
100
AcDbPolyline
 90
        2
 70
     0
 43
0.0
 10
-1.220456999999999
 20
-2.551109999999999
 10
-1.043429
 20
-2.374083
  0
LWPOLYLINE
  5
584
330
1E
100
AcDbEntity
  8
LAYER_1
  6
Continuous
 62
     7
100
AcDbPolyline
 90
        2
 70
     0
 43
0.0
 10
-1.184609999999999
 20
-2.586956999999999
 10
-1.007582999999999
 20
-2.409928999999999
  0
LWPOLYLINE
  5
588
330
1E
100
AcDbEntity
  8
LAYER_1
  6
Continuous
 62
     7
100
AcDbPolyline
 90
        2
 70
     0
 43
0.0
 10
-1.149858
 20
-2.62172
 10
-0.9728190000000001
 20
-2.444676999999999
  0
LWPOLYLINE
  5
58C
330
1E
100
AcDbEntity
  8
LAYER_1
  6
Continuous
 62
     7
100
AcDbPolyline
 90
        2
 70
     0
 43
0.0
 10
-1.254121999999999
 20
-2.478345999999999
 10
-1.078176999999999
 20
-2.656468999999999
  0
LWPOLYLINE
  5
590
330
1E
100
AcDbEntity
  8
LAYER_1
  6
Continuous
 62
     7
100
AcDbPolyline
 90
        2
 70
     0
 43
0.0
 10
-1.219373999999999
 20
-2.443594
 10
-1.043412999999999
 20
-2.621704999999999
  0
LWPOLYLINE
  5
594
330
1E
100
AcDbEntity
  8
LAYER_1
  6
Continuous
 62
     7
100
AcDbPolyline
 90
        2
 70
     0
 43
0.0
 10
-1.183528
 20
-2.407747999999999
 10
-1.007582999999999
 20
-2.585874
  0
LWPOLYLINE
  5
598
330
1E
100
AcDbEntity
  8
LAYER_1
  6
Continuous
 62
     7
100
AcDbPolyline
 90
        2
 70
     0
 43
0.0
 10
-1.148776
 20
-2.373
 10
-0.9728190000000001
 20
-2.551109999999999
  0
LWPOLYLINE
  5
59C
330
1E
100
AcDbEntity
  8
LAYER_1
  6
Continuous
 62
     7
100
AcDbPolyline
 90
        2
 70
     0
 43
0.0
 10
-1.112929
 20
-2.337149999999999
 10
-0.9369839999999999
 20
-2.515275999999999
  0
LWPOLYLINE
  5
5A0
330
1E
100
AcDbEntity
  8
LAYER_1
  6
Continuous
 62
     7
100
AcDbPolyline
 90
        2
 70
     0
 43
0.0
 10
-1.114012
 20
-2.657554999999999
 10
-0.9369839999999999
 20
-2.480528
  0
LWPOLYLINE
  5
5A4
330
1E
100
AcDbEntity
  8
LAYER_1
  6
Continuous
 62
     7
100
AcDbPolyline
 90
        2
 70
     0
 43
0.0
 10
-3.248539
 20
9.499582999999999
 10
-3.248539
 20
-3.033940999999999
  0
TEXT
  5
5A8
330
1E
100
AcDbEntity
  8
LAYER_1
 62
     7
100
AcDbText
 10
-1.287790999999999
 20
-3.880137999999999
 30
0.0
 40
0.111095
  1
HT14t (8.0%)  4.5" chord
 41
0.6481005068315553
  7
SN0
 72
     5
 11
0.200224
 21
-3.880137999999999
 31
0.0
100
AcDbText
  0
LWPOLYLINE
  5
5A9
330
1E
100
AcDbEntity
  8
LAYER_1
  6
Continuous
 62
     7
100
AcDbPolyline
 90
        4
 70
     0
 43
0.0
 10
-1.978345999999999
 20
-0.634457
 10
-1.984384
 20
-0.6248490000000001
 10
-1.994111999999999
 20
-0.6196760000000001
 10
-2.005456999999999
 20
-0.6200390000000001
  0
LWPOLYLINE
  5
5AF
330
1E
100
AcDbEntity
  8
LAYER_1
  6
Continuous
 62
     7
100
AcDbPolyline
 90
        4
 70
     0
 43
0.0
 10
-2.005456999999999
 20
-0.6200390000000001
 10
-2.015063999999999
 20
-0.626085
 10
-2.020237999999999
 20
-0.6358100000000001
 10
-2.019874
 20
-0.64715
  0
LWPOLYLINE
  5
5B5
330
1E
100
AcDbEntity
  8
LAYER_1
  6
Continuous
 62
     7
100
AcDbPolyline
 90
        4
 70
     0
 43
0.0
 10
-2.019874
 20
-0.64715
 10
-2.013835999999999
 20
-0.6567680000000001
 10
-2.004106
 20
-0.6619410000000001
 10
-1.992764
 20
-0.661567
  0
LWPOLYLINE
  5
5BB
330
1E
100
AcDbEntity
  8
LAYER_1
  6
Continuous
 62
     7
100
AcDbPolyline
 90
        4
 70
     0
 43
0.0
 10
-1.992764
 20
-0.661567
 10
-1.983155
 20
-0.655532
 10
-1.977981999999999
 20
-0.645806
 10
-1.978345999999999
 20
-0.634457
  0
LWPOLYLINE
  5
5C1
330
1E
100
AcDbEntity
  8
LAYER_1
  6
Continuous
 62
     7
100
AcDbPolyline
 90
        4
 70
     0
 43
0.0
 10
1.069484
 20
0.44772
 10
1.068904
 20
0.4475770000000001
 10
1.064842999999999
 20
0.4465760000000001
 10
1.053819
 20
0.443858
  0
LWPOLYLINE
  5
5C7
330
1E
100
AcDbEntity
  8
LAYER_1
  6
Continuous
 62
     7
100
AcDbPolyline
 90
        4
 70
     0
 43
0.0
 10
1.053819
 20
0.443858
 10
1.033233
 20
0.4387660000000001
 10
1.003937
 20
0.4315170000000001
 10
0.967665
 20
0.422528
  0
LWPOLYLINE
  5
5CD
330
1E
100
AcDbEntity
  8
LAYER_1
  6
Continuous
 62
     7
100
AcDbPolyline
 90
        4
 70
     0
 43
0.0
 10
0.967665
 20
0.422528
 10
0.9261719999999998
 20
0.41222
 10
0.8811989999999999
 20
0.4010410000000001
 10
0.8345119999999999
 20
0.389429
  0
LWPOLYLINE
  5
5D3
330
1E
100
AcDbEntity
  8
LAYER_1
  6
Continuous
 62
     7
100
AcDbPolyline
 90
        4
 70
     0
 43
0.0
 10
0.8345119999999999
 20
0.389429
 10
0.7875830000000001
 20
0.377753
 10
0.7406800000000001
 20
0.366087
 10
0.693791
 20
0.354429
  0
LWPOLYLINE
  5
5D9
330
1E
100
AcDbEntity
  8
LAYER_1
  6
Continuous
 62
     7
100
AcDbPolyline
 90
        4
 70
     0
 43
0.0
 10
0.693791
 20
0.354429
 10
0.6469090000000001
 20
0.342768
 10
0.600048
 20
0.3311139999999999
 10
0.55322
 20
0.319469
  0
LWPOLYLINE
  5
5DF
330
1E
100
AcDbEntity
  8
LAYER_1
  6
Continuous
 62
     7
100
AcDbPolyline
 90
        4
 70
     0
 43
0.0
 10
0.55322
 20
0.319469
 10
0.5064220000000001
 20
0.307837
 10
0.459636
 20
0.296226
 10
0.412819
 20
0.28465
  0
LWPOLYLINE
  5
5E5
330
1E
100
AcDbEntity
  8
LAYER_1
  6
Continuous
 62
     7
100
AcDbPolyline
 90
        4
 70
     0
 43
0.0
 10
0.412819
 20
0.28465
 10
0.36596
 20
0.2731
 10
0.31908
 20
0.261569
 10
0.2722199999999999
 20
0.250028
  0
LWPOLYLINE
  5
5EB
330
1E
100
AcDbEntity
  8
LAYER_1
  6
Continuous
 62
     7
100
AcDbPolyline
 90
        4
 70
     0
 43
0.0
 10
0.2722199999999999
 20
0.250028
 10
0.225412
 20
0.238445
 10
0.178645
 20
0.226844
 10
0.131902
 20
0.215232
  0
LWPOLYLINE
  5
5F1
330
1E
100
AcDbEntity
  8
LAYER_1
  6
Continuous
 62
     7
100
AcDbPolyline
 90
        4
 70
     0
 43
0.0
 10
0.131902
 20
0.215232
 10
0.085161
 20
0.203616
 10
0.038415
 20
0.19202
 10
-0.008331
 20
0.180457
  0
LWPOLYLINE
  5
5F7
330
1E
100
AcDbEntity
  8
LAYER_1
  6
Continuous
 62
     7
100
AcDbPolyline
 90
        4
 70
     0
 43
0.0
 10
-0.008331
 20
0.180457
 10
-0.055105
 20
0.168935
 10
-0.101903
 20
0.157426
 10
-0.148732
 20
0.145886
  0
LWPOLYLINE
  5
5FD
330
1E
100
AcDbEntity
  8
LAYER_1
  6
Continuous
 62
     7
100
AcDbPolyline
 90
        4
 70
     0
 43
0.0
 10
-0.148732
 20
0.145886
 10
-0.195574
 20
0.134298
 10
-0.242444
 20
0.122665
 10
-0.289331
 20
0.111012
  0
LWPOLYLINE
  5
603
330
1E
100
AcDbEntity
  8
LAYER_1
  6
Continuous
 62
     7
100
AcDbPolyline
 90
        4
 70
     0
 43
0.0
 10
-0.289331
 20
0.111012
 10
-0.336207
 20
0.099353
 10
-0.383079
 20
0.087718
 10
-0.429929
 20
0.076122
  0
LWPOLYLINE
  5
609
330
1E
100
AcDbEntity
  8
LAYER_1
  6
Continuous
 62
     7
100
AcDbPolyline
 90
        4
 70
     0
 43
0.0
 10
-0.429929
 20
0.076122
 10
-0.4767520000000001
 20
0.064592
 10
-0.523565
 20
0.05308
 10
-0.570386
 20
0.041539
  0
LWPOLYLINE
  5
60F
330
1E
100
AcDbEntity
  8
LAYER_1
  6
Continuous
 62
     7
100
AcDbPolyline
 90
        4
 70
     0
 43
0.0
 10
-0.570386
 20
0.041539
 10
-0.617242
 20
0.029955
 10
-0.6641180000000001
 20
0.018338
 10
-0.7110120000000001
 20
0.006732
  0
LWPOLYLINE
  5
615
330
1E
100
AcDbEntity
  8
LAYER_1
  6
Continuous
 62
     7
100
AcDbPolyline
 90
        4
 70
     0
 43
0.0
 10
-0.7110120000000001
 20
0.006732
 10
-0.757929
 20
-0.004826
 10
-0.804831
 20
-0.016363
 10
-0.851693
 20
-0.027913
  0
LWPOLYLINE
  5
61B
330
1E
100
AcDbEntity
  8
LAYER_1
  6
Continuous
 62
     7
100
AcDbPolyline
 90
        4
 70
     0
 43
0.0
 10
-0.851693
 20
-0.027913
 10
-0.8985049999999999
 20
-0.039487
 10
-0.945298
 20
-0.051076
 10
-0.99211
 20
-0.06265
  0
LWPOLYLINE
  5
621
330
1E
100
AcDbEntity
  8
LAYER_1
  6
Continuous
 62
     7
100
AcDbPolyline
 90
        4
 70
     0
 43
0.0
 10
-0.99211
 20
-0.06265
 10
-1.038966999999999
 20
-0.074195
 10
-1.085847
 20
-0.085735
 10
-1.132704999999999
 20
-0.097291
  0
LWPOLYLINE
  5
627
330
1E
100
AcDbEntity
  8
LAYER_1
  6
Continuous
 62
     7
100
AcDbPolyline
 90
        4
 70
     0
 43
0.0
 10
-1.132704999999999
 20
-0.097291
 10
-1.179513999999999
 20
-0.108863
 10
-1.226283999999999
 20
-0.120459
 10
-1.273028
 20
-0.132067
  0
LWPOLYLINE
  5
62D
330
1E
100
AcDbEntity
  8
LAYER_1
  6
Continuous
 62
     7
100
AcDbPolyline
 90
        4
 70
     0
 43
0.0
 10
-1.273028
 20
-0.132067
 10
-1.319763
 20
-0.14369
 10
-1.366479999999999
 20
-0.155319
 10
-1.413149999999999
 20
-0.166969
  0
LWPOLYLINE
  5
633
330
1E
100
AcDbEntity
  8
LAYER_1
  6
Continuous
 62
     7
100
AcDbPolyline
 90
        4
 70
     0
 43
0.0
 10
-1.413149999999999
 20
-0.166969
 10
-1.459765999999999
 20
-0.178662
 10
-1.506343
 20
-0.190374
 10
-1.552902
 20
-0.202094
  0
LWPOLYLINE
  5
639
330
1E
100
AcDbEntity
  8
LAYER_1
  6
Continuous
 62
     7
100
AcDbPolyline
 90
        4
 70
     0
 43
0.0
 10
-1.552902
 20
-0.202094
 10
-1.599440999999999
 20
-0.213823
 10
-1.645959999999999
 20
-0.225581
 10
-1.692429
 20
-0.237402
  0
LWPOLYLINE
  5
63F
330
1E
100
AcDbEntity
  8
LAYER_1
  6
Continuous
 62
     7
100
AcDbPolyline
 90
        4
 70
     0
 43
0.0
 10
-1.692429
 20
-0.237402
 10
-1.738815999999999
 20
-0.249301
 10
-1.785099999999999
 20
-0.261257
 10
-1.831248
 20
-0.273248
  0
LWPOLYLINE
  5
645
330
1E
100
AcDbEntity
  8
LAYER_1
  6
Continuous
 62
     7
100
AcDbPolyline
 90
        4
 70
     0
 43
0.0
 10
-1.831248
 20
-0.273248
 10
-1.877256
 20
-0.285254
 10
-1.923142999999999
 20
-0.297297
 10
-1.968956999999999
 20
-0.309413
  0
LWPOLYLINE
  5
64B
330
1E
100
AcDbEntity
  8
LAYER_1
  6
Continuous
 62
     7
100
AcDbPolyline
 90
        4
 70
     0
 43
0.0
 10
-1.968956999999999
 20
-0.309413
 10
-2.01472
 20
-0.321625
 10
-2.060388
 20
-0.333913
 10
-2.105901999999999
 20
-0.3462639999999999
  0
LWPOLYLINE
  5
651
330
1E
100
AcDbEntity
  8
LAYER_1
  6
Continuous
 62
     7
100
AcDbPolyline
 90
        4
 70
     0
 43
0.0
 10
-2.105901999999999
 20
-0.3462639999999999
 10
-2.151206999999999
 20
-0.358677
 10
-2.196308
 20
-0.371175
 10
-2.241232
 20
-0.383803
  0
LWPOLYLINE
  5
657
330
1E
100
AcDbEntity
  8
LAYER_1
  6
Continuous
 62
     7
100
AcDbPolyline
 90
        4
 70
     0
 43
0.0
 10
-2.241232
 20
-0.383803
 10
-2.285984
 20
-0.396588
 10
-2.330534
 20
-0.4095380000000001
 10
-2.374830999999999
 20
-0.422638
  0
LWPOLYLINE
  5
65D
330
1E
100
AcDbEntity
  8
LAYER_1
  6
Continuous
 62
     7
100
AcDbPolyline
 90
        4
 70
     0
 43
0.0
 10
-2.374830999999999
 20
-0.422638
 10
-2.418829
 20
-0.4358680000000001
 10
-2.462508
 20
-0.449222
 10
-2.505858
 20
-0.462693
  0
LWPOLYLINE
  5
663
330
1E
100
AcDbEntity
  8
LAYER_1
  6
Continuous
 62
     7
100
AcDbPolyline
 90
        4
 70
     0
 43
0.0
 10
-2.505858
 20
-0.462693
 10
-2.548847
 20
-0.476293
 10
-2.591388999999999
 20
-0.490034
 10
-2.633386
 20
-0.5039410000000001
  0
LWPOLYLINE
  5
669
330
1E
100
AcDbEntity
  8
LAYER_1
  6
Continuous
 62
     7
100
AcDbPolyline
 90
        4
 70
     0
 43
0.0
 10
-2.633386
 20
-0.5039410000000001
 10
-2.674758
 20
-0.5180410000000001
 10
-2.715386
 20
-0.532279
 10
-2.755165
 20
-0.5466100000000001
  0
LWPOLYLINE
  5
66F
330
1E
100
AcDbEntity
  8
LAYER_1
  6
Continuous
 62
     7
100
AcDbPolyline
 90
        4
 70
     0
 43
0.0
 10
-2.755165
 20
-0.5466100000000001
 10
-2.793968
 20
-0.5609880000000001
 10
-2.831563
 20
-0.575387
 10
-2.867689
 20
-0.589776
  0
LWPOLYLINE
  5
675
330
1E
100
AcDbEntity
  8
LAYER_1
  6
Continuous
 62
     7
100
AcDbPolyline
 90
        4
 70
     0
 43
0.0
 10
-2.867689
 20
-0.589776
 10
-2.902125999999999
 20
-0.604144
 10
-2.934702
 20
-0.6183850000000001
 10
-2.965275999999999
 20
-0.632402
  0
LWPOLYLINE
  5
67B
330
1E
100
AcDbEntity
  8
LAYER_1
  6
Continuous
 62
     7
100
AcDbPolyline
 90
        4
 70
     0
 43
0.0
 10
-2.965275999999999
 20
-0.632402
 10
-2.993716
 20
-0.6461050000000001
 10
-3.019954
 20
-0.6594330000000001
 10
-3.043937
 20
-0.672331
  0
LWPOLYLINE
  5
681
330
1E
100
AcDbEntity
  8
LAYER_1
  6
Continuous
 62
     7
100
AcDbPolyline
 90
        4
 70
     0
 43
0.0
 10
-3.043937
 20
-0.672331
 10
-3.065652999999999
 20
-0.684746
 10
-3.085231
 20
-0.696637
 10
-3.102843
 20
-0.707969
  0
LWPOLYLINE
  5
687
330
1E
100
AcDbEntity
  8
LAYER_1
  6
Continuous
 62
     7
100
AcDbPolyline
 90
        4
 70
     0
 43
0.0
 10
-3.102843
 20
-0.707969
 10
-3.118647
 20
-0.7187010000000001
 10
-3.132800999999999
 20
-0.7288550000000001
 10
-3.145456999999999
 20
-0.738457
  0
LWPOLYLINE
  5
68D
330
1E
100
AcDbEntity
  8
LAYER_1
  6
Continuous
 62
     7
100
AcDbPolyline
 90
        4
 70
     0
 43
0.0
 10
-3.145456999999999
 20
-0.738457
 10
-3.156754999999999
 20
-0.747541
 10
-3.166836999999999
 20
-0.7561650000000001
 10
-3.175838999999999
 20
-0.764386
  0
LWPOLYLINE
  5
693
330
1E
100
AcDbEntity
  8
LAYER_1
  6
Continuous
 62
     7
100
AcDbPolyline
 90
        4
 70
     0
 43
0.0
 10
-3.175838999999999
 20
-0.764386
 10
-3.183891999999999
 20
-0.7722500000000001
 10
-3.191079999999999
 20
-0.779815
 10
-3.19748
 20
-0.787122
  0
LWPOLYLINE
  5
699
330
1E
100
AcDbEntity
  8
LAYER_1
  6
Continuous
 62
     7
100
AcDbPolyline
 90
        4
 70
     0
 43
0.0
 10
-3.19748
 20
-0.787122
 10
-3.203161
 20
-0.7942070000000001
 10
-3.208212
 20
-0.8010749999999999
 10
-3.212717
 20
-0.807732
  0
LWPOLYLINE
  5
69F
330
1E
100
AcDbEntity
  8
LAYER_1
  6
Continuous
 62
     7
100
AcDbPolyline
 90
        4
 70
     0
 43
0.0
 10
-3.212717
 20
-0.807732
 10
-3.216741999999999
 20
-0.8142129999999999
 10
-3.22027
 20
-0.8205429999999999
 10
-3.223272
 20
-0.826764
  0
LWPOLYLINE
  5
6A5
330
1E
100
AcDbEntity
  8
LAYER_1
  6
Continuous
 62
     7
100
AcDbPolyline
 90
        4
 70
     0
 43
0.0
 10
-3.223272
 20
-0.826764
 10
-3.225722999999999
 20
-0.83291
 10
-3.227589
 20
-0.8389749999999999
 10
-3.228845999999999
 20
-0.8449290000000001
  0
LWPOLYLINE
  5
6AB
330
1E
100
AcDbEntity
  8
LAYER_1
  6
Continuous
 62
     7
100
AcDbPolyline
 90
        4
 70
     0
 43
0.0
 10
-3.228845999999999
 20
-0.8449290000000001
 10
-3.229471999999999
 20
-0.8507469999999999
 10
-3.229495999999999
 20
-0.8564299999999999
 10
-3.228949
 20
-0.8619959999999998
  0
LWPOLYLINE
  5
6B1
330
1E
100
AcDbEntity
  8
LAYER_1
  6
Continuous
 62
     7
100
AcDbPolyline
 90
        4
 70
     0
 43
0.0
 10
-3.228949
 20
-0.8619959999999998
 10
-3.227856
 20
-0.867453
 10
-3.226229999999999
 20
-0.8727819999999999
 10
-3.224070999999999
 20
-0.877969
  0
LWPOLYLINE
  5
6B7
330
1E
100
AcDbEntity
  8
LAYER_1
  6
Continuous
 62
     7
100
AcDbPolyline
 90
        4
 70
     0
 43
0.0
 10
-3.224070999999999
 20
-0.877969
 10
-3.221382
 20
-0.8829879999999999
 10
-3.218151999999999
 20
-0.887784
 10
-3.214366
 20
-0.892303
  0
LWPOLYLINE
  5
6BD
330
1E
100
AcDbEntity
  8
LAYER_1
  6
Continuous
 62
     7
100
AcDbPolyline
 90
        4
 70
     0
 43
0.0
 10
-3.214366
 20
-0.892303
 10
-3.21001
 20
-0.896494
 10
-3.205113
 20
-0.9004100000000001
 10
-3.199704999999999
 20
-0.90411
  0
LWPOLYLINE
  5
6C3
330
1E
100
AcDbEntity
  8
LAYER_1
  6
Continuous
 62
     7
100
AcDbPolyline
 90
        4
 70
     0
 43
0.0
 10
-3.199704999999999
 20
-0.90411
 10
-3.19381
 20
-0.9076549999999999
 10
-3.187413999999999
 20
-0.911026
 10
-3.180487999999999
 20
-0.914193
  0
LWPOLYLINE
  5
6C9
330
1E
100
AcDbEntity
  8
LAYER_1
  6
Continuous
 62
     7
100
AcDbPolyline
 90
        4
 70
     0
 43
0.0
 10
-3.180487999999999
 20
-0.914193
 10
-3.172997999999999
 20
-0.9171510000000001
 10
-3.164909
 20
-0.9199009999999999
 10
-3.156177
 20
-0.922469
  0
LWPOLYLINE
  5
6CF
330
1E
100
AcDbEntity
  8
LAYER_1
  6
Continuous
 62
     7
100
AcDbPolyline
 90
        4
 70
     0
 43
0.0
 10
-3.156177
 20
-0.922469
 10
-3.146752
 20
-0.9248879999999999
 10
-3.136543
 20
-0.927137
 10
-3.125449
 20
-0.9292049999999999
  0
LWPOLYLINE
  5
6D5
330
1E
100
AcDbEntity
  8
LAYER_1
  6
Continuous
 62
     7
100
AcDbPolyline
 90
        4
 70
     0
 43
0.0
 10
-3.125449
 20
-0.9292049999999999
 10
-3.113366
 20
-0.931075
 10
-3.100171
 20
-0.932703
 10
-3.085744
 20
-0.9340279999999999
  0
LWPOLYLINE
  5
6DB
330
1E
100
AcDbEntity
  8
LAYER_1
  6
Continuous
 62
     7
100
AcDbPolyline
 90
        4
 70
     0
 43
0.0
 10
-3.085744
 20
-0.9340279999999999
 10
-3.069961999999999
 20
-0.9349969999999999
 10
-3.052652999999999
 20
-0.9355319999999998
 10
-3.03365
 20
-0.9355669999999999
  0
LWPOLYLINE
  5
6E1
330
1E
100
AcDbEntity
  8
LAYER_1
  6
Continuous
 62
     7
100
AcDbPolyline
 90
        4
 70
     0
 43
0.0
 10
-3.03365
 20
-0.9355669999999999
 10
-3.012795999999999
 20
-0.93504
 10
-2.989968999999999
 20
-0.9338409999999999
 10
-2.965054999999999
 20
-0.931886
  0
LWPOLYLINE
  5
6E7
330
1E
100
AcDbEntity
  8
LAYER_1
  6
Continuous
 62
     7
100
AcDbPolyline
 90
        4
 70
     0
 43
0.0
 10
-2.965054999999999
 20
-0.931886
 10
-2.937974
 20
-0.9291159999999999
 10
-2.908774
 20
-0.925476
 10
-2.877534999999999
 20
-0.9209290000000001
  0
LWPOLYLINE
  5
6ED
330
1E
100
AcDbEntity
  8
LAYER_1
  6
Continuous
 62
     7
100
AcDbPolyline
 90
        4
 70
     0
 43
0.0
 10
-2.877534999999999
 20
-0.9209290000000001
 10
-2.844352999999999
 20
-0.9154530000000001
 10
-2.809383
 20
-0.909065
 10
-2.772790999999999
 20
-0.901776
  0
LWPOLYLINE
  5
6F3
330
1E
100
AcDbEntity
  8
LAYER_1
  6
Continuous
 62
     7
100
AcDbPolyline
 90
        4
 70
     0
 43
0.0
 10
-2.772790999999999
 20
-0.901776
 10
-2.734751999999999
 20
-0.8936009999999999
 10
-2.695495
 20
-0.884628
 10
-2.655263999999999
 20
-0.8749409999999999
  0
LWPOLYLINE
  5
6F9
330
1E
100
AcDbEntity
  8
LAYER_1
  6
Continuous
 62
     7
100
AcDbPolyline
 90
        4
 70
     0
 43
0.0
 10
-2.655263999999999
 20
-0.8749409999999999
 10
-2.614250999999999
 20
-0.864637
 10
-2.572599
 20
-0.8537459999999999
 10
-2.530429
 20
-0.842303
  0
LWPOLYLINE
  5
6FF
330
1E
100
AcDbEntity
  8
LAYER_1
  6
Continuous
 62
     7
100
AcDbPolyline
 90
        4
 70
     0
 43
0.0
 10
-2.530429
 20
-0.842303
 10
-2.487819
 20
-0.830343
 10
-2.444862
 20
-0.8179459999999998
 10
-2.401622
 20
-0.8051770000000001
  0
LWPOLYLINE
  5
705
330
1E
100
AcDbEntity
  8
LAYER_1
  6
Continuous
 62
     7
100
AcDbPolyline
 90
        4
 70
     0
 43
0.0
 10
-2.401622
 20
-0.8051770000000001
 10
-2.358154
 20
-0.792103
 10
-2.314497
 20
-0.7787340000000001
 10
-2.270693
 20
-0.7650670000000001
  0
LWPOLYLINE
  5
70B
330
1E
100
AcDbEntity
  8
LAYER_1
  6
Continuous
 62
     7
100
AcDbPolyline
 90
        4
 70
     0
 43
0.0
 10
-2.270693
 20
-0.7650670000000001
 10
-2.22676
 20
-0.751085
 10
-2.1827
 20
-0.736841
 10
-2.1385
 20
-0.7223860000000001
  0
LWPOLYLINE
  5
711
330
1E
100
AcDbEntity
  8
LAYER_1
  6
Continuous
 62
     7
100
AcDbPolyline
 90
        4
 70
     0
 43
0.0
 10
-2.1385
 20
-0.7223860000000001
 10
-2.094148
 20
-0.7077710000000001
 10
-2.049672999999999
 20
-0.6929840000000001
 10
-2.005109999999999
 20
-0.678028
  0
LWPOLYLINE
  5
717
330
1E
100
AcDbEntity
  8
LAYER_1
  6
Continuous
 62
     7
100
AcDbPolyline
 90
        4
 70
     0
 43
0.0
 10
-2.005109999999999
 20
-0.678028
 10
-1.960487999999999
 20
-0.6628750000000001
 10
-1.915815
 20
-0.647567
 10
-1.871083
 20
-0.6321100000000001
  0
LWPOLYLINE
  5
71D
330
1E
100
AcDbEntity
  8
LAYER_1
  6
Continuous
 62
     7
100
AcDbPolyline
 90
        4
 70
     0
 43
0.0
 10
-1.871083
 20
-0.6321100000000001
 10
-1.826288
 20
-0.6165300000000001
 10
-1.781441
 20
-0.600837
 10
-1.736554999999999
 20
-0.5850550000000001
  0
LWPOLYLINE
  5
723
330
1E
100
AcDbEntity
  8
LAYER_1
  6
Continuous
 62
     7
100
AcDbPolyline
 90
        4
 70
     0
 43
0.0
 10
-1.736554999999999
 20
-0.5850550000000001
 10
-1.691625999999999
 20
-0.569198
 10
-1.646659
 20
-0.5532560000000001
 10
-1.601637999999999
 20
-0.5372050000000001
  0
LWPOLYLINE
  5
729
330
1E
100
AcDbEntity
  8
LAYER_1
  6
Continuous
 62
     7
100
AcDbPolyline
 90
        4
 70
     0
 43
0.0
 10
-1.601637999999999
 20
-0.5372050000000001
 10
-1.556559
 20
-0.521032
 10
-1.511416999999999
 20
-0.504763
 10
-1.46622
 20
-0.488441
  0
LWPOLYLINE
  5
72F
330
1E
100
AcDbEntity
  8
LAYER_1
  6
Continuous
 62
     7
100
AcDbPolyline
 90
        4
 70
     0
 43
0.0
 10
-1.46622
 20
-0.488441
 10
-1.420979999999999
 20
-0.472103
 10
-1.375731
 20
-0.455746
 10
-1.330512
 20
-0.439358
  0
LWPOLYLINE
  5
735
330
1E
100
AcDbEntity
  8
LAYER_1
  6
Continuous
 62
     7
100
AcDbPolyline
 90
        4
 70
     0
 43
0.0
 10
-1.330512
 20
-0.439358
 10
-1.285337999999999
 20
-0.422924
 10
-1.240170999999999
 20
-0.406458
 10
-1.194968999999999
 20
-0.389969
  0
LWPOLYLINE
  5
73B
330
1E
100
AcDbEntity
  8
LAYER_1
  6
Continuous
 62
     7
100
AcDbPolyline
 90
        4
 70
     0
 43
0.0
 10
-1.194968999999999
 20
-0.389969
 10
-1.149681999999999
 20
-0.37345
 10
-1.104354999999999
 20
-0.356895
 10
-1.059038999999999
 20
-0.340303
  0
LWPOLYLINE
  5
741
330
1E
100
AcDbEntity
  8
LAYER_1
  6
Continuous
 62
     7
100
AcDbPolyline
 90
        4
 70
     0
 43
0.0
 10
-1.059038999999999
 20
-0.340303
 10
-1.013762
 20
-0.323687
 10
-0.968514
 20
-0.307057
 10
-0.9232479999999998
 20
-0.290441
  0
LWPOLYLINE
  5
747
330
1E
100
AcDbEntity
  8
LAYER_1
  6
Continuous
 62
     7
100
AcDbPolyline
 90
        4
 70
     0
 43
0.0
 10
-0.9232479999999998
 20
-0.290441
 10
-0.8779290000000001
 20
-0.273848
 10
-0.8325709999999999
 20
-0.257264
 10
-0.7872050000000001
 20
-0.24065
  0
LWPOLYLINE
  5
74D
330
1E
100
AcDbEntity
  8
LAYER_1
  6
Continuous
 62
     7
100
AcDbPolyline
 90
        4
 70
     0
 43
0.0
 10
-0.7872050000000001
 20
-0.24065
 10
-0.741845
 20
-0.224009
 10
-0.6965120000000001
 20
-0.207354
 10
-0.6512050000000001
 20
-0.19072
  0
LWPOLYLINE
  5
753
330
1E
100
AcDbEntity
  8
LAYER_1
  6
Continuous
 62
     7
100
AcDbPolyline
 90
        4
 70
     0
 43
0.0
 10
-0.6512050000000001
 20
-0.19072
 10
-0.605919
 20
-0.174139
 10
-0.5606520000000001
 20
-0.157582
 10
-0.515374
 20
-0.141
  0
LWPOLYLINE
  5
759
330
1E
100
AcDbEntity
  8
LAYER_1
  6
Continuous
 62
     7
100
AcDbPolyline
 90
        4
 70
     0
 43
0.0
 10
-0.515374
 20
-0.141
 10
-0.470058
 20
-0.124372
 10
-0.424724
 20
-0.107713
 10
-0.379374
 20
-0.091067
  0
LWPOLYLINE
  5
75F
330
1E
100
AcDbEntity
  8
LAYER_1
  6
Continuous
 62
     7
100
AcDbPolyline
 90
        4
 70
     0
 43
0.0
 10
-0.379374
 20
-0.091067
 10
-0.333995
 20
-0.074463
 10
-0.28861
 20
-0.057893
 10
-0.24322
 20
-0.041346
  0
LWPOLYLINE
  5
765
330
1E
100
AcDbEntity
  8
LAYER_1
  6
Continuous
 62
     7
100
AcDbPolyline
 90
        4
 70
     0
 43
0.0
 10
-0.24322
 20
-0.041346
 10
-0.197834
 20
-0.024789
 10
-0.15247
 20
-0.008223
 10
-0.10715
 20
0.008358
  0
LWPOLYLINE
  5
76B
330
1E
100
AcDbEntity
  8
LAYER_1
  6
Continuous
 62
     7
100
AcDbPolyline
 90
        4
 70
     0
 43
0.0
 10
-0.10715
 20
0.008358
 10
-0.061886
 20
0.024979
 10
-0.016661
 20
0.041603
 10
0.028555
 20
0.058205
  0
LWPOLYLINE
  5
771
330
1E
100
AcDbEntity
  8
LAYER_1
  6
Continuous
 62
     7
100
AcDbPolyline
 90
        4
 70
     0
 43
0.0
 10
0.028555
 20
0.058205
 10
0.073787
 20
0.074775
 10
0.119049
 20
0.091308
 10
0.164346
 20
0.107831
  0
LWPOLYLINE
  5
777
330
1E
100
AcDbEntity
  8
LAYER_1
  6
Continuous
 62
     7
100
AcDbPolyline
 90
        4
 70
     0
 43
0.0
 10
0.164346
 20
0.107831
 10
0.209685
 20
0.124369
 10
0.255048
 20
0.140935
 10
0.300413
 20
0.157539
  0
LWPOLYLINE
  5
77D
330
1E
100
AcDbEntity
  8
LAYER_1
  6
Continuous
 62
     7
100
AcDbPolyline
 90
        4
 70
     0
 43
0.0
 10
0.300413
 20
0.157539
 10
0.345769
 20
0.174186
 10
0.391105
 20
0.190843
 10
0.4364130000000001
 20
0.207469
  0
LWPOLYLINE
  5
783
330
1E
100
AcDbEntity
  8
LAYER_1
  6
Continuous
 62
     7
100
AcDbPolyline
 90
        4
 70
     0
 43
0.0
 10
0.4364130000000001
 20
0.207469
 10
0.481696
 20
0.22405
 10
0.5269750000000001
 20
0.240587
 10
0.572276
 20
0.25711
  0
LWPOLYLINE
  5
789
330
1E
100
AcDbEntity
  8
LAYER_1
  6
Continuous
 62
     7
100
AcDbPolyline
 90
        4
 70
     0
 43
0.0
 10
0.572276
 20
0.25711
 10
0.617606
 20
0.273646
 10
0.662973
 20
0.290194
 10
0.7083580000000001
 20
0.306748
  0
LWPOLYLINE
  5
78F
330
1E
100
AcDbEntity
  8
LAYER_1
  6
Continuous
 62
     7
100
AcDbPolyline
 90
        4
 70
     0
 43
0.0
 10
0.7083580000000001
 20
0.306748
 10
0.7537510000000001
 20
0.323301
 10
0.7991620000000001
 20
0.339853
 10
0.8446100000000001
 20
0.356413
  0
LWPOLYLINE
  5
795
330
1E
100
AcDbEntity
  8
LAYER_1
  6
Continuous
 62
     7
100
AcDbPolyline
 90
        4
 70
     0
 43
0.0
 10
0.8446100000000001
 20
0.356413
 10
0.8898059999999999
 20
0.37289
 10
0.933342
 20
0.388768
 10
0.973512
 20
0.403429
  0
LWPOLYLINE
  5
79B
330
1E
100
AcDbEntity
  8
LAYER_1
  6
Continuous
 62
     7
100
AcDbPolyline
 90
        4
 70
     0
 43
0.0
 10
0.973512
 20
0.403429
 10
1.008596999999999
 20
0.416256
 10
1.036934
 20
0.4266300000000001
 10
1.056845999999999
 20
0.433929
  0
LWPOLYLINE
  5
7A1
330
1E
100
AcDbEntity
  8
LAYER_1
  6
Continuous
 62
     7
100
AcDbPolyline
 90
        4
 70
     0
 43
0.0
 10
1.056845999999999
 20
0.433929
 10
1.067509999999999
 20
0.437838
 10
1.071439
 20
0.439279
 10
1.072
 20
0.4394840000000001
  0
LWPOLYLINE
  5
7A7
330
1E
100
AcDbEntity
  8
LAYER_1
  6
Continuous
 62
     7
100
AcDbPolyline
 90
        4
 70
     0
 43
0.0
 10
-1.976693
 20
-0.64372
 10
-1.977316999999999
 20
-0.632386
 10
-1.983316
 20
-0.623145
 10
-1.993413
 20
-0.617969
  0
LWPOLYLINE
  5
7AD
330
1E
100
AcDbEntity
  8
LAYER_1
  6
Continuous
 62
     7
100
AcDbPolyline
 90
        4
 70
     0
 43
0.0
 10
-1.993413
 20
-0.617969
 10
-2.004745
 20
-0.618588
 10
-2.013983
 20
-0.6245910000000001
 10
-2.019165
 20
-0.6346930000000001
  0
LWPOLYLINE
  5
7B3
330
1E
100
AcDbEntity
  8
LAYER_1
  6
Continuous
 62
     7
100
AcDbPolyline
 90
        4
 70
     0
 43
0.0
 10
-2.019165
 20
-0.6346930000000001
 10
-2.018539
 20
-0.646022
 10
-2.012539999999999
 20
-0.6552590000000001
 10
-2.002441
 20
-0.660441
  0
LWPOLYLINE
  5
7B9
330
1E
100
AcDbEntity
  8
LAYER_1
  6
Continuous
 62
     7
100
AcDbPolyline
 90
        4
 70
     0
 43
0.0
 10
-2.002441
 20
-0.660441
 10
-1.991108
 20
-0.659816
 10
-1.981868
 20
-0.653817
 10
-1.976693
 20
-0.64372
  0
LWPOLYLINE
  5
7BF
330
1E
100
AcDbEntity
  8
LAYER_1
  6
Continuous
 62
     7
100
AcDbPolyline
 90
        4
 70
     0
 43
0.0
 10
1.213649999999999
 20
-1.174845999999999
 10
1.213072999999999
 20
-1.17469
 10
1.209037
 20
-1.173595
 10
1.198083
 20
-1.170621999999999
  0
LWPOLYLINE
  5
7C5
330
1E
100
AcDbEntity
  8
LAYER_1
  6
Continuous
 62
     7
100
AcDbPolyline
 90
        4
 70
     0
 43
0.0
 10
1.198083
 20
-1.170621999999999
 10
1.177608999999999
 20
-1.165092999999999
 10
1.148471
 20
-1.157235
 10
1.112386
 20
-1.147512
  0
LWPOLYLINE
  5
7CB
330
1E
100
AcDbEntity
  8
LAYER_1
  6
Continuous
 62
     7
100
AcDbPolyline
 90
        4
 70
     0
 43
0.0
 10
1.112386
 20
-1.147512
 10
1.071095999999999
 20
-1.13641
 10
1.026344
 20
-1.124387999999999
 10
0.9798860000000001
 20
-1.111912999999999
  0
LWPOLYLINE
  5
7D1
330
1E
100
AcDbEntity
  8
LAYER_1
  6
Continuous
 62
     7
100
AcDbPolyline
 90
        4
 70
     0
 43
0.0
 10
0.9798860000000001
 20
-1.111912999999999
 10
0.9331709999999999
 20
-1.099372999999999
 10
0.88649
 20
-1.086834999999999
 10
0.839831
 20
-1.074303
  0
LWPOLYLINE
  5
7D7
330
1E
100
AcDbEntity
  8
LAYER_1
  6
Continuous
 62
     7
100
AcDbPolyline
 90
        4
 70
     0
 43
0.0
 10
0.839831
 20
-1.074303
 10
0.7931770000000001
 20
-1.061766999999999
 10
0.746536
 20
-1.049237999999999
 10
0.6999290000000001
 20
-1.03672
  0
LWPOLYLINE
  5
7DD
330
1E
100
AcDbEntity
  8
LAYER_1
  6
Continuous
 62
     7
100
AcDbPolyline
 90
        4
 70
     0
 43
0.0
 10
0.6999290000000001
 20
-1.03672
 10
0.6533640000000001
 20
-1.024205999999999
 10
0.6068180000000001
 20
-1.011676999999999
 10
0.560264
 20
-0.9991100000000001
  0
LWPOLYLINE
  5
7E3
330
1E
100
AcDbEntity
  8
LAYER_1
  6
Continuous
 62
     7
100
AcDbPolyline
 90
        4
 70
     0
 43
0.0
 10
0.560264
 20
-0.9991100000000001
 10
0.513679
 20
-0.98649
 10
0.467082
 20
-0.9738520000000001
 10
0.4205
 20
-0.961232
  0
LWPOLYLINE
  5
7E9
330
1E
100
AcDbEntity
  8
LAYER_1
  6
Continuous
 62
     7
100
AcDbPolyline
 90
        4
 70
     0
 43
0.0
 10
0.4205
 20
-0.961232
 10
0.373946
 20
-0.948666
 10
0.327417
 20
-0.9361409999999999
 10
0.280902
 20
-0.923638
  0
LWPOLYLINE
  5
7EF
330
1E
100
AcDbEntity
  8
LAYER_1
  6
Continuous
 62
     7
100
AcDbPolyline
 90
        4
 70
     0
 43
0.0
 10
0.280902
 20
-0.923638
 10
0.234397
 20
-0.9111349999999999
 10
0.18789
 20
-0.8986129999999999
 10
0.141386
 20
-0.8860549999999999
  0
LWPOLYLINE
  5
7F5
330
1E
100
AcDbEntity
  8
LAYER_1
  6
Continuous
 62
     7
100
AcDbPolyline
 90
        4
 70
     0
 43
0.0
 10
0.141386
 20
-0.8860549999999999
 10
0.09489
 20
-0.873459
 10
0.048386
 20
-0.8608349999999999
 10
0.001846
 20
-0.84822
  0
LWPOLYLINE
  5
7FB
330
1E
100
AcDbEntity
  8
LAYER_1
  6
Continuous
 62
     7
100
AcDbPolyline
 90
        4
 70
     0
 43
0.0
 10
0.001846
 20
-0.84822
 10
-0.044747
 20
-0.83565
 10
-0.091381
 20
-0.8231009999999999
 10
-0.138039
 20
-0.8105669999999999
  0
LWPOLYLINE
  5
801
330
1E
100
AcDbEntity
  8
LAYER_1
  6
Continuous
 62
     7
100
AcDbPolyline
 90
        4
 70
     0
 43
0.0
 10
-0.138039
 20
-0.8105669999999999
 10
-0.18469
 20
-0.798034
 10
-0.231321
 20
-0.7854860000000001
 10
-0.277913
 20
-0.772913
  0
LWPOLYLINE
  5
807
330
1E
100
AcDbEntity
  8
LAYER_1
  6
Continuous
 62
     7
100
AcDbPolyline
 90
        4
 70
     0
 43
0.0
 10
-0.277913
 20
-0.772913
 10
-0.324462
 20
-0.7603
 10
-0.370991
 20
-0.7476720000000001
 10
-0.4175390000000001
 20
-0.735067
  0
LWPOLYLINE
  5
80D
330
1E
100
AcDbEntity
  8
LAYER_1
  6
Continuous
 62
     7
100
AcDbPolyline
 90
        4
 70
     0
 43
0.0
 10
-0.4175390000000001
 20
-0.735067
 10
-0.464134
 20
-0.722486
 10
-0.5107619999999999
 20
-0.709919
 10
-0.5574020000000001
 20
-0.6973310000000001
  0
LWPOLYLINE
  5
813
330
1E
100
AcDbEntity
  8
LAYER_1
  6
Continuous
 62
     7
100
AcDbPolyline
 90
        4
 70
     0
 43
0.0
 10
-0.5574020000000001
 20
-0.6973310000000001
 10
-0.604044
 20
-0.684699
 10
-0.650661
 20
-0.6720520000000001
 10
-0.697248
 20
-0.6594290000000001
  0
LWPOLYLINE
  5
819
330
1E
100
AcDbEntity
  8
LAYER_1
  6
Continuous
 62
     7
100
AcDbPolyline
 90
        4
 70
     0
 43
0.0
 10
-0.697248
 20
-0.6594290000000001
 10
-0.743804
 20
-0.646867
 10
-0.790346
 20
-0.63432
 10
-0.836902
 20
-0.6217480000000001
  0
LWPOLYLINE
  5
81F
330
1E
100
AcDbEntity
  8
LAYER_1
  6
Continuous
 62
     7
100
AcDbPolyline
 90
        4
 70
     0
 43
0.0
 10
-0.836902
 20
-0.6217480000000001
 10
-0.8834760000000001
 20
-0.6091250000000001
 10
-0.9300679999999999
 20
-0.596481
 10
-0.97665
 20
-0.5838580000000001
  0
LWPOLYLINE
  5
825
330
1E
100
AcDbEntity
  8
LAYER_1
  6
Continuous
 62
     7
100
AcDbPolyline
 90
        4
 70
     0
 43
0.0
 10
-0.97665
 20
-0.5838580000000001
 10
-1.023203
 20
-0.5713
 10
-1.069730999999999
 20
-0.558779
 10
-1.116247999999999
 20
-0.546276
  0
LWPOLYLINE
  5
82B
330
1E
100
AcDbEntity
  8
LAYER_1
  6
Continuous
 62
     7
100
AcDbPolyline
 90
        4
 70
     0
 43
0.0
 10
-1.116247999999999
 20
-0.546276
 10
-1.16276
 20
-0.533779
 10
-1.209255999999999
 20
-0.5213
 10
-1.25572
 20
-0.5088580000000001
  0
LWPOLYLINE
  5
831
330
1E
100
AcDbEntity
  8
LAYER_1
  6
Continuous
 62
     7
100
AcDbPolyline
 90
        4
 70
     0
 43
0.0
 10
-1.25572
 20
-0.5088580000000001
 10
-1.302162
 20
-0.496482
 10
-1.348579999999999
 20
-0.484144
 10
-1.394984
 20
-0.4718310000000001
  0
LWPOLYLINE
  5
837
330
1E
100
AcDbEntity
  8
LAYER_1
  6
Continuous
 62
     7
100
AcDbPolyline
 90
        4
 70
     0
 43
0.0
 10
-1.394984
 20
-0.4718310000000001
 10
-1.441375999999999
 20
-0.4595290000000001
 10
-1.487763999999999
 20
-0.4472590000000001
 10
-1.534138
 20
-0.435067
  0
LWPOLYLINE
  5
83D
330
1E
100
AcDbEntity
  8
LAYER_1
  6
Continuous
 62
     7
100
AcDbPolyline
 90
        4
 70
     0
 43
0.0
 10
-1.534138
 20
-0.435067
 10
-1.580475999999999
 20
-0.4229760000000001
 10
-1.626747999999999
 20
-0.410997
 10
-1.672929
 20
-0.3991099999999999
  0
LWPOLYLINE
  5
843
330
1E
100
AcDbEntity
  8
LAYER_1
  6
Continuous
 62
     7
100
AcDbPolyline
 90
        4
 70
     0
 43
0.0
 10
-1.672929
 20
-0.3991099999999999
 10
-1.718983
 20
-0.387306
 10
-1.764958
 20
-0.375594
 10
-1.810902
 20
-0.363984
  0
LWPOLYLINE
  5
849
330
1E
100
AcDbEntity
  8
LAYER_1
  6
Continuous
 62
     7
100
AcDbPolyline
 90
        4
 70
     0
 43
0.0
 10
-1.810902
 20
-0.363984
 10
-1.856845
 20
-0.352471
 10
-1.902745
 20
-0.34108
 10
-1.948539
 20
-0.329819
  0
LWPOLYLINE
  5
84F
330
1E
100
AcDbEntity
  8
LAYER_1
  6
Continuous
 62
     7
100
AcDbPolyline
 90
        4
 70
     0
 43
0.0
 10
-1.948539
 20
-0.329819
 10
-1.994181
 20
-0.318712
 10
-2.039686
 20
-0.307776
 10
-2.085093999999999
 20
-0.297039
  0
LWPOLYLINE
  5
855
330
1E
100
AcDbEntity
  8
LAYER_1
  6
Continuous
 62
     7
100
AcDbPolyline
 90
        4
 70
     0
 43
0.0
 10
-2.085093999999999
 20
-0.297039
 10
-2.130443999999999
 20
-0.286522
 10
-2.175686
 20
-0.276251
 10
-2.220775999999999
 20
-0.266232
  0
LWPOLYLINE
  5
85B
330
1E
100
AcDbEntity
  8
LAYER_1
  6
Continuous
 62
     7
100
AcDbPolyline
 90
        4
 70
     0
 43
0.0
 10
-2.220775999999999
 20
-0.266232
 10
-2.265670999999999
 20
-0.2564760000000001
 10
-2.310350999999999
 20
-0.24698
 10
-2.354802999999999
 20
-0.237748
  0
LWPOLYLINE
  5
861
330
1E
100
AcDbEntity
  8
LAYER_1
  6
Continuous
 62
     7
100
AcDbPolyline
 90
        4
 70
     0
 43
0.0
 10
-2.354802999999999
 20
-0.237748
 10
-2.398989999999999
 20
-0.2288
 10
-2.442863
 20
-0.220194
 10
-2.486345999999999
 20
-0.211996
  0
LWPOLYLINE
  5
867
330
1E
100
AcDbEntity
  8
LAYER_1
  6
Continuous
 62
     7
100
AcDbPolyline
 90
        4
 70
     0
 43
0.0
 10
-2.486345999999999
 20
-0.211996
 10
-2.529351999999999
 20
-0.204268
 10
-2.571787
 20
-0.197025
 10
-2.613528
 20
-0.190276
  0
LWPOLYLINE
  5
86D
330
1E
100
AcDbEntity
  8
LAYER_1
  6
Continuous
 62
     7
100
AcDbPolyline
 90
        4
 70
     0
 43
0.0
 10
-2.613528
 20
-0.190276
 10
-2.654436999999999
 20
-0.184034
 10
-2.694298999999999
 20
-0.178403
 10
-2.732886
 20
-0.173484
  0
LWPOLYLINE
  5
873
330
1E
100
AcDbEntity
  8
LAYER_1
  6
Continuous
 62
     7
100
AcDbPolyline
 90
        4
 70
     0
 43
0.0
 10
-2.732886
 20
-0.173484
 10
-2.769963999999999
 20
-0.169346
 10
-2.805356
 20
-0.166005
 10
-2.838886
 20
-0.163441
  0
LWPOLYLINE
  5
879
330
1E
100
AcDbEntity
  8
LAYER_1
  6
Continuous
 62
     7
100
AcDbPolyline
 90
        4
 70
     0
 43
0.0
 10
-2.838886
 20
-0.163441
 10
-2.870404999999999
 20
-0.161641
 10
-2.899818
 20
-0.16058
 10
-2.927050999999999
 20
-0.160232
  0
LWPOLYLINE
  5
87F
330
1E
100
AcDbEntity
  8
LAYER_1
  6
Continuous
 62
     7
100
AcDbPolyline
 90
        4
 70
     0
 43
0.0
 10
-2.927050999999999
 20
-0.160232
 10
-2.952061999999999
 20
-0.160561
 10
-2.97495
 20
-0.161471
 10
-2.995842999999999
 20
-0.162846
  0
LWPOLYLINE
  5
885
330
1E
100
AcDbEntity
  8
LAYER_1
  6
Continuous
 62
     7
100
AcDbPolyline
 90
        4
 70
     0
 43
0.0
 10
-2.995842999999999
 20
-0.162846
 10
-3.014869
 20
-0.164573
 10
-3.032172999999999
 20
-0.166589
 10
-3.047897999999999
 20
-0.168846
  0
LWPOLYLINE
  5
88B
330
1E
100
AcDbEntity
  8
LAYER_1
  6
Continuous
 62
     7
100
AcDbPolyline
 90
        4
 70
     0
 43
0.0
 10
-3.047897999999999
 20
-0.168846
 10
-3.062183
 20
-0.171321
 10
-3.075177999999999
 20
-0.17397
 10
-3.087034999999999
 20
-0.176791
  0
LWPOLYLINE
  5
891
330
1E
100
AcDbEntity
  8
LAYER_1
  6
Continuous
 62
     7
100
AcDbPolyline
 90
        4
 70
     0
 43
0.0
 10
-3.087034999999999
 20
-0.176791
 10
-3.097893999999999
 20
-0.179771
 10
-3.107848
 20
-0.182906
 10
-3.116983999999999
 20
-0.186193
  0
LWPOLYLINE
  5
897
330
1E
100
AcDbEntity
  8
LAYER_1
  6
Continuous
 62
     7
100
AcDbPolyline
 90
        4
 70
     0
 43
0.0
 10
-3.116983999999999
 20
-0.186193
 10
-3.125391999999999
 20
-0.189631
 10
-3.133141
 20
-0.193196
 10
-3.140315
 20
-0.196846
  0
LWPOLYLINE
  5
89D
330
1E
100
AcDbEntity
  8
LAYER_1
  6
Continuous
 62
     7
100
AcDbPolyline
 90
        4
 70
     0
 43
0.0
 10
-3.140315
 20
-0.196846
 10
-3.146972
 20
-0.20056
 10
-3.153127
 20
-0.204377
 10
-3.158771999999999
 20
-0.208358
  0
LWPOLYLINE
  5
8A3
330
1E
100
AcDbEntity
  8
LAYER_1
  6
Continuous
 62
     7
100
AcDbPolyline
 90
        4
 70
     0
 43
0.0
 10
-3.158771999999999
 20
-0.208358
 10
-3.163891999999999
 20
-0.21255
 10
-3.168461999999999
 20
-0.216953
 10
-3.172441
 20
-0.221555
  0
LWPOLYLINE
  5
8A9
330
1E
100
AcDbEntity
  8
LAYER_1
  6
Continuous
 62
     7
100
AcDbPolyline
 90
        4
 70
     0
 43
0.0
 10
-3.172441
 20
-0.221555
 10
-3.175815
 20
-0.226329
 10
-3.178596999999999
 20
-0.23129
 10
-3.180819
 20
-0.236429
  0
LWPOLYLINE
  5
8AF
330
1E
100
AcDbEntity
  8
LAYER_1
  6
Continuous
 62
     7
100
AcDbPolyline
 90
        4
 70
     0
 43
0.0
 10
-3.180819
 20
-0.236429
 10
-3.182503
 20
-0.241731
 10
-3.183659
 20
-0.247182
 10
-3.184286999999999
 20
-0.252764
  0
LWPOLYLINE
  5
8B5
330
1E
100
AcDbEntity
  8
LAYER_1
  6
Continuous
 62
     7
100
AcDbPolyline
 90
        4
 70
     0
 43
0.0
 10
-3.184286999999999
 20
-0.252764
 10
-3.184365
 20
-0.258454
 10
-3.183864999999999
 20
-0.264216
 10
-3.18274
 20
-0.27
  0
LWPOLYLINE
  5
8BB
330
1E
100
AcDbEntity
  8
LAYER_1
  6
Continuous
 62
     7
100
AcDbPolyline
 90
        4
 70
     0
 43
0.0
 10
-3.18274
 20
-0.27
 10
-3.180966
 20
-0.275784
 10
-3.178582
 20
-0.281583
 10
-3.17565
 20
-0.287441
  0
LWPOLYLINE
  5
8C1
330
1E
100
AcDbEntity
  8
LAYER_1
  6
Continuous
 62
     7
100
AcDbPolyline
 90
        4
 70
     0
 43
0.0
 10
-3.17565
 20
-0.287441
 10
-3.172213
 20
-0.2933949999999999
 10
-3.168250999999999
 20
-0.299444
 10
-3.163727999999999
 20
-0.305583
  0
LWPOLYLINE
  5
8C7
330
1E
100
AcDbEntity
  8
LAYER_1
  6
Continuous
 62
     7
100
AcDbPolyline
 90
        4
 70
     0
 43
0.0
 10
-3.163727999999999
 20
-0.305583
 10
-3.158611
 20
-0.311793
 10
-3.152871999999999
 20
-0.318117
 10
-3.146484
 20
-0.324594
  0
LWPOLYLINE
  5
8CD
330
1E
100
AcDbEntity
  8
LAYER_1
  6
Continuous
 62
     7
100
AcDbPolyline
 90
        4
 70
     0
 43
0.0
 10
-3.146484
 20
-0.324594
 10
-3.139406999999999
 20
-0.331281
 10
-3.131566999999999
 20
-0.3382
 10
-3.12287
 20
-0.345386
  0
LWPOLYLINE
  5
8D3
330
1E
100
AcDbEntity
  8
LAYER_1
  6
Continuous
 62
     7
100
AcDbPolyline
 90
        4
 70
     0
 43
0.0
 10
-3.12287
 20
-0.345386
 10
-3.113208
 20
-0.352882
 10
-3.102454999999999
 20
-0.360705
 10
-3.090479999999999
 20
-0.368858
  0
LWPOLYLINE
  5
8D9
330
1E
100
AcDbEntity
  8
LAYER_1
  6
Continuous
 62
     7
100
AcDbPolyline
 90
        4
 70
     0
 43
0.0
 10
-3.090479999999999
 20
-0.368858
 10
-3.077141
 20
-0.377353
 10
-3.062263
 20
-0.386212
 10
-3.045660999999999
 20
-0.395457
  0
LWPOLYLINE
  5
8DF
330
1E
100
AcDbEntity
  8
LAYER_1
  6
Continuous
 62
     7
100
AcDbPolyline
 90
        4
 70
     0
 43
0.0
 10
-3.045660999999999
 20
-0.395457
 10
-3.027166999999999
 20
-0.4051000000000001
 10
-3.006622
 20
-0.415123
 10
-2.983886
 20
-0.425496
  0
LWPOLYLINE
  5
8E5
330
1E
100
AcDbEntity
  8
LAYER_1
  6
Continuous
 62
     7
100
AcDbPolyline
 90
        4
 70
     0
 43
0.0
 10
-2.983886
 20
-0.425496
 10
-2.958855999999999
 20
-0.436198
 10
-2.931550999999999
 20
-0.4471720000000001
 10
-2.902027999999999
 20
-0.4583460000000001
  0
LWPOLYLINE
  5
8EB
330
1E
100
AcDbEntity
  8
LAYER_1
  6
Continuous
 62
     7
100
AcDbPolyline
 90
        4
 70
     0
 43
0.0
 10
-2.902027999999999
 20
-0.4583460000000001
 10
-2.870352999999999
 20
-0.46964
 10
-2.836664999999999
 20
-0.4810010000000001
 10
-2.801122
 20
-0.4923580000000001
  0
LWPOLYLINE
  5
8F1
330
1E
100
AcDbEntity
  8
LAYER_1
  6
Continuous
 62
     7
100
AcDbPolyline
 90
        4
 70
     0
 43
0.0
 10
-2.801122
 20
-0.4923580000000001
 10
-2.763888999999999
 20
-0.503659
 10
-2.725208
 20
-0.5148450000000001
 10
-2.685318999999999
 20
-0.525886
  0
LWPOLYLINE
  5
8F7
330
1E
100
AcDbEntity
  8
LAYER_1
  6
Continuous
 62
     7
100
AcDbPolyline
 90
        4
 70
     0
 43
0.0
 10
-2.685318999999999
 20
-0.525886
 10
-2.644452
 20
-0.536753
 10
-2.602741999999999
 20
-0.547419
 10
-2.560302999999999
 20
-0.557858
  0
LWPOLYLINE
  5
8FD
330
1E
100
AcDbEntity
  8
LAYER_1
  6
Continuous
 62
     7
100
AcDbPolyline
 90
        4
 70
     0
 43
0.0
 10
-2.560302999999999
 20
-0.557858
 10
-2.517249
 20
-0.5680500000000001
 10
-2.473672999999999
 20
-0.5780300000000001
 10
-2.429664999999999
 20
-0.587831
  0
LWPOLYLINE
  5
903
330
1E
100
AcDbEntity
  8
LAYER_1
  6
Continuous
 62
     7
100
AcDbPolyline
 90
        4
 70
     0
 43
0.0
 10
-2.429664999999999
 20
-0.587831
 10
-2.385307
 20
-0.597466
 10
-2.340641999999999
 20
-0.606937
 10
-2.295692999999999
 20
-0.6162200000000001
  0
LWPOLYLINE
  5
909
330
1E
100
AcDbEntity
  8
LAYER_1
  6
Continuous
 62
     7
100
AcDbPolyline
 90
        4
 70
     0
 43
0.0
 10
-2.295692999999999
 20
-0.6162200000000001
 10
-2.250496
 20
-0.625295
 10
-2.205054999999999
 20
-0.6341960000000001
 10
-2.159386
 20
-0.6429840000000001
  0
LWPOLYLINE
  5
90F
330
1E
100
AcDbEntity
  8
LAYER_1
  6
Continuous
 62
     7
100
AcDbPolyline
 90
        4
 70
     0
 43
0.0
 10
-2.159386
 20
-0.6429840000000001
 10
-2.113506999999999
 20
-0.651697
 10
-2.067438
 20
-0.6603250000000001
 10
-2.021205
 20
-0.6688460000000001
  0
LWPOLYLINE
  5
915
330
1E
100
AcDbEntity
  8
LAYER_1
  6
Continuous
 62
     7
100
AcDbPolyline
 90
        4
 70
     0
 43
0.0
 10
-2.021205
 20
-0.6688460000000001
 10
-1.974845
 20
-0.677238
 10
-1.928352
 20
-0.6855090000000001
 10
-1.881731999999999
 20
-0.6936770000000001
  0
LWPOLYLINE
  5
91B
330
1E
100
AcDbEntity
  8
LAYER_1
  6
Continuous
 62
     7
100
AcDbPolyline
 90
        4
 70
     0
 43
0.0
 10
-1.881731999999999
 20
-0.6936770000000001
 10
-1.835006
 20
-0.701755
 10
-1.788174
 20
-0.70977
 10
-1.741263999999999
 20
-0.7177319999999999
  0
LWPOLYLINE
  5
921
330
1E
100
AcDbEntity
  8
LAYER_1
  6
Continuous
 62
     7
100
AcDbPolyline
 90
        4
 70
     0
 43
0.0
 10
-1.741263999999999
 20
-0.7177319999999999
 10
-1.694284
 20
-0.725643
 10
-1.647222999999999
 20
-0.7335010000000001
 10
-1.600066999999999
 20
-0.741291
  0
LWPOLYLINE
  5
927
330
1E
100
AcDbEntity
  8
LAYER_1
  6
Continuous
 62
     7
100
AcDbPolyline
 90
        4
 70
     0
 43
0.0
 10
-1.600066999999999
 20
-0.741291
 10
-1.552793
 20
-0.7490040000000001
 10
-1.505425999999999
 20
-0.756664
 10
-1.457983999999999
 20
-0.764303
  0
LWPOLYLINE
  5
92D
330
1E
100
AcDbEntity
  8
LAYER_1
  6
Continuous
 62
     7
100
AcDbPolyline
 90
        4
 70
     0
 43
0.0
 10
-1.457983999999999
 20
-0.764303
 10
-1.410492999999999
 20
-0.7719420000000001
 10
-1.362983
 20
-0.779566
 10
-1.315484
 20
-0.7871500000000001
  0
LWPOLYLINE
  5
933
330
1E
100
AcDbEntity
  8
LAYER_1
  6
Continuous
 62
     7
100
AcDbPolyline
 90
        4
 70
     0
 43
0.0
 10
-1.315484
 20
-0.7871500000000001
 10
-1.268013999999999
 20
-0.7946880000000001
 10
-1.220536
 20
-0.802186
 10
-1.173
 20
-0.8096770000000001
  0
LWPOLYLINE
  5
939
330
1E
100
AcDbEntity
  8
LAYER_1
  6
Continuous
 62
     7
100
AcDbPolyline
 90
        4
 70
     0
 43
0.0
 10
-1.173
 20
-0.8096770000000001
 10
-1.125385999999999
 20
-0.817182
 10
-1.077717
 20
-0.8246780000000001
 10
-1.030038999999999
 20
-0.8321379999999999
  0
LWPOLYLINE
  5
93F
330
1E
100
AcDbEntity
  8
LAYER_1
  6
Continuous
 62
     7
100
AcDbPolyline
 90
        4
 70
     0
 43
0.0
 10
-1.030038999999999
 20
-0.8321379999999999
 10
-0.9823809999999999
 20
-0.839553
 10
-0.934745
 20
-0.8469429999999999
 10
-0.887094
 20
-0.8543579999999998
  0
LWPOLYLINE
  5
945
330
1E
100
AcDbEntity
  8
LAYER_1
  6
Continuous
 62
     7
100
AcDbPolyline
 90
        4
 70
     0
 43
0.0
 10
-0.887094
 20
-0.8543579999999998
 10
-0.8394109999999999
 20
-0.861817
 10
-0.791699
 20
-0.8693009999999999
 10
-0.743969
 20
-0.8767759999999999
  0
LWPOLYLINE
  5
94B
330
1E
100
AcDbEntity
  8
LAYER_1
  6
Continuous
 62
     7
100
AcDbPolyline
 90
        4
 70
     0
 43
0.0
 10
-0.743969
 20
-0.8767759999999999
 10
-0.696232
 20
-0.8842019999999999
 10
-0.648508
 20
-0.891609
 10
-0.600819
 20
-0.899028
  0
LWPOLYLINE
  5
951
330
1E
100
AcDbEntity
  8
LAYER_1
  6
Continuous
 62
     7
100
AcDbPolyline
 90
        4
 70
     0
 43
0.0
 10
-0.600819
 20
-0.899028
 10
-0.553173
 20
-0.906484
 10
-0.5055490000000001
 20
-0.9139510000000001
 10
-0.4579130000000001
 20
-0.9214020000000001
  0
LWPOLYLINE
  5
957
330
1E
100
AcDbEntity
  8
LAYER_1
  6
Continuous
 62
     7
100
AcDbPolyline
 90
        4
 70
     0
 43
0.0
 10
-0.4579130000000001
 20
-0.9214020000000001
 10
-0.41022
 20
-0.9288249999999999
 10
-0.362489
 20
-0.936232
 10
-0.314748
 20
-0.943665
  0
LWPOLYLINE
  5
95D
330
1E
100
AcDbEntity
  8
LAYER_1
  6
Continuous
 62
     7
100
AcDbPolyline
 90
        4
 70
     0
 43
0.0
 10
-0.314748
 20
-0.943665
 10
-0.267016
 20
-0.951135
 10
-0.219291
 20
-0.9586409999999998
 10
-0.171567
 20
-0.9661649999999999
  0
LWPOLYLINE
  5
963
330
1E
100
AcDbEntity
  8
LAYER_1
  6
Continuous
 62
     7
100
AcDbPolyline
 90
        4
 70
     0
 43
0.0
 10
-0.171567
 20
-0.9661649999999999
 10
-0.123847
 20
-0.9736979999999999
 10
-0.076139
 20
-0.9812040000000001
 10
-0.028457
 20
-0.9886649999999999
  0
LWPOLYLINE
  5
969
330
1E
100
AcDbEntity
  8
LAYER_1
  6
Continuous
 62
     7
100
AcDbPolyline
 90
        4
 70
     0
 43
0.0
 10
-0.028457
 20
-0.9886649999999999
 10
0.01919
 20
-0.9960799999999998
 10
0.066811
 20
-1.003462
 10
0.114413
 20
-1.010858
  0
LWPOLYLINE
  5
96F
330
1E
100
AcDbEntity
  8
LAYER_1
  6
Continuous
 62
     7
100
AcDbPolyline
 90
        4
 70
     0
 43
0.0
 10
0.114413
 20
-1.010858
 10
0.161997
 20
-1.018301
 10
0.209592
 20
-1.025782999999999
 10
0.25722
 20
-1.033290999999999
  0
LWPOLYLINE
  5
975
330
1E
100
AcDbEntity
  8
LAYER_1
  6
Continuous
 62
     7
100
AcDbPolyline
 90
        4
 70
     0
 43
0.0
 10
0.25722
 20
-1.033290999999999
 10
0.304894
 20
-1.040804999999999
 10
0.352602
 20
-1.048310999999999
 10
0.400331
 20
-1.055790999999999
  0
LWPOLYLINE
  5
97B
330
1E
100
AcDbEntity
  8
LAYER_1
  6
Continuous
 62
     7
100
AcDbPolyline
 90
        4
 70
     0
 43
0.0
 10
0.400331
 20
-1.055790999999999
 10
0.4480710000000001
 20
-1.063215999999999
 10
0.495799
 20
-1.070628
 10
0.543484
 20
-1.078054999999999
  0
LWPOLYLINE
  5
981
330
1E
100
AcDbEntity
  8
LAYER_1
  6
Continuous
 62
     7
100
AcDbPolyline
 90
        4
 70
     0
 43
0.0
 10
0.543484
 20
-1.078054999999999
 10
0.5911270000000001
 20
-1.085505999999999
 10
0.6387470000000001
 20
-1.092991999999999
 10
0.6863739999999999
 20
-1.1005
  0
LWPOLYLINE
  5
987
330
1E
100
AcDbEntity
  8
LAYER_1
  6
Continuous
 62
     7
100
AcDbPolyline
 90
        4
 70
     0
 43
0.0
 10
0.6863739999999999
 20
-1.1005
 10
0.734047
 20
-1.108015999999999
 10
0.781751
 20
-1.115539999999999
 10
0.8294689999999999
 20
-1.123067
  0
LWPOLYLINE
  5
98D
330
1E
100
AcDbEntity
  8
LAYER_1
  6
Continuous
 62
     7
100
AcDbPolyline
 90
        4
 70
     0
 43
0.0
 10
0.8294689999999999
 20
-1.123067
 10
0.877194
 20
-1.130602
 10
0.924934
 20
-1.138129999999999
 10
0.9727049999999998
 20
-1.145664999999999
  0
LWPOLYLINE
  5
993
330
1E
100
AcDbEntity
  8
LAYER_1
  6
Continuous
 62
     7
100
AcDbPolyline
 90
        4
 70
     0
 43
0.0
 10
0.9727049999999998
 20
-1.145664999999999
 10
1.020232
 20
-1.153173
 10
1.066008999999999
 20
-1.160393
 10
1.108247999999999
 20
-1.167038999999999
  0
LWPOLYLINE
  5
999
330
1E
100
AcDbEntity
  8
LAYER_1
  6
Continuous
 62
     7
100
AcDbPolyline
 90
        4
 70
     0
 43
0.0
 10
1.108247999999999
 20
-1.167038999999999
 10
1.145153
 20
-1.172838999999999
 10
1.174969
 20
-1.177505999999999
 10
1.195929
 20
-1.180776
  0
LWPOLYLINE
  5
99F
330
1E
100
AcDbEntity
  8
LAYER_1
  6
Continuous
 62
     7
100
AcDbPolyline
 90
        4
 70
     0
 43
0.0
 10
1.195929
 20
-1.180776
 10
1.207138999999999
 20
-1.182535
 10
1.211268
 20
-1.183183
 10
1.211858
 20
-1.183276
  0
LWPOLYLINE
  5
9A5
330
1E
100
AcDbEntity
  8
LAYER_1
  6
Continuous
 62
     7
100
AcDbPolyline
 90
        2
 70
     0
 43
0.0
 10
-3.279255999999999
 20
-2.997083
 10
-3.230109999999999
 20
-2.997083
  0
LWPOLYLINE
  5
9A9
330
1E
100
AcDbEntity
  8
LAYER_1
  6
Continuous
 62
     7
100
AcDbPolyline
 90
        2
 70
     0
 43
0.0
 10
-3.279255999999999
 20
-2.001764
 10
-3.230109999999999
 20
-2.001764
  0
LWPOLYLINE
  5
9AD
330
1E
100
AcDbEntity
  8
LAYER_1
  6
Continuous
 62
     7
100
AcDbPolyline
 90
        2
 70
     0
 43
0.0
 10
-3.279255999999999
 20
-0.9941649999999999
 10
-3.230109999999999
 20
-0.9941649999999999
  0
LWPOLYLINE
  5
9B1
330
1E
100
AcDbEntity
  8
LAYER_1
  6
Continuous
 62
     7
100
AcDbPolyline
 90
        2
 70
     0
 43
0.0
 10
-3.279255999999999
 20
0.001138
 10
-3.230109999999999
 20
0.001138
  0
LWPOLYLINE
  5
9B5
330
1E
100
AcDbEntity
  8
LAYER_1
  6
Continuous
 62
     7
100
AcDbPolyline
 90
        2
 70
     0
 43
0.0
 10
-3.279255999999999
 20
0.9964569999999998
 10
-3.230109999999999
 20
0.9964569999999998
  0
LWPOLYLINE
  5
9B9
330
1E
100
AcDbEntity
  8
LAYER_1
  6
Continuous
 62
     7
100
AcDbPolyline
 90
        2
 70
     0
 43
0.0
 10
-3.279255999999999
 20
2.004067
 10
-3.230109999999999
 20
2.004067
  0
LWPOLYLINE
  5
9BD
330
1E
100
AcDbEntity
  8
LAYER_1
  6
Continuous
 62
     7
100
AcDbPolyline
 90
        2
 70
     0
 43
0.0
 10
-3.279255999999999
 20
2.999373999999999
 10
-3.230109999999999
 20
2.999373999999999
  0
LWPOLYLINE
  5
9C1
330
1E
100
AcDbEntity
  8
LAYER_1
  6
Continuous
 62
     7
100
AcDbPolyline
 90
        2
 70
     0
 43
0.0
 10
-3.279255999999999
 20
3.994692999999999
 10
-3.230109999999999
 20
3.994692999999999
  0
LWPOLYLINE
  5
9C5
330
1E
100
AcDbEntity
  8
LAYER_1
  6
Continuous
 62
     7
100
AcDbPolyline
 90
        2
 70
     0
 43
0.0
 10
-3.279255999999999
 20
5.002291
 10
-3.230109999999999
 20
5.002291
  0
LWPOLYLINE
  5
9C9
330
1E
100
AcDbEntity
  8
LAYER_1
  6
Continuous
 62
     7
100
AcDbPolyline
 90
        2
 70
     0
 43
0.0
 10
-3.279255999999999
 20
5.997609999999999
 10
-3.230109999999999
 20
5.997609999999999
  0
LWPOLYLINE
  5
9CD
330
1E
100
AcDbEntity
  8
LAYER_1
  6
Continuous
 62
     7
100
AcDbPolyline
 90
        2
 70
     0
 43
0.0
 10
-3.279255999999999
 20
7.005205
 10
-3.230109999999999
 20
7.005205
  0
LWPOLYLINE
  5
9D1
330
1E
100
AcDbEntity
  8
LAYER_1
  6
Continuous
 62
     7
100
AcDbPolyline
 90
        2
 70
     0
 43
0.0
 10
-3.279255999999999
 20
8.000527999999999
 10
-3.230109999999999
 20
8.000527999999999
  0
LWPOLYLINE
  5
9D5
330
1E
100
AcDbEntity
  8
LAYER_1
  6
Continuous
 62
     7
100
AcDbPolyline
 90
        2
 70
     0
 43
0.0
 10
-3.248539
 20
9.001941
 10
-2.292402
 20
8.999582999999999
  0
LWPOLYLINE
  5
9D9
330
1E
100
AcDbEntity
  8
LAYER_1
  6
Continuous
 62
     7
100
AcDbPolyline
 90
        3
 70
     0
 43
0.0
 10
-2.402913
 20
9.030692999999999
 10
-2.292402
 20
8.999582999999999
 10
-2.403054999999999
 20
8.969165
  0
LWPOLYLINE
  5
9DE
330
1E
100
AcDbEntity
  8
LAYER_1
  6
Continuous
 62
     7
100
AcDbPolyline
 90
       10
 70
     0
 43
0.0
 10
-3.248539
 20
-4.003149999999999
 10
-3.248399
 20
-4.001318
 10
-3.247415999999999
 20
-3.988495999999999
 10
-3.244747
 20
-3.953694
 10
-3.239549999999999
 20
-3.885922
 10
-3.230981
 20
-3.774189999999999
 10
-3.218199
 20
-3.607508
 10
-3.200361
 20
-3.374884999999999
 10
-3.176622
 20
-3.065332
 10
-3.146141999999999
 20
-2.667858
  0
LWPOLYLINE
  5
9EA
330
1E
100
AcDbEntity
  8
LAYER_1
  6
Continuous
 62
     7
100
AcDbPolyline
 90
       43
 70
     0
 43
0.0
 10
-3.146141999999999
 20
-2.667858
 10
-3.138656
 20
-2.570241999999999
 10
-3.130835999999999
 20
-2.468265999999999
 10
-3.122695
 20
-2.362111999999999
 10
-3.114247999999999
 20
-2.251964
 10
-3.105509
 20
-2.138002999999999
 10
-3.096492
 20
-2.020411999999999
 10
-3.087209999999999
 20
-1.899371999999999
 10
-3.077679
 20
-1.775066999999999
 10
-3.067911
 20
-1.647677999999999
 10
-3.057920999999999
 20
-1.517387999999999
 10
-3.047722
 20
-1.384379
 10
-3.037329999999999
 20
-1.248831999999999
 10
-3.026758
 20
-1.110932
 10
-3.016019
 20
-0.970859
 10
-3.005128
 20
-0.8287959999999998
 10
-2.994099
 20
-0.6849260000000001
 10
-2.982947
 20
-0.53943
 10
-2.971684
 20
-0.392491
 10
-2.960325
 20
-0.244291
 10
-2.948883999999999
 20
-0.095013
 10
-2.937374999999999
 20
0.055162
 10
-2.925812
 20
0.206051
 10
-2.914208999999999
 20
0.357471
 10
-2.90258
 20
0.509241
 10
-2.89094
 20
0.661178
 10
-2.879300999999999
 20
0.8131
 10
-2.867677999999999
 20
0.964825
 10
-2.856085999999999
 20
1.11617
 10
-2.844538
 20
1.266952999999999
 10
-2.833047999999999
 20
1.416992
 10
-2.821629999999999
 20
1.566104999999999
 10
-2.810297999999999
 20
1.714109
 10
-2.799065999999999
 20
1.860820999999999
 10
-2.787949
 20
2.006060999999999
 10
-2.776959999999999
 20
2.149645
 10
-2.766113
 20
2.291390999999999
 10
-2.755422
 20
2.431116999999999
 10
-2.744902
 20
2.568640999999999
 10
-2.734566
 20
2.70378
 10
-2.724428
 20
2.836352
 10
-2.714501999999999
 20
2.966174999999999
 10
-2.704803
 20
3.093067
  0
LWPOLYLINE
  5
A17
330
1E
100
AcDbEntity
  8
LAYER_1
  6
Continuous
 62
     7
100
AcDbPolyline
 90
       25
 70
     0
 43
0.0
 10
-2.704803
 20
3.093067
 10
-2.688394999999999
 20
3.307748999999999
 10
-2.672668999999999
 20
3.513255
 10
-2.657572999999999
 20
3.709941999999999
 10
-2.643051999999999
 20
3.898170999999999
 10
-2.629054
 20
4.078299999999999
 10
-2.615524999999999
 20
4.250689
 10
-2.602411999999999
 20
4.415695999999999
 10
-2.589660999999999
 20
4.573680999999999
 10
-2.57722
 20
4.725003
 10
-2.565034999999999
 20
4.870019999999999
 10
-2.553052
 20
5.009093
 10
-2.541218999999999
 20
5.14258
 10
-2.529481999999999
 20
5.270841
 10
-2.517786999999999
 20
5.394232999999999
 10
-2.506082
 20
5.513118
 10
-2.494311999999999
 20
5.627852999999999
 10
-2.482425999999999
 20
5.738798
 10
-2.470368999999999
 20
5.846312
 10
-2.458086999999999
 20
5.950755
 10
-2.445529
 20
6.052483999999999
 10
-2.43264
 20
6.15186
 10
-2.419366999999999
 20
6.249241
 10
-2.405657
 20
6.344987
 10
-2.391456999999999
 20
6.439456999999999
  0
LWPOLYLINE
  5
A32
330
1E
100
AcDbEntity
  8
LAYER_1
  6
Continuous
 62
     7
100
AcDbPolyline
 90
       14
 70
     0
 43
0.0
 10
-2.391456999999999
 20
6.439456999999999
 10
-2.363823
 20
6.611267999999999
 10
-2.334306
 20
6.779505999999999
 10
-2.302875999999999
 20
6.943724999999999
 10
-2.269503999999999
 20
7.10348
 10
-2.234159999999999
 20
7.258324
 10
-2.196816
 20
7.407810999999999
 10
-2.157440999999999
 20
7.551495
 10
-2.116006999999999
 20
7.688931
 10
-2.072483
 20
7.819671
 10
-2.026841999999999
 20
7.943271000000001
 10
-1.979053
 20
8.059283999999999
 10
-1.929086
 20
8.167263
 10
-1.876913
 20
8.266764
  0
LWPOLYLINE
  5
A42
330
1E
100
AcDbEntity
  8
LAYER_1
  6
Continuous
 62
     7
100
AcDbPolyline
 90
        7
 70
     0
 43
0.0
 10
-1.876913
 20
8.266764
 10
-1.756924
 20
8.452674999999999
 10
-1.630743
 20
8.601447
 10
-1.502670999999999
 20
8.717822999999999
 10
-1.377012
 20
8.806544999999999
 10
-1.258065999999999
 20
8.872357
 10
-1.150137999999999
 20
8.919999999999999
  0
LWPOLYLINE
  5
A4B
330
1E
100
AcDbEntity
  8
LAYER_1
  6
Continuous
 62
     7
100
AcDbPolyline
 90
        4
 70
     0
 43
0.0
 10
-1.150137999999999
 20
8.919999999999999
 10
-0.975694
 20
8.976597999999999
 10
-0.8439770000000001
 20
8.997517999999999
 10
-0.7364410000000001
 20
9.000693
  0
LWPOLYLINE
  5
A51
330
1E
100
AcDbEntity
  8
LAYER_1
  6
Continuous
 62
     7
100
AcDbPolyline
 90
        4
 70
     0
 43
0.0
 10
-0.7364410000000001
 20
9.000693
 10
-0.637822
 20
9.001046999999999
 10
-0.545967
 20
9.001495
 10
-0.462012
 20
9.001941
  0
LWPOLYLINE
  5
A57
330
1E
100
AcDbEntity
  8
LAYER_1
  6
Continuous
 62
     7
100
AcDbPolyline
 90
        4
 70
     0
 43
0.0
 10
-0.462012
 20
9.001941
 10
-0.387454
 20
9.000852999999999
 10
-0.325124
 20
8.989886
 10
-0.278205
 20
8.959164999999998
  0
LWPOLYLINE
  5
A5D
330
1E
100
AcDbEntity
  8
LAYER_1
  6
Continuous
 62
     7
100
AcDbPolyline
 90
        4
 70
     0
 43
0.0
 10
-0.278205
 20
8.959164999999998
 10
-0.246883
 20
8.889554999999999
 10
-0.219255
 20
8.723866000000001
 10
-0.180413
 20
8.395554999999999
  0
LWPOLYLINE
  5
A63
330
1E
100
AcDbEntity
  8
LAYER_1
  6
Continuous
 62
     7
100
AcDbPolyline
 90
       15
 70
     0
 43
0.0
 10
-0.180413
 20
8.395554999999999
 10
-0.169241
 20
8.297862
 10
-0.156947
 20
8.190343999999999
 10
-0.143611
 20
8.073700999999999
 10
-0.129311
 20
7.948630999999999
 10
-0.114125
 20
7.815833
 10
-0.098132
 20
7.676007000000001
 10
-0.08141
 20
7.529851999999999
 10
-0.064038
 20
7.378066
 10
-0.046094
 20
7.221349
 10
-0.027657
 20
7.060399999999999
 10
-0.008805
 20
6.895917999999999
 10
0.010384
 20
6.728602
 10
0.029831
 20
6.559150999999999
 10
0.049457
 20
6.388263999999999
  0
LWPOLYLINE
  5
A74
330
1E
100
AcDbEntity
  8
LAYER_1
  6
Continuous
 62
     7
100
AcDbPolyline
 90
       21
 70
     0
 43
0.0
 10
0.049457
 20
6.388263999999999
 10
0.063272
 20
6.268076999999999
 10
0.07717
 20
6.147250999999999
 10
0.091183
 20
6.025509999999999
 10
0.105342
 20
5.902575999999999
 10
0.11968
 20
5.778170999999999
 10
0.134229
 20
5.652016999999999
 10
0.149022
 20
5.523838999999999
 10
0.16409
 20
5.393356999999999
 10
0.179467
 20
5.260294999999999
 10
0.195183
 20
5.124374999999999
 10
0.211272
 20
4.985319999999999
 10
0.227766
 20
4.842851999999999
 10
0.244696
 20
4.696693999999999
 10
0.262096
 20
4.546567999999999
 10
0.279996
 20
4.392197
 10
0.298431
 20
4.233304
 10
0.317431
 20
4.069611
 10
0.33703
 20
3.90084
 10
0.357258
 20
3.726713999999999
 10
0.37815
 20
3.546956999999999
  0
LWPOLYLINE
  5
A8B
330
1E
100
AcDbEntity
  8
LAYER_1
  6
Continuous
 62
     7
100
AcDbPolyline
 90
       29
 70
     0
 43
0.0
 10
0.37815
 20
3.546956999999999
 10
0.39349
 20
3.415015
 10
0.4091540000000001
 20
3.280311
 10
0.425111
 20
3.143098
 10
0.44133
 20
3.003629
 10
0.4577790000000001
 20
2.862156
 10
0.474428
 20
2.718933
 10
0.4912470000000001
 20
2.574213
 10
0.508203
 20
2.428247999999999
 10
0.5252670000000001
 20
2.281290999999999
 10
0.542407
 20
2.133595999999999
 10
0.559592
 20
1.985415
 10
0.5767920000000001
 20
1.837000999999999
 10
0.593975
 20
1.688608
 10
0.6111100000000001
 20
1.540487999999999
 10
0.628167
 20
1.392892999999999
 10
0.6451150000000001
 20
1.246078
 10
0.6619229999999999
 20
1.100295
 10
0.678559
 20
0.9557959999999997
 10
0.694994
 20
0.812836
 10
0.7111950000000001
 20
0.671666
 10
0.7271320000000001
 20
0.5325400000000001
 10
0.742775
 20
0.39571
 10
0.758091
 20
0.26143
 10
0.7730510000000001
 20
0.129952
 10
0.787623
 20
0.00153
 10
0.801777
 20
-0.123583
 10
0.8154809999999999
 20
-0.245136
 10
0.8287049999999998
 20
-0.362874
  0
LWPOLYLINE
  5
AAA
330
1E
100
AcDbEntity
  8
LAYER_1
  6
Continuous
 62
     7
100
AcDbPolyline
 90
       16
 70
     0
 43
0.0
 10
0.8287049999999998
 20
-0.362874
 10
0.8520459999999998
 20
-0.571997
 10
0.873679
 20
-0.7678340000000001
 10
0.893678
 20
-0.9512719999999998
 10
0.9121169999999999
 20
-1.123199
 10
0.9290709999999998
 20
-1.284499
 10
0.9446139999999999
 20
-1.43606
 10
0.95882
 20
-1.578769
 10
0.9717639999999999
 20
-1.713511999999999
 10
0.983519
 20
-1.841174
 10
0.9941600000000001
 20
-1.962643999999999
 10
1.003759999999999
 20
-2.078806999999999
 10
1.012395
 20
-2.190549999999999
 10
1.020138999999999
 20
-2.298758999999999
 10
1.027064999999999
 20
-2.404320999999999
 10
1.033247999999999
 20
-2.508122
  0
LWPOLYLINE
  5
ABC
330
1E
100
AcDbEntity
  8
LAYER_1
  6
Continuous
 62
     7
100
AcDbPolyline
 90
        9
 70
     0
 43
0.0
 10
1.033247999999999
 20
-2.508122
 10
1.04306
 20
-2.69971
 10
1.050791
 20
-2.885778999999999
 10
1.05671
 20
-3.063881999999999
 10
1.061087999999999
 20
-3.231568
 10
1.064194
 20
-3.386391
 10
1.066297999999999
 20
-3.525901999999999
 10
1.067670999999999
 20
-3.647651999999999
 10
1.068583
 20
-3.749192999999999
  0
LWPOLYLINE
  5
AC7
330
1E
100
AcDbEntity
  8
LAYER_1
  6
Continuous
 62
     7
100
AcDbPolyline
 90
        4
 70
     0
 43
0.0
 10
1.068583
 20
-3.749192999999999
 10
1.070018
 20
-3.919254
 10
1.070546999999999
 20
-3.981908
 10
1.070621999999999
 20
-3.990858
  0
LWPOLYLINE
  5
ACD
330
1E
100
AcDbEntity
  8
LAYER_1
  6
DASHED
 62
     7
100
AcDbPolyline
 90
        4
 70
     0
 43
0.0
 10
-3.250074999999999
 20
-4.000083
 10
-2.25015
 20
9.000412999999999
 10
-0.250303
 20
9.000412999999999
 10
1.250330999999999
 20
-4.000083
  0
LWPOLYLINE
  5
AD3
330
1E
100
AcDbEntity
  8
LAYER_1
  6
Continuous
 62
     7
100
AcDbPolyline
 90
        7
 70
     1
 43
0.0
 10
-2.041263999999999
 20
-0.5318310000000001
 10
-2.041263999999999
 20
-0.699248
 10
-2.495913
 20
-0.7007909999999999
 10
-2.661802999999999
 20
-0.686969
 10
-2.753956999999999
 20
-0.6762199999999999
 10
-2.064302999999999
 20
-0.6762199999999999
 10
-2.064302999999999
 20
-0.5318310000000001
  0
LWPOLYLINE
  5
ADC
330
1E
100
AcDbEntity
  8
LAYER_1
  6
Continuous
 62
     7
100
AcDbPolyline
 90
        4
 70
     0
 43
0.0
 10
-1.936831
 20
-1.815913
 10
-1.945216999999999
 20
-1.784904
 10
-1.967254999999999
 20
-1.762858999999999
 10
-1.998263999999999
 20
-1.754468999999999
  0
LWPOLYLINE
  5
AE2
330
1E
100
AcDbEntity
  8
LAYER_1
  6
Continuous
 62
     7
100
AcDbPolyline
 90
        4
 70
     0
 43
0.0
 10
-1.998263999999999
 20
-1.754468999999999
 10
-2.029268999999999
 20
-1.762858999999999
 10
-2.051306999999999
 20
-1.784904
 10
-2.059693
 20
-1.815913
  0
LWPOLYLINE
  5
AE8
330
1E
100
AcDbEntity
  8
LAYER_1
  6
Continuous
 62
     7
100
AcDbPolyline
 90
        4
 70
     0
 43
0.0
 10
-2.059693
 20
-1.815913
 10
-2.051306999999999
 20
-1.846922
 10
-2.029268999999999
 20
-1.868959999999999
 10
-1.998263999999999
 20
-1.877346
  0
LWPOLYLINE
  5
AEE
330
1E
100
AcDbEntity
  8
LAYER_1
  6
Continuous
 62
     7
100
AcDbPolyline
 90
        4
 70
     0
 43
0.0
 10
-1.998263999999999
 20
-1.877346
 10
-1.967254999999999
 20
-1.868959999999999
 10
-1.945216999999999
 20
-1.846922
 10
-1.936831
 20
-1.815913
  0
LWPOLYLINE
  5
AF4
330
1E
100
AcDbEntity
  8
LAYER_1
  6
Continuous
 62
     7
100
AcDbPolyline
 90
        4
 70
     0
 43
0.0
 10
-2.753956999999999
 20
-0.6777479999999999
 10
-2.74969
 20
-0.684859
 10
-2.719825
 20
-0.7346370000000001
 10
-2.638764
 20
-0.8697479999999998
  0
LWPOLYLINE
  5
AFA
330
1E
100
AcDbEntity
  8
LAYER_1
  6
Continuous
 62
     7
100
AcDbPolyline
 90
        6
 70
     0
 43
0.0
 10
-2.638764
 20
-0.8697479999999998
 10
-2.557627
 20
-1.004969
 10
-2.459708
 20
-1.168156999999999
 10
-2.355868999999999
 20
-1.341197999999999
 10
-2.256969999999999
 20
-1.505979
 10
-2.173874
 20
-1.644386
  0
LWPOLYLINE
  5
B02
330
1E
100
AcDbEntity
  8
LAYER_1
  6
Continuous
 62
     7
100
AcDbPolyline
 90
        4
 70
     0
 43
0.0
 10
-2.173874
 20
-1.644386
 10
-2.087480999999999
 20
-1.787961999999999
 10
-2.050349
 20
-1.848131999999999
 10
-2.037676999999999
 20
-1.865066999999999
  0
LWPOLYLINE
  5
B08
330
1E
100
AcDbEntity
  8
LAYER_1
  6
Continuous
 62
     7
100
AcDbPolyline
 90
        4
 70
     0
 43
0.0
 10
-2.037676999999999
 20
-1.865066999999999
 10
-2.028783
 20
-1.872286999999999
 10
-2.01944
 20
-1.876779
 10
-2.009527999999999
 20
-1.878885999999999
  0
LWPOLYLINE
  5
B0E
330
1E
100
AcDbEntity
  8
LAYER_1
  6
Continuous
 62
     7
100
AcDbPolyline
 90
        4
 70
     0
 43
0.0
 10
-2.009527999999999
 20
-1.878885999999999
 10
-1.998998
 20
-1.878924
 10
-1.988134
 20
-1.87714
 10
-1.977263999999999
 20
-1.873763999999999
  0
LWPOLYLINE
  5
B14
330
1E
100
AcDbEntity
  8
LAYER_1
  6
Continuous
 62
     7
100
AcDbPolyline
 90
        4
 70
     0
 43
0.0
 10
-1.977263999999999
 20
-1.873763999999999
 10
-1.966797
 20
-1.868984999999999
 10
-1.957356
 20
-1.862841999999999
 10
-1.949622
 20
-1.855330999999999
  0
LWPOLYLINE
  5
B1A
330
1E
100
AcDbEntity
  8
LAYER_1
  6
Continuous
 62
     7
100
AcDbPolyline
 90
        4
 70
     0
 43
0.0
 10
-1.949622
 20
-1.855330999999999
 10
-1.944079
 20
-1.846537999999999
 10
-1.940475999999999
 20
-1.836829
 10
-1.938358
 20
-1.826665
  0
LWPOLYLINE
  5
B20
330
1E
100
AcDbEntity
  8
LAYER_1
  6
Continuous
 62
     7
100
AcDbPolyline
 90
        4
 70
     0
 43
0.0
 10
-1.938358
 20
-1.826665
 10
-1.937938
 20
-1.809863999999999
 10
-1.942183999999999
 20
-1.753695999999999
 10
-1.954731999999999
 20
-1.618802999999999
  0
LWPOLYLINE
  5
B26
330
1E
100
AcDbEntity
  8
LAYER_1
  6
Continuous
 62
     7
100
AcDbPolyline
 90
        5
 70
     0
 43
0.0
 10
-1.954731999999999
 20
-1.618802999999999
 10
-1.970972
 20
-1.450654
 10
-1.990572999999999
 20
-1.249771999999999
 10
-2.010174
 20
-1.049854
 10
-2.026413
 20
-0.884594
  0
LWPOLYLINE
  5
B2D
330
1E
100
AcDbEntity
  8
LAYER_1
  6
Continuous
 62
     7
100
AcDbPolyline
 90
        4
 70
     0
 43
0.0
 10
-2.026413
 20
-0.884594
 10
-2.039022
 20
-0.7563350000000001
 10
-2.043666999999999
 20
-0.7090810000000002
 10
-2.044331
 20
-0.7023310000000001
  0
LWPOLYLINE
  5
B33
330
1E
100
AcDbEntity
  8
LAYER_1
  6
Continuous
 62
     7
100
AcDbPolyline
 90
        4
 70
     0
 43
0.0
 10
-2.316886
 20
-3.997819
 10
-2.327793
 20
-3.957491
 10
-2.356456999999999
 20
-3.928823999999999
 10
-2.396790999999999
 20
-3.917912999999999
  0
LWPOLYLINE
  5
B39
330
1E
100
AcDbEntity
  8
LAYER_1
  6
Continuous
 62
     7
100
AcDbPolyline
 90
        4
 70
     0
 43
0.0
 10
-2.396790999999999
 20
-3.917912999999999
 10
-2.437116
 20
-3.928823999999999
 10
-2.465783
 20
-3.957491
 10
-2.476693
 20
-3.997819
  0
LWPOLYLINE
  5
B3F
330
1E
100
AcDbEntity
  8
LAYER_1
  6
Continuous
 62
     7
100
AcDbPolyline
 90
        4
 70
     0
 43
0.0
 10
-2.476693
 20
-3.997819
 10
-2.465783
 20
-4.038143999999999
 10
-2.437116
 20
-4.06681
 10
-2.396790999999999
 20
-4.077719999999999
  0
LWPOLYLINE
  5
B45
330
1E
100
AcDbEntity
  8
LAYER_1
  6
Continuous
 62
     7
100
AcDbPolyline
 90
        4
 70
     0
 43
0.0
 10
-2.396790999999999
 20
-4.077719999999999
 10
-2.356456999999999
 20
-4.06681
 10
-2.327793
 20
-4.038143999999999
 10
-2.316886
 20
-3.997819
  0
LWPOLYLINE
  5
B4B
330
1E
100
AcDbEntity
  8
LAYER_1
  6
Continuous
 62
     7
100
AcDbPolyline
 90
        4
 70
     1
 43
0.0
 10
-2.019232
 20
-3.496995999999999
 10
-1.975583
 20
-3.496995999999999
 10
-1.975583
 20
-3.14665
 10
-2.019232
 20
-3.14665
  0
LWPOLYLINE
  5
B51
330
1E
100
AcDbEntity
  8
LAYER_1
  6
Continuous
 62
     7
100
AcDbPolyline
 90
        4
 70
     1
 43
0.0
 10
-2.019232
 20
-4.843149999999999
 10
-1.975583
 20
-4.843149999999999
 10
-1.975583
 20
-4.492798999999999
 10
-2.019232
 20
-4.492798999999999
  0
LWPOLYLINE
  5
B57
330
1E
100
AcDbEntity
  8
LAYER_1
  6
Continuous
 62
     7
100
AcDbPolyline
 90
        4
 70
     1
 43
0.0
 10
-2.079886
 20
-4.828465
 10
-2.05078
 20
-4.828465
 10
-2.05078
 20
-3.160881999999999
 10
-2.079886
 20
-3.160881999999999
  0
SOLID
  5
B5D
330
1E
100
AcDbEntity
  8
LAYER_1
  6
Continuous
100
AcDbTrace
 10
-2.040354
 20
-3.326689
 30
0.0
 11
-1.950772
 21
-3.326689
 31
0.0
 12
-2.040354
 22
-3.257743999999999
 32
0.0
 13
-1.950772
 23
-3.257743999999999
 33
0.0
  0
LWPOLYLINE
  5
B5E
330
1E
100
AcDbEntity
  8
LAYER_1
  6
Continuous
100
AcDbPolyline
 90
        4
 70
     1
 43
0.0
 10
-2.040354
 20
-3.326689
 10
-1.950772
 20
-3.326689
 10
-1.950772
 20
-3.257743999999999
 10
-2.040354
 20
-3.257743999999999
  0
LWPOLYLINE
  5
B64
330
1E
100
AcDbEntity
  8
LAYER_1
  6
Continuous
 62
     7
100
AcDbPolyline
 90
        4
 70
     1
 43
0.0
 10
-2.040354
 20
-3.326689
 10
-1.950772
 20
-3.326689
 10
-1.950772
 20
-3.257743999999999
 10
-2.040354
 20
-3.257743999999999
  0
SOLID
  5
B6A
330
1E
100
AcDbEntity
  8
LAYER_1
  6
Continuous
100
AcDbTrace
 10
-2.040354
 20
-4.725558999999999
 30
0.0
 11
-1.950772
 21
-4.725558999999999
 31
0.0
 12
-2.040354
 22
-4.656614
 32
0.0
 13
-1.950772
 23
-4.656614
 33
0.0
  0
LWPOLYLINE
  5
B6B
330
1E
100
AcDbEntity
  8
LAYER_1
  6
Continuous
100
AcDbPolyline
 90
        4
 70
     1
 43
0.0
 10
-2.040354
 20
-4.725558999999999
 10
-1.950772
 20
-4.725558999999999
 10
-1.950772
 20
-4.656614
 10
-2.040354
 20
-4.656614
  0
LWPOLYLINE
  5
B71
330
1E
100
AcDbEntity
  8
LAYER_1
  6
Continuous
 62
     7
100
AcDbPolyline
 90
        4
 70
     1
 43
0.0
 10
-2.040354
 20
-4.725558999999999
 10
-1.950772
 20
-4.725558999999999
 10
-1.950772
 20
-4.656614
 10
-2.040354
 20
-4.656614
  0
SOLID
  5
B77
330
1E
100
AcDbEntity
  8
LAYER_1
  6
Continuous
100
AcDbTrace
 10
-2.050790999999999
 20
-4.828465
 30
0.0
 11
-1.940204999999999
 21
-4.828465
 31
0.0
 12
-2.050790999999999
 22
-4.744070999999999
 32
0.0
 13
-1.940204999999999
 23
-4.744070999999999
 33
0.0
  0
LWPOLYLINE
  5
B78
330
1E
100
AcDbEntity
  8
LAYER_1
  6
Continuous
100
AcDbPolyline
 90
        4
 70
     1
 43
0.0
 10
-2.050790999999999
 20
-4.828465
 10
-1.940204999999999
 20
-4.828465
 10
-1.940204999999999
 20
-4.744070999999999
 10
-2.050790999999999
 20
-4.744070999999999
  0
LWPOLYLINE
  5
B7E
330
1E
100
AcDbEntity
  8
LAYER_1
  6
Continuous
 62
     7
100
AcDbPolyline
 90
        4
 70
     1
 43
0.0
 10
-2.050790999999999
 20
-4.828465
 10
-1.940204999999999
 20
-4.828465
 10
-1.940204999999999
 20
-4.744070999999999
 10
-2.050790999999999
 20
-4.744070999999999
  0
SOLID
  5
B84
330
1E
100
AcDbEntity
  8
LAYER_1
  6
Continuous
100
AcDbTrace
 10
-2.050790999999999
 20
-3.245286999999999
 30
0.0
 11
-1.940204999999999
 21
-3.245286999999999
 31
0.0
 12
-2.050790999999999
 22
-3.160886
 32
0.0
 13
-1.940204999999999
 23
-3.160886
 33
0.0
  0
LWPOLYLINE
  5
B85
330
1E
100
AcDbEntity
  8
LAYER_1
  6
Continuous
100
AcDbPolyline
 90
        4
 70
     1
 43
0.0
 10
-2.050790999999999
 20
-3.245286999999999
 10
-1.940204999999999
 20
-3.245286999999999
 10
-1.940204999999999
 20
-3.160886
 10
-2.050790999999999
 20
-3.160886
  0
LWPOLYLINE
  5
B8B
330
1E
100
AcDbEntity
  8
LAYER_1
  6
Continuous
 62
     7
100
AcDbPolyline
 90
        4
 70
     1
 43
0.0
 10
-2.050790999999999
 20
-3.245286999999999
 10
-1.940204999999999
 20
-3.245286999999999
 10
-1.940204999999999
 20
-3.160886
 10
-2.050790999999999
 20
-3.160886
  0
SOLID
  5
B91
330
1E
100
AcDbEntity
  8
LAYER_1
  6
Continuous
100
AcDbTrace
 10
-2.050790999999999
 20
-3.339857999999999
 30
0.0
 11
-1.940204999999999
 21
-3.339857999999999
 31
0.0
 12
-2.050790999999999
 22
-3.508649999999999
 32
0.0
 13
-1.940204999999999
 23
-3.421345999999999
 33
0.0
  0
LWPOLYLINE
  5
B92
330
1E
100
AcDbEntity
  8
LAYER_1
  6
Continuous
100
AcDbPolyline
 90
        4
 70
     1
 43
0.0
 10
-2.050790999999999
 20
-3.339857999999999
 10
-1.940204999999999
 20
-3.339857999999999
 10
-1.940204999999999
 20
-3.421345999999999
 10
-2.050790999999999
 20
-3.508649999999999
  0
LWPOLYLINE
  5
B98
330
1E
100
AcDbEntity
  8
LAYER_1
  6
Continuous
 62
     7
100
AcDbPolyline
 90
        4
 70
     1
 43
0.0
 10
-2.050790999999999
 20
-3.339857999999999
 10
-1.940204999999999
 20
-3.339857999999999
 10
-1.940204999999999
 20
-3.421345999999999
 10
-2.050790999999999
 20
-3.508649999999999
  0
SOLID
  5
B9E
330
1E
100
AcDbEntity
  8
LAYER_1
  6
Continuous
100
AcDbTrace
 10
-2.050790999999999
 20
-4.473416999999999
 30
0.0
 11
-1.940204999999999
 21
-4.551995999999999
 31
0.0
 12
-2.050790999999999
 22
-4.63639
 32
0.0
 13
-1.940204999999999
 23
-4.63639
 33
0.0
  0
LWPOLYLINE
  5
B9F
330
1E
100
AcDbEntity
  8
LAYER_1
  6
Continuous
100
AcDbPolyline
 90
        4
 70
     1
 43
0.0
 10
-2.050790999999999
 20
-4.473416999999999
 10
-1.940204999999999
 20
-4.551995999999999
 10
-1.940204999999999
 20
-4.63639
 10
-2.050790999999999
 20
-4.63639
  0
LWPOLYLINE
  5
BA5
330
1E
100
AcDbEntity
  8
LAYER_1
  6
Continuous
 62
     7
100
AcDbPolyline
 90
        4
 70
     1
 43
0.0
 10
-2.050790999999999
 20
-4.473416999999999
 10
-1.940204999999999
 20
-4.551995999999999
 10
-1.940204999999999
 20
-4.63639
 10
-2.050790999999999
 20
-4.63639
  0
LWPOLYLINE
  5
BAB
330
1E
100
AcDbEntity
  8
LAYER_1
  6
DASHED
 62
     7
100
AcDbPolyline
 90
        2
 70
     0
 43
0.0
 10
-1.997083
 20
-2.497083
 10
-1.997083
 20
-5.495311
  0
LWPOLYLINE
  5
BAF
330
1E
100
AcDbEntity
  8
LAYER_1
  6
Continuous
 62
     7
100
AcDbPolyline
 90
        2
 70
     0
 43
0.0
 10
-3.236256
 20
-4.403075
 10
-1.998263999999999
 20
-4.403075
  0
LWPOLYLINE
  5
BB3
330
1E
100
AcDbEntity
  8
LAYER_1
  6
Continuous
 62
     7
100
AcDbPolyline
 90
        3
 70
     0
 43
0.0
 10
-3.125665
 20
-4.433791
 10
-3.236256
 20
-4.403075
 10
-3.125665
 20
-4.372358
  0
LWPOLYLINE
  5
BB8
330
1E
100
AcDbEntity
  8
LAYER_1
  6
Continuous
 62
     7
100
AcDbPolyline
 90
        3
 70
     0
 43
0.0
 10
-2.108845999999999
 20
-4.372358
 10
-1.998263999999999
 20
-4.403075
 10
-2.108845999999999
 20
-4.433791
  0
LWPOLYLINE
  5
BBD
330
1E
100
AcDbEntity
  8
LAYER_1
  6
Continuous
 62
     7
100
AcDbPolyline
 90
        4
 70
     0
 43
0.0
 10
-2.084276
 20
-3.159902
 10
-2.086835999999999
 20
-3.159920999999999
 10
-2.104756999999999
 20
-3.160053
 10
-2.153402
 20
-3.160413
  0
LWPOLYLINE
  5
BC3
330
1E
100
AcDbEntity
  8
LAYER_1
  6
Continuous
 62
     7
100
AcDbPolyline
 90
        4
 70
     0
 43
0.0
 10
-2.153402
 20
-3.160413
 10
-2.24104
 20
-3.161156
 10
-2.347682999999999
 20
-3.162581
 10
-2.446247999999999
 20
-3.165027999999999
  0
LWPOLYLINE
  5
BC9
330
1E
100
AcDbEntity
  8
LAYER_1
  6
Continuous
 62
     7
100
AcDbPolyline
 90
        4
 70
     0
 43
0.0
 10
-2.446247999999999
 20
-3.165027999999999
 10
-2.516172
 20
-3.169287999999999
 10
-2.562877999999999
 20
-3.177988
 10
-2.598319
 20
-3.194204999999999
  0
LWPOLYLINE
  5
BCF
330
1E
100
AcDbEntity
  8
LAYER_1
  6
Continuous
 62
     7
100
AcDbPolyline
 90
        4
 70
     0
 43
0.0
 10
-2.598319
 20
-3.194204999999999
 10
-2.632395
 20
-3.221071999999999
 10
-2.666811
 20
-3.262049999999999
 10
-2.70122
 20
-3.320664999999999
  0
LWPOLYLINE
  5
BD5
330
1E
100
AcDbEntity
  8
LAYER_1
  6
Continuous
 62
     7
100
AcDbPolyline
 90
        4
 70
     0
 43
0.0
 10
-2.70122
 20
-3.320664999999999
 10
-2.735071
 20
-3.398906999999999
 10
-2.766871
 20
-3.492620999999999
 10
-2.794913
 20
-3.596122
  0
LWPOLYLINE
  5
BDB
330
1E
100
AcDbEntity
  8
LAYER_1
  6
Continuous
 62
     7
100
AcDbPolyline
 90
        4
 70
     0
 43
0.0
 10
-2.794913
 20
-3.596122
 10
-2.817772
 20
-3.703237999999999
 10
-2.835049
 20
-3.805921
 10
-2.846638
 20
-3.895637999999999
  0
LWPOLYLINE
  5
BE1
330
1E
100
AcDbEntity
  8
LAYER_1
  6
Continuous
 62
     7
100
AcDbPolyline
 90
        4
 70
     0
 43
0.0
 10
-2.846638
 20
-3.895637999999999
 10
-2.852432999999999
 20
-3.967653999999999
 10
-2.852432999999999
 20
-4.032507999999999
 10
-2.846638
 20
-4.104528
  0
LWPOLYLINE
  5
BE7
330
1E
100
AcDbEntity
  8
LAYER_1
  6
Continuous
 62
     7
100
AcDbPolyline
 90
        4
 70
     0
 43
0.0
 10
-2.846638
 20
-4.104528
 10
-2.835049
 20
-4.194201999999999
 10
-2.817772
 20
-4.296621
 10
-2.794913
 20
-4.403019999999999
  0
LWPOLYLINE
  5
BED
330
1E
100
AcDbEntity
  8
LAYER_1
  6
Continuous
 62
     7
100
AcDbPolyline
 90
        4
 70
     0
 43
0.0
 10
-2.794913
 20
-4.403019999999999
 10
-2.766909
 20
-4.505226999999999
 10
-2.735376
 20
-4.597424
 10
-2.702247999999999
 20
-4.674373999999999
  0
LWPOLYLINE
  5
BF3
330
1E
100
AcDbEntity
  8
LAYER_1
  6
Continuous
 62
     7
100
AcDbPolyline
 90
        4
 70
     0
 43
0.0
 10
-2.702247999999999
 20
-4.674373999999999
 10
-2.669064
 20
-4.732287
 10
-2.635768
 20
-4.773133
 10
-2.601901999999999
 20
-4.800326999999999
  0
LWPOLYLINE
  5
BF9
330
1E
100
AcDbEntity
  8
LAYER_1
  6
Continuous
 62
     7
100
AcDbPolyline
 90
        4
 70
     0
 43
0.0
 10
-2.601901999999999
 20
-4.800326999999999
 10
-2.565189
 20
-4.817147
 10
-2.516075999999999
 20
-4.826344
 10
-2.443176999999999
 20
-4.830530999999999
  0
LWPOLYLINE
  5
BFF
330
1E
100
AcDbEntity
  8
LAYER_1
  6
Continuous
 62
     7
100
AcDbPolyline
 90
        4
 70
     0
 43
0.0
 10
-2.443176999999999
 20
-4.830530999999999
 10
-2.341597
 20
-4.832049999999999
 10
-2.232275
 20
-4.832091
 10
-2.142638
 20
-4.831558999999999
  0
LWPOLYLINE
  5
C05
330
1E
100
AcDbEntity
  8
LAYER_1
  6
Continuous
 62
     7
100
AcDbPolyline
 90
        4
 70
     0
 43
0.0
 10
-2.142638
 20
-4.831558999999999
 10
-2.092918999999999
 20
-4.831198999999999
 10
-2.074600999999999
 20
-4.831066
 10
-2.071984
 20
-4.831046999999999
  0
TEXT
  5
C0B
330
1E
100
AcDbEntity
  8
LAYER_1
 62
     7
100
AcDbText
 10
-2.726331
 20
-4.322034999999999
 30
0.0
 40
0.105368
  1
1.25"
 41
0.6884225370354662
  7
SN1
 72
     5
 11
-2.432725999999999
 21
-4.322034999999999
 31
0.0
100
AcDbText
  0
LWPOLYLINE
  5
C0C
330
1E
100
AcDbEntity
  8
LAYER_1
  6
Continuous
 62
     7
100
AcDbPolyline
 90
        2
 70
     0
 43
0.0
 10
-3.248539
 20
-4.797248
 10
-3.248539
 20
-4.201283
  0
LWPOLYLINE
  5
C10
330
1E
100
AcDbEntity
  8
LAYER_1
  6
Continuous
 62
     7
100
AcDbPolyline
 90
        4
 70
     0
 43
0.0
 10
-2.505138
 20
-2.760539
 10
-2.504075999999999
 20
-2.760577
 10
-2.49664
 20
-2.760844
 10
-2.476456999999999
 20
-2.761566999999999
  0
LWPOLYLINE
  5
C16
330
1E
100
AcDbEntity
  8
LAYER_1
  6
Continuous
 62
     7
100
AcDbPolyline
 90
        4
 70
     0
 43
0.0
 10
-2.476456999999999
 20
-2.761566999999999
 10
-2.441036999999999
 20
-2.763977
 10
-2.403338
 20
-2.773324999999999
 10
-2.380205
 20
-2.795873999999999
  0
LWPOLYLINE
  5
C1C
330
1E
100
AcDbEntity
  8
LAYER_1
  6
Continuous
 62
     7
100
AcDbPolyline
 90
        4
 70
     0
 43
0.0
 10
-2.380205
 20
-2.795873999999999
 10
-2.382500999999999
 20
-2.835091999999999
 10
-2.397197
 20
-2.883295
 10
-2.405291
 20
-2.930011999999999
  0
LWPOLYLINE
  5
C22
330
1E
100
AcDbEntity
  8
LAYER_1
  6
Continuous
 62
     7
100
AcDbPolyline
 90
        4
 70
     0
 43
0.0
 10
-2.405291
 20
-2.930011999999999
 10
-2.393120999999999
 20
-2.966744999999999
 10
-2.368316999999999
 20
-2.992779999999999
 10
-2.343857999999999
 20
-3.009374
  0
LWPOLYLINE
  5
C28
330
1E
100
AcDbEntity
  8
LAYER_1
  6
Continuous
 62
     7
100
AcDbPolyline
 90
        4
 70
     0
 43
0.0
 10
-2.343857999999999
 20
-3.009374
 10
-2.329804
 20
-3.018022999999999
 10
-2.324625999999999
 20
-3.021209999999999
 10
-2.323885999999999
 20
-3.021665
  0
LWPOLYLINE
  5
C2E
330
1E
100
AcDbEntity
  8
LAYER_1
  6
DASHED
 62
     7
100
AcDbPolyline
 90
        5
 70
     0
 43
0.0
 10
-2.833830999999999
 20
-4.007763999999999
 10
-2.833830999999999
 20
-3.817302999999999
 10
-2.317747999999999
 20
-3.00015
 10
-1.946038999999999
 20
-3.00015
 10
-1.946038999999999
 20
-3.998539
  0
TEXT
  5
C35
330
1E
100
AcDbEntity
  8
LAYER_1
 62
     7
100
AcDbText
 10
-3.020394
 20
-2.676429
 30
0.0
 40
0.105368
  1
endgrain
 41
0.7252014074273993
  7
SN1
 72
     5
 11
-2.521889999999999
 21
-2.676429
 31
0.0
100
AcDbText
  0
TEXT
  5
C36
330
1E
100
AcDbEntity
  8
LAYER_1
 62
     7
100
AcDbText
 10
-3.020394
 20
-2.804475999999999
 30
0.0
 40
0.105368
  1
 balsa
 41
0.6599820656296233
  7
SN1
 72
     5
 11
-2.679311999999999
 21
-2.804475999999999
 31
0.0
100
AcDbText
  0
TEXT
  5
C37
330
1E
100
AcDbEntity
  8
LAYER_1
 62
     7
100
AcDbText
 10
-3.020394
 20
-2.932527999999999
 30
0.0
 40
0.105368
  1
  5#
 41
0.5193943703237219
  7
SN1
 72
     5
 11
-2.807999
 21
-2.932527999999999
 31
0.0
100
AcDbText
  0
TEXT
  5
C38
330
1E
100
AcDbEntity
  8
LAYER_1
 62
     7
100
AcDbText
 10
1.979920999999999
 20
-3.808366
 30
0.0
 40
0.142018
  1
MD  14 May 04
 41
0.6462599059685582
  7
SN2
 72
     5
 11
3.146844999999999
 21
-3.808366
 31
0.0
100
AcDbText
  0
TEXT
  5
C39
330
1E
100
AcDbEntity
  8
LAYER_1
 62
     7
100
AcDbText
 10
-1.288642
 20
-1.834563
 30
0.0
 40
0.111095
  1
Hi-Load 60 foam core
 41
0.6367326898763956
  7
SN1
 72
     5
 11
0.008218
 21
-1.834563
 31
0.0
100
AcDbText
  0
TEXT
  5
C3A
330
1E
100
AcDbEntity
  8
LAYER_1
 62
     7
100
AcDbText
 10
-1.288642
 20
-2.811444999999999
 30
0.0
 40
0.111095
  1
1.0oz Kevlar skin
 41
0.6709125625983933
  7
SN1
 72
     5
 11
-0.262898
 21
-2.811444999999999
 31
0.0
100
AcDbText
  0
TEXT
  5
C3B
330
1E
100
AcDbEntity
  8
LAYER_1
 62
     7
100
AcDbText
 10
1.154665
 20
2.143205
 30
0.0
 40
0.105368
  1
Design (never-exceed) Loads
 41
0.6901404811918437
  7
SN1
 72
     5
 11
2.837584
 21
2.143205
 31
0.0
100
AcDbText
  0
TEXT
  5
C3C
330
1E
100
AcDbEntity
  8
LAYER_1
 62
     7
100
AcDbText
 10
1.154665
 20
2.014799
 30
0.0
 40
0.105368
  1
---------------------------
 41
0.3406641753814695
  7
SN1
 72
     5
 11
2.301598999999999
 21
2.014799
 31
0.0
100
AcDbText
  0
TEXT
  5
C3D
330
1E
100
AcDbEntity
  8
LAYER_1
 62
     7
100
AcDbText
 10
1.154665
 20
1.886393999999999
 30
0.0
 40
0.105368
  1
stab load       15 lb @ 100 mph, CL=1.0
 41
0.5913022964219996
  7
SN1
 72
     5
 11
3.403555
 21
1.886393999999999
 31
0.0
100
AcDbText
  0
TEXT
  5
C3E
330
1E
100
AcDbEntity
  8
LAYER_1
 62
     7
100
AcDbText
 10
1.154665
 20
1.757983999999999
 30
0.0
 40
0.105368
  1
root bend.mom.  43 lb-in
 41
0.6227886387574073
  7
SN1
 72
     5
 11
2.551475999999999
 21
1.757983999999999
 31
0.0
100
AcDbText
  0
TEXT
  5
C3F
330
1E
100
AcDbEntity
  8
LAYER_1
 62
     7
100
AcDbText
 10
1.154665
 20
1.629579
 30
0.0
 40
0.105368
  1
root cap load   140 lb
 41
0.5973612538769241
  7
SN1
 72
     5
 11
2.356572
 21
1.629579
 31
0.0
100
AcDbText
  0
TEXT
  5
C40
330
1E
100
AcDbEntity
  8
LAYER_1
 62
     7
100
AcDbText
 10
1.154665
 20
1.501168999999999
 30
0.0
 40
0.105368
  1
root cap area   0.00565 inò
 41
0.6423801257583813
  7
SN1
 72
     5
 11
2.750127999999999
 21
1.501168999999999
 31
0.0
100
AcDbText
  0
TEXT
  5
C41
330
1E
100
AcDbEntity
  8
LAYER_1
 62
     7
100
AcDbText
 10
1.154665
 20
1.372763999999999
 30
0.0
 40
0.105368
  1
root cap stress 25 ksi
 41
0.6378683602785176
  7
SN1
 72
     5
 11
2.374063
 21
1.372763999999999
 31
0.0
100
AcDbText
  0
TEXT
  5
C42
330
1E
100
AcDbEntity
  8
LAYER_1
 62
     7
100
AcDbText
 10
1.154665
 20
1.244358
 30
0.0
 40
0.105368
  1
   
 41
0.3438646774479286
  7
SN1
 72
     5
 11
1.263362
 21
1.244358
 31
0.0
100
AcDbText
  0
TEXT
  5
C43
330
1E
100
AcDbEntity
  8
LAYER_1
 62
     7
100
AcDbText
 10
-1.853874
 20
2.183555
 30
0.0
 40
0.111095
  1
0.06" CF rods
 41
0.6596753491281557
  7
SN1
 72
     5
 11
-1.026781999999999
 21
2.183555
 31
0.0
100
AcDbText
  0
TEXT
  5
C44
330
1E
100
AcDbEntity
  8
LAYER_1
 62
     7
100
AcDbText
 10
2.237968999999999
 20
-0.4583310000000001
 30
0.0
 40
0.111095
  1
Weights
 41
0.7865574660868204
  7
SN1
 72
     5
 11
2.728975999999999
 21
-0.4583310000000001
 31
0.0
100
AcDbText
  0
TEXT
  5
C45
330
1E
100
AcDbEntity
  8
LAYER_1
 62
     7
100
AcDbText
 10
2.237968999999999
 20
-0.5935000000000001
 30
0.0
 40
0.111095
  1
----------------
 41
0.3435162644037932
  7
SN1
 72
     5
 11
2.957613
 21
-0.5935000000000001
 31
0.0
100
AcDbText
  0
TEXT
  5
C46
330
1E
100
AcDbEntity
  8
LAYER_1
 62
     7
100
AcDbText
 10
2.237968999999999
 20
-0.728665
 30
0.0
 40
0.111095
  1
Spars    5.0 g
 41
0.5764998168080383
  7
SN1
 72
     5
 11
3.040072
 21
-0.728665
 31
0.0
100
AcDbText
  0
TEXT
  5
C47
330
1E
100
AcDbEntity
  8
LAYER_1
 62
     7
100
AcDbText
 10
2.237968999999999
 20
-0.8638309999999998
 30
0.0
 40
0.111095
  1
Foam     8.4 g
 41
0.5597424473523751
  7
SN1
 72
     5
 11
3.070057999999999
 21
-0.8638309999999998
 31
0.0
100
AcDbText
  0
TEXT
  5
C48
330
1E
100
AcDbEntity
  8
LAYER_1
 62
     7
100
AcDbText
 10
2.237968999999999
 20
-0.999
 30
0.0
 40
0.111095
  1
Balsa    0.4 g
 41
0.5766881895549277
  7
SN1
 72
     5
 11
3.025079999999999
 21
-0.999
 31
0.0
100
AcDbText
  0
TEXT
  5
C49
330
1E
100
AcDbEntity
  8
LAYER_1
 62
     7
100
AcDbText
 10
2.237968999999999
 20
-1.134164999999999
 30
0.0
 40
0.111095
  1
LE strip 0.8 g
 41
0.6337658327546105
  7
SN1
 72
     5
 11
3.032575999999999
 21
-1.134164999999999
 31
0.0
100
AcDbText
  0
TEXT
  5
C4A
330
1E
100
AcDbEntity
  8
LAYER_1
 62
     7
100
AcDbText
 10
2.237968999999999
 20
-1.269335
 30
0.0
 40
0.111095
  1
Paint    0.8 g
 41
0.567926849393162
  7
SN1
 72
     5
 11
2.995095
 21
-1.269335
 31
0.0
100
AcDbText
  0
TEXT
  5
C4B
330
1E
100
AcDbEntity
  8
LAYER_1
 62
     7
100
AcDbText
 10
2.237968999999999
 20
-1.4045
 30
0.0
 40
0.111095
  1
Skin     9.0 g
 41
0.5429135155632047
  7
SN1
 72
     5
 11
2.987597999999999
 21
-1.4045
 31
0.0
100
AcDbText
  0
TEXT
  5
C4C
330
1E
100
AcDbEntity
  8
LAYER_1
 62
     7
100
AcDbText
 10
2.237968999999999
 20
-1.539668999999999
 30
0.0
 40
0.111095
  1
TOTAL   24.4 g 
 41
0.6292349622529182
  7
SN1
 72
     5
 11
3.199993
 21
-1.539668999999999
 31
0.0
100
AcDbText
  0
TEXT
  5
C4D
330
1E
100
AcDbEntity
  8
LAYER_1
 62
     7
100
AcDbText
 10
1.746461
 20
-3.583251999999999
 30
0.0
 40
0.142018
  1
Supra F3J/TD  Stab
 41
0.6609625792344115
  7
SN3
 72
     5
 11
3.270708
 21
-3.583251999999999
 31
0.0
100
AcDbText
  0
TEXT
  5
C4E
330
1E
100
AcDbEntity
  8
LAYER_1
 62
     7
100
AcDbText
 10
0.345642
 20
-0.8884170000000001
 30
0.0
 40
0.111095
  1
+12
 41
0.6970751565428597
  7
SN1
 72
     5
 11
0.574279
 21
-0.8884170000000001
 31
0.0
100
AcDbText
  0
TEXT
  5
C4F
330
1E
100
AcDbEntity
  8
LAYER_1
 62
     7
100
AcDbText
 10
0.321063
 20
-0.015984
 30
0.0
 40
0.111095
  1
-17
 41
0.5942290019149552
  7
SN1
 72
     5
 11
0.515967
 21
-0.015984
 31
0.0
100
AcDbText
  0
TEXT
  5
C50
330
1E
100
AcDbEntity
  8
LAYER_1
 62
     7
100
AcDbText
 10
-1.817015999999999
 20
-4.415027999999999
 30
0.0
 40
0.111095
  1
V-mount platform
 41
0.649657060738924
  7
SN1
 72
     5
 11
-0.7825270000000001
 21
-4.415027999999999
 31
0.0
100
AcDbText
  0
LWPOLYLINE
  5
C51
330
1E
100
AcDbEntity
  8
LAYER_1
  6
DASHED
 62
     7
100
AcDbPolyline
 90
        2
 70
     0
 43
0.0
 10
-4.25
 20
-5.008487999999999
 10
-3.758483999999999
 20
-5.008487999999999
  0
LWPOLYLINE
  5
C55
330
1E
100
AcDbEntity
  8
LAYER_1
  6
DASHED
 62
     7
100
AcDbPolyline
 90
        2
 70
     0
 43
0.0
 10
3.761665
 20
-5.008487999999999
 10
4.253176999999999
 20
-5.008487999999999
  0
LWPOLYLINE
  5
C59
330
1E
100
AcDbEntity
  8
LAYER_1
  6
DASHED
 62
     7
100
AcDbPolyline
 90
        2
 70
     0
 43
0.0
 10
-4.25
 20
4.993802999999999
 10
-3.758483999999999
 20
4.993802999999999
  0
LWPOLYLINE
  5
C5D
330
1E
100
AcDbEntity
  8
LAYER_1
  6
DASHED
 62
     7
100
AcDbPolyline
 90
        2
 70
     0
 43
0.0
 10
3.761665
 20
4.993802999999999
 10
4.253176999999999
 20
4.993802999999999
  0
LWPOLYLINE
  5
C61
330
1E
100
AcDbEntity
  8
LAYER_1
  6
Continuous
 62
     7
100
AcDbPolyline
 90
        4
 70
     0
 43
0.0
 10
-1.935845999999999
 20
-14.00008299999999
 10
-1.935845999999999
 20
-2.449511999999999
 10
-1.87772
 20
-2.449511999999999
 10
-1.87772
 20
-14.012374
  0
LWPOLYLINE
  5
C67
330
1E
100
AcDbEntity
  8
LAYER_1
  6
Continuous
 62
     7
100
AcDbPolyline
 90
        4
 70
     0
 43
0.0
 10
-2.147555
 20
-13.998555
 10
-2.147555
 20
-8.505886
 10
-2.086886
 20
-8.505886
 10
-2.086886
 20
-13.998555
  0
LWPOLYLINE
  5
C6D
330
1E
100
AcDbEntity
  8
LAYER_1
  6
DASHED
 62
     7
100
AcDbPolyline
 90
        2
 70
     0
 43
0.0
 10
-3.752345999999999
 20
-14.002346
 10
1.752609999999999
 20
-14.002346
  0
LWPOLYLINE
  5
C71
330
1E
100
AcDbEntity
  8
LAYER_1
  6
Continuous
 62
     7
100
AcDbPolyline
 90
        4
 70
     0
 43
0.0
 10
-1.976109999999999
 20
-10.63859399999999
 10
-1.979074
 20
-10.62764
 10
-1.986862999999999
 20
-10.619851
 10
-1.997818999999999
 20
-10.616886
  0
LWPOLYLINE
  5
C77
330
1E
100
AcDbEntity
  8
LAYER_1
  6
Continuous
 62
     7
100
AcDbPolyline
 90
        4
 70
     0
 43
0.0
 10
-1.997818999999999
 20
-10.616886
 10
-2.008783
 20
-10.619851
 10
-2.016575
 20
-10.62764
 10
-2.019538999999999
 20
-10.63859399999999
  0
LWPOLYLINE
  5
C7D
330
1E
100
AcDbEntity
  8
LAYER_1
  6
Continuous
 62
     7
100
AcDbPolyline
 90
        4
 70
     0
 43
0.0
 10
-2.019538999999999
 20
-10.63859399999999
 10
-2.016575
 20
-10.64955099999999
 10
-2.008783
 20
-10.657339
 10
-1.997818999999999
 20
-10.660303
  0
LWPOLYLINE
  5
C83
330
1E
100
AcDbEntity
  8
LAYER_1
  6
Continuous
 62
     7
100
AcDbPolyline
 90
        4
 70
     0
 43
0.0
 10
-1.997818999999999
 20
-10.660303
 10
-1.986862999999999
 20
-10.657339
 10
-1.979074
 20
-10.64955099999999
 10
-1.976109999999999
 20
-10.63859399999999
  0
LWPOLYLINE
  5
C89
330
1E
100
AcDbEntity
  8
LAYER_1
  6
Continuous
 62
     7
100
AcDbPolyline
 90
        4
 70
     0
 43
0.0
 10
-1.985055
 20
-11.815528
 10
-1.986515999999999
 20
-11.81011699999999
 10
-1.990358
 20
-11.806269
 10
-1.995763999999999
 20
-11.80480299999999
  0
LWPOLYLINE
  5
C8F
330
1E
100
AcDbEntity
  8
LAYER_1
  6
Continuous
 62
     7
100
AcDbPolyline
 90
        4
 70
     0
 43
0.0
 10
-1.995763999999999
 20
-11.80480299999999
 10
-2.001166999999999
 20
-11.806269
 10
-2.005006999999999
 20
-11.81011699999999
 10
-2.006469
 20
-11.815528
  0
LWPOLYLINE
  5
C95
330
1E
100
AcDbEntity
  8
LAYER_1
  6
Continuous
 62
     7
100
AcDbPolyline
 90
        4
 70
     0
 43
0.0
 10
-2.006469
 20
-11.815528
 10
-2.005006999999999
 20
-11.820926
 10
-2.001166999999999
 20
-11.82476799999999
 10
-1.995763999999999
 20
-11.826232
  0
LWPOLYLINE
  5
C9B
330
1E
100
AcDbEntity
  8
LAYER_1
  6
Continuous
 62
     7
100
AcDbPolyline
 90
        4
 70
     0
 43
0.0
 10
-1.995763999999999
 20
-11.826232
 10
-1.990358
 20
-11.82476799999999
 10
-1.986515999999999
 20
-11.820926
 10
-1.985055
 20
-11.815528
  0
LWPOLYLINE
  5
CA1
330
1E
100
AcDbEntity
  8
LAYER_1
  6
DASHED
 62
     7
100
AcDbPolyline
 90
        4
 70
     1
 43
0.0
 10
-2.332122
 20
-10.961402
 10
-2.478791
 20
-10.961402
 10
-2.477055
 20
-10.42463799999999
 10
-2.332122
 20
-10.42463799999999
  0
LWPOLYLINE
  5
CA7
330
1E
100
AcDbEntity
  8
LAYER_1
  6
DASHED
 62
     7
100
AcDbPolyline
 90
        4
 70
     0
 43
0.0
 10
-2.479831
 20
-10.421331
 10
-2.565846
 20
-10.31996899999999
 10
-2.240219999999999
 20
-10.31996899999999
 10
-2.329318999999999
 20
-10.421331
  0
LWPOLYLINE
  5
CAD
330
1E
100
AcDbEntity
  8
LAYER_1
  6
Continuous
 62
     7
100
AcDbPolyline
 90
        4
 70
     0
 43
0.0
 10
-2.040413
 20
-10.698984
 10
-2.040015
 20
-10.698974
 10
-2.037228999999999
 20
-10.69890599999999
 10
-2.029665
 20
-10.69871999999999
  0
LWPOLYLINE
  5
CB3
330
1E
100
AcDbEntity
  8
LAYER_1
  6
Continuous
 62
     7
100
AcDbPolyline
 90
        4
 70
     0
 43
0.0
 10
-2.029665
 20
-10.69871999999999
 10
-2.01589
 20
-10.698126
 10
-1.998304
 20
-10.69582299999999
 10
-1.980264
 20
-10.69027599999999
  0
LWPOLYLINE
  5
CB9
330
1E
100
AcDbEntity
  8
LAYER_1
  6
Continuous
 62
     7
100
AcDbPolyline
 90
        4
 70
     0
 43
0.0
 10
-1.980264
 20
-10.69027599999999
 10
-1.964768999999999
 20
-10.680339
 10
-1.953427999999999
 20
-10.666421
 10
-1.947499999999999
 20
-10.649319
  0
LWPOLYLINE
  5
CBF
330
1E
100
AcDbEntity
  8
LAYER_1
  6
Continuous
 62
     7
100
AcDbPolyline
 90
        4
 70
     0
 43
0.0
 10
-1.947499999999999
 20
-10.649319
 10
-1.948016999999999
 20
-10.629892
 10
-1.955247999999999
 20
-10.609271
 10
-1.969247999999999
 20
-10.58864999999999
  0
LWPOLYLINE
  5
CC5
330
1E
100
AcDbEntity
  8
LAYER_1
  6
Continuous
 62
     7
100
AcDbPolyline
 90
        4
 70
     0
 43
0.0
 10
-1.969247999999999
 20
-10.58864999999999
 10
-1.989174999999999
 20
-10.56930099999999
 10
-2.010584
 20
-10.552794
 10
-2.028122
 20
-10.540776
  0
LWPOLYLINE
  5
CCB
330
1E
100
AcDbEntity
  8
LAYER_1
  6
Continuous
 62
     7
100
AcDbPolyline
 90
        4
 70
     0
 43
0.0
 10
-2.028122
 20
-10.540776
 10
-2.037858
 20
-10.53428699999999
 10
-2.041443999999999
 20
-10.531897
 10
-2.041957
 20
-10.531555
  0
LWPOLYLINE
  5
CD1
330
1E
100
AcDbEntity
  8
LAYER_1
  6
Continuous
 62
     7
100
AcDbPolyline
 90
        4
 70
     0
 43
0.0
 10
1.254941
 20
-10.494791
 10
1.254344
 20
-10.494759
 10
1.250167999999999
 20
-10.494531
 10
1.238831
 20
-10.493913
  0
LWPOLYLINE
  5
CD7
330
1E
100
AcDbEntity
  8
LAYER_1
  6
Continuous
 62
     7
100
AcDbPolyline
 90
        4
 70
     0
 43
0.0
 10
1.238831
 20
-10.493913
 10
1.217651
 20
-10.492756
 10
1.187516
 20
-10.491121
 10
1.150204999999999
 20
-10.48911
  0
LWPOLYLINE
  5
CDD
330
1E
100
AcDbEntity
  8
LAYER_1
  6
Continuous
 62
     7
100
AcDbPolyline
 90
        4
 70
     0
 43
0.0
 10
1.150204999999999
 20
-10.48911
 10
1.107512999999999
 20
-10.486838
 10
1.061236
 20
-10.48438699999999
 10
1.013193
 20
-10.481846
  0
LWPOLYLINE
  5
CE3
330
1E
100
AcDbEntity
  8
LAYER_1
  6
Continuous
 62
     7
100
AcDbPolyline
 90
        4
 70
     0
 43
0.0
 10
1.013193
 20
-10.481846
 10
0.9648979999999999
 20
-10.47928999999999
 10
0.916636
 20
-10.476733
 10
0.8683860000000001
 20
-10.474177
  0
LWPOLYLINE
  5
CE9
330
1E
100
AcDbEntity
  8
LAYER_1
  6
Continuous
 62
     7
100
AcDbPolyline
 90
        4
 70
     0
 43
0.0
 10
0.8683860000000001
 20
-10.474177
 10
0.8201440000000001
 20
-10.471619
 10
0.771922
 20
-10.46905799999999
 10
0.723732
 20
-10.4665
  0
LWPOLYLINE
  5
CEF
330
1E
100
AcDbEntity
  8
LAYER_1
  6
Continuous
 62
     7
100
AcDbPolyline
 90
        4
 70
     0
 43
0.0
 10
0.723732
 20
-10.4665
 10
0.6755790000000001
 20
-10.46393899999999
 10
0.627445
 20
-10.461361
 10
0.579291
 20
-10.45874799999999
  0
LWPOLYLINE
  5
CF5
330
1E
100
AcDbEntity
  8
LAYER_1
  6
Continuous
 62
     7
100
AcDbPolyline
 90
        4
 70
     0
 43
0.0
 10
0.579291
 20
-10.45874799999999
 10
0.5311040000000001
 20
-10.456092
 10
0.4829
 20
-10.45341999999999
 10
0.4347050000000001
 20
-10.45076399999999
  0
LWPOLYLINE
  5
CFB
330
1E
100
AcDbEntity
  8
LAYER_1
  6
Continuous
 62
     7
100
AcDbPolyline
 90
        4
 70
     0
 43
0.0
 10
0.4347050000000001
 20
-10.45076399999999
 10
0.386559
 20
-10.44814799999999
 10
0.338445
 20
-10.44556999999999
 10
0.290346
 20
-10.443012
  0
LWPOLYLINE
  5
D01
330
1E
100
AcDbEntity
  8
LAYER_1
  6
Continuous
 62
     7
100
AcDbPolyline
 90
        4
 70
     0
 43
0.0
 10
0.290346
 20
-10.443012
 10
0.242259
 20
-10.440447
 10
0.194165
 20
-10.437874
 10
0.146067
 20
-10.43526399999999
  0
LWPOLYLINE
  5
D07
330
1E
100
AcDbEntity
  8
LAYER_1
  6
Continuous
 62
     7
100
AcDbPolyline
 90
        4
 70
     0
 43
0.0
 10
0.146067
 20
-10.43526399999999
 10
0.097967
 20
-10.432602
 10
0.049852
 20
-10.42992299999999
 10
0.001705
 20
-10.427264
  0
LWPOLYLINE
  5
D0D
330
1E
100
AcDbEntity
  8
LAYER_1
  6
Continuous
 62
     7
100
AcDbPolyline
 90
        4
 70
     0
 43
0.0
 10
0.001705
 20
-10.427264
 10
-0.046479
 20
-10.424648
 10
-0.094699
 20
-10.42207
 10
-0.142941
 20
-10.41951199999999
  0
LWPOLYLINE
  5
D13
330
1E
100
AcDbEntity
  8
LAYER_1
  6
Continuous
 62
     7
100
AcDbPolyline
 90
        4
 70
     0
 43
0.0
 10
-0.142941
 20
-10.41951199999999
 10
-0.191186
 20
-10.41695399999999
 10
-0.239408
 20
-10.414377
 10
-0.287594
 20
-10.411764
  0
LWPOLYLINE
  5
D19
330
1E
100
AcDbEntity
  8
LAYER_1
  6
Continuous
 62
     7
100
AcDbPolyline
 90
        4
 70
     0
 43
0.0
 10
-0.287594
 20
-10.411764
 10
-0.33575
 20
-10.409105
 10
-0.383884
 20
-10.406432
 10
-0.432039
 20
-10.403776
  0
LWPOLYLINE
  5
D1F
330
1E
100
AcDbEntity
  8
LAYER_1
  6
Continuous
 62
     7
100
AcDbPolyline
 90
        4
 70
     0
 43
0.0
 10
-0.432039
 20
-10.403776
 10
-0.4802260000000001
 20
-10.40115899999999
 10
-0.528448
 20
-10.39856
 10
-0.5766930000000001
 20
-10.395941
  0
LWPOLYLINE
  5
D25
330
1E
100
AcDbEntity
  8
LAYER_1
  6
Continuous
 62
     7
100
AcDbPolyline
 90
        4
 70
     0
 43
0.0
 10
-0.5766930000000001
 20
-10.395941
 10
-0.624935
 20
-10.393282
 10
-0.6731600000000002
 20
-10.390603
 10
-0.721358
 20
-10.387941
  0
LWPOLYLINE
  5
D2B
330
1E
100
AcDbEntity
  8
LAYER_1
  6
Continuous
 62
     7
100
AcDbPolyline
 90
        4
 70
     0
 43
0.0
 10
-0.721358
 20
-10.387941
 10
-0.7694989999999999
 20
-10.385336
 10
-0.817633
 20
-10.382741
 10
-0.8657909999999999
 20
-10.380122
  0
LWPOLYLINE
  5
D31
330
1E
100
AcDbEntity
  8
LAYER_1
  6
Continuous
 62
     7
100
AcDbPolyline
 90
        4
 70
     0
 43
0.0
 10
-0.8657909999999999
 20
-10.380122
 10
-0.913978
 20
-10.377463
 10
-0.9621799999999998
 20
-10.374784
 10
-1.010358
 20
-10.372122
  0
LWPOLYLINE
  5
D37
330
1E
100
AcDbEntity
  8
LAYER_1
  6
Continuous
 62
     7
100
AcDbPolyline
 90
        4
 70
     0
 43
0.0
 10
-1.010358
 20
-10.372122
 10
-1.058514999999999
 20
-10.36951799999999
 10
-1.106634
 20
-10.366941
 10
-1.154731999999999
 20
-10.364374
  0
LWPOLYLINE
  5
D3D
330
1E
100
AcDbEntity
  8
LAYER_1
  6
Continuous
 62
     7
100
AcDbPolyline
 90
        4
 70
     0
 43
0.0
 10
-1.154731999999999
 20
-10.364374
 10
-1.202817999999999
 20
-10.361822
 10
-1.25089
 20
-10.359288
 10
-1.298929
 20
-10.356791
  0
LWPOLYLINE
  5
D43
330
1E
100
AcDbEntity
  8
LAYER_1
  6
Continuous
 62
     7
100
AcDbPolyline
 90
        4
 70
     0
 43
0.0
 10
-1.298929
 20
-10.356791
 10
-1.346932
 20
-10.354332
 10
-1.394898999999999
 20
-10.351914
 10
-1.442845999999999
 20
-10.34951199999999
  0
LWPOLYLINE
  5
D49
330
1E
100
AcDbEntity
  8
LAYER_1
  6
Continuous
 62
     7
100
AcDbPolyline
 90
        4
 70
     0
 43
0.0
 10
-1.442845999999999
 20
-10.34951199999999
 10
-1.490788
 20
-10.347125
 10
-1.538712999999999
 20
-10.344769
 10
-1.58661
 20
-10.34248399999999
  0
LWPOLYLINE
  5
D4F
330
1E
100
AcDbEntity
  8
LAYER_1
  6
Continuous
 62
     7
100
AcDbPolyline
 90
        4
 70
     0
 43
0.0
 10
-1.58661
 20
-10.34248399999999
 10
-1.634440999999999
 20
-10.340297
 10
-1.682193999999999
 20
-10.33819599999999
 10
-1.729831
 20
-10.33616499999999
  0
LWPOLYLINE
  5
D55
330
1E
100
AcDbEntity
  8
LAYER_1
  6
Continuous
 62
     7
100
AcDbPolyline
 90
        4
 70
     0
 43
0.0
 10
-1.729831
 20
-10.33616499999999
 10
-1.777334999999999
 20
-10.334201
 10
-1.82474
 20
-10.33230399999999
 10
-1.872093999999999
 20
-10.3305
  0
LWPOLYLINE
  5
D5B
330
1E
100
AcDbEntity
  8
LAYER_1
  6
Continuous
 62
     7
100
AcDbPolyline
 90
        4
 70
     0
 43
0.0
 10
-1.872093999999999
 20
-10.3305
 10
-1.919431
 20
-10.328789
 10
-1.966699
 20
-10.327189
 10
-2.013831
 20
-10.325693
  0
LWPOLYLINE
  5
D61
330
1E
100
AcDbEntity
  8
LAYER_1
  6
Continuous
 62
     7
100
AcDbPolyline
 90
        4
 70
     0
 43
0.0
 10
-2.013831
 20
-10.325693
 10
-2.060786
 20
-10.32432
 10
-2.107568999999999
 20
-10.323085
 10
-2.15422
 20
-10.322028
  0
LWPOLYLINE
  5
D67
330
1E
100
AcDbEntity
  8
LAYER_1
  6
Continuous
 62
     7
100
AcDbPolyline
 90
        4
 70
     0
 43
0.0
 10
-2.15422
 20
-10.322028
 10
-2.200762
 20
-10.321174
 10
-2.247150999999999
 20
-10.320536
 10
-2.293331
 20
-10.32011
  0
LWPOLYLINE
  5
D6D
330
1E
100
AcDbEntity
  8
LAYER_1
  6
Continuous
 62
     7
100
AcDbPolyline
 90
        4
 70
     0
 43
0.0
 10
-2.293331
 20
-10.32011
 10
-2.339281999999999
 20
-10.319898
 10
-2.384962999999999
 20
-10.319898
 10
-2.430358
 20
-10.32011
  0
LWPOLYLINE
  5
D73
330
1E
100
AcDbEntity
  8
LAYER_1
  6
Continuous
 62
     7
100
AcDbPolyline
 90
        4
 70
     0
 43
0.0
 10
-2.430358
 20
-10.32011
 10
-2.475442999999999
 20
-10.320544
 10
-2.520141999999999
 20
-10.321244
 10
-2.564374
 20
-10.322264
  0
LWPOLYLINE
  5
D79
330
1E
100
AcDbEntity
  8
LAYER_1
  6
Continuous
 62
     7
100
AcDbPolyline
 90
        4
 70
     0
 43
0.0
 10
-2.564374
 20
-10.322264
 10
-2.608054
 20
-10.323643
 10
-2.65107
 20
-10.325382
 10
-2.693302999999999
 20
-10.327457
  0
LWPOLYLINE
  5
D7F
330
1E
100
AcDbEntity
  8
LAYER_1
  6
Continuous
 62
     7
100
AcDbPolyline
 90
        4
 70
     0
 43
0.0
 10
-2.693302999999999
 20
-10.327457
 10
-2.734615
 20
-10.329863
 10
-2.774775999999999
 20
-10.332642
 10
-2.813539
 20
-10.33584599999999
  0
LWPOLYLINE
  5
D85
330
1E
100
AcDbEntity
  8
LAYER_1
  6
Continuous
 62
     7
100
AcDbPolyline
 90
        4
 70
     0
 43
0.0
 10
-2.813539
 20
-10.33584599999999
 10
-2.850664
 20
-10.339518
 10
-2.885981
 20
-10.343613
 10
-2.919318999999999
 20
-10.348083
  0
LWPOLYLINE
  5
D8B
330
1E
100
AcDbEntity
  8
LAYER_1
  6
Continuous
 62
     7
100
AcDbPolyline
 90
        4
 70
     0
 43
0.0
 10
-2.919318999999999
 20
-10.348083
 10
-2.95052
 20
-10.35286499999999
 10
-2.979509
 20
-10.35793999999999
 10
-3.006216999999999
 20
-10.36326399999999
  0
LWPOLYLINE
  5
D91
330
1E
100
AcDbEntity
  8
LAYER_1
  6
Continuous
 62
     7
100
AcDbPolyline
 90
        4
 70
     0
 43
0.0
 10
-3.006216999999999
 20
-10.36326399999999
 10
-3.030613999999999
 20
-10.368785
 10
-3.052814
 20
-10.374433
 10
-3.072964999999999
 20
-10.380122
  0
LWPOLYLINE
  5
D97
330
1E
100
AcDbEntity
  8
LAYER_1
  6
Continuous
 62
     7
100
AcDbPolyline
 90
        4
 70
     0
 43
0.0
 10
-3.072964999999999
 20
-10.380122
 10
-3.091218
 20
-10.385763
 10
-3.107724
 20
-10.39133499999999
 10
-3.122634
 20
-10.396819
  0
LWPOLYLINE
  5
D9D
330
1E
100
AcDbEntity
  8
LAYER_1
  6
Continuous
 62
     7
100
AcDbPolyline
 90
        4
 70
     0
 43
0.0
 10
-3.122634
 20
-10.396819
 10
-3.136091999999999
 20
-10.4022
 10
-3.148251999999999
 20
-10.407496
 10
-3.159263999999999
 20
-10.41271999999999
  0
LWPOLYLINE
  5
DA3
330
1E
100
AcDbEntity
  8
LAYER_1
  6
Continuous
 62
     7
100
AcDbPolyline
 90
        4
 70
     0
 43
0.0
 10
-3.159263999999999
 20
-10.41271999999999
 10
-3.169265999999999
 20
-10.41789
 10
-3.178351999999999
 20
-10.423027
 10
-3.186606
 20
-10.42815
  0
LWPOLYLINE
  5
DA9
330
1E
100
AcDbEntity
  8
LAYER_1
  6
Continuous
 62
     7
100
AcDbPolyline
 90
        4
 70
     0
 43
0.0
 10
-3.186606
 20
-10.42815
 10
-3.194115
 20
-10.43326
 10
-3.200954999999999
 20
-10.438349
 10
-3.207209
 20
-10.443402
  0
LWPOLYLINE
  5
DAF
330
1E
100
AcDbEntity
  8
LAYER_1
  6
Continuous
 62
     7
100
AcDbPolyline
 90
        4
 70
     0
 43
0.0
 10
-3.207209
 20
-10.443402
 10
-3.21295
 20
-10.448423
 10
-3.218174
 20
-10.453443
 10
-3.222865999999999
 20
-10.45851199999999
  0
LWPOLYLINE
  5
DB5
330
1E
100
AcDbEntity
  8
LAYER_1
  6
Continuous
 62
     7
100
AcDbPolyline
 90
        4
 70
     0
 43
0.0
 10
-3.222865999999999
 20
-10.45851199999999
 10
-3.227006999999999
 20
-10.463675
 10
-3.230565
 20
-10.46892799999999
 10
-3.233503999999999
 20
-10.47424799999999
  0
LWPOLYLINE
  5
DBB
330
1E
100
AcDbEntity
  8
LAYER_1
  6
Continuous
 62
     7
100
AcDbPolyline
 90
        4
 70
     0
 43
0.0
 10
-3.233503999999999
 20
-10.47424799999999
 10
-3.235806999999999
 20
-10.47963299999999
 10
-3.237495
 20
-10.48506799999999
 10
-3.238598
 20
-10.490555
  0
LWPOLYLINE
  5
DC1
330
1E
100
AcDbEntity
  8
LAYER_1
  6
Continuous
 62
     7
100
AcDbPolyline
 90
        4
 70
     0
 43
0.0
 10
-3.238598
 20
-10.490555
 10
-3.239149999999999
 20
-10.49609199999999
 10
-3.239149999999999
 20
-10.50166399999999
 10
-3.238598
 20
-10.507248
  0
LWPOLYLINE
  5
DC7
330
1E
100
AcDbEntity
  8
LAYER_1
  6
Continuous
 62
     7
100
AcDbPolyline
 90
        4
 70
     0
 43
0.0
 10
-3.238598
 20
-10.507248
 10
-3.237495
 20
-10.512836
 10
-3.235806999999999
 20
-10.518368
 10
-3.233503999999999
 20
-10.523791
  0
LWPOLYLINE
  5
DCD
330
1E
100
AcDbEntity
  8
LAYER_1
  6
Continuous
 62
     7
100
AcDbPolyline
 90
        4
 70
     0
 43
0.0
 10
-3.233503999999999
 20
-10.523791
 10
-3.230567999999999
 20
-10.529077
 10
-3.227028999999999
 20
-10.53425399999999
 10
-3.222941
 20
-10.539374
  0
LWPOLYLINE
  5
DD3
330
1E
100
AcDbEntity
  8
LAYER_1
  6
Continuous
 62
     7
100
AcDbPolyline
 90
        4
 70
     0
 43
0.0
 10
-3.222941
 20
-10.539374
 10
-3.218341999999999
 20
-10.544489
 10
-3.213208999999999
 20
-10.549578
 10
-3.207508
 20
-10.554638
  0
LWPOLYLINE
  5
DD9
330
1E
100
AcDbEntity
  8
LAYER_1
  6
Continuous
 62
     7
100
AcDbPolyline
 90
        4
 70
     0
 43
0.0
 10
-3.207508
 20
-10.554638
 10
-3.201209999999999
 20
-10.55964799999999
 10
-3.19428
 20
-10.564645
 10
-3.186684999999999
 20
-10.56966499999999
  0
LWPOLYLINE
  5
DDF
330
1E
100
AcDbEntity
  8
LAYER_1
  6
Continuous
 62
     7
100
AcDbPolyline
 90
        4
 70
     0
 43
0.0
 10
-3.186684999999999
 20
-10.56966499999999
 10
-3.178374999999999
 20
-10.57472399999999
 10
-3.169268999999999
 20
-10.579856
 10
-3.159263999999999
 20
-10.585083
  0
LWPOLYLINE
  5
DE5
330
1E
100
AcDbEntity
  8
LAYER_1
  6
Continuous
 62
     7
100
AcDbPolyline
 90
        4
 70
     0
 43
0.0
 10
-3.159263999999999
 20
-10.585083
 10
-3.148254999999999
 20
-10.590408
 10
-3.136114
 20
-10.595821
 10
-3.122708999999999
 20
-10.60130299999999
  0
LWPOLYLINE
  5
DEB
330
1E
100
AcDbEntity
  8
LAYER_1
  6
Continuous
 62
     7
100
AcDbPolyline
 90
        4
 70
     0
 43
0.0
 10
-3.122708999999999
 20
-10.60130299999999
 10
-3.107895
 20
-10.606842
 10
-3.091499
 20
-10.61241399999999
 10
-3.073338999999999
 20
-10.618
  0
LWPOLYLINE
  5
DF1
330
1E
100
AcDbEntity
  8
LAYER_1
  6
Continuous
 62
     7
100
AcDbPolyline
 90
        4
 70
     0
 43
0.0
 10
-3.073338999999999
 20
-10.618
 10
-3.05324
 20
-10.62358699999999
 10
-3.031059999999999
 20
-10.629123
 10
-3.006665
 20
-10.634555
  0
LWPOLYLINE
  5
DF7
330
1E
100
AcDbEntity
  8
LAYER_1
  6
Continuous
 62
     7
100
AcDbPolyline
 90
        4
 70
     0
 43
0.0
 10
-3.006665
 20
-10.634555
 10
-2.979957
 20
-10.639814
 10
-2.950969999999999
 20
-10.644863
 10
-2.919767999999999
 20
-10.64964999999999
  0
LWPOLYLINE
  5
DFD
330
1E
100
AcDbEntity
  8
LAYER_1
  6
Continuous
 62
     7
100
AcDbPolyline
 90
        4
 70
     0
 43
0.0
 10
-2.919767999999999
 20
-10.64964999999999
 10
-2.886432
 20
-10.654122
 10
-2.851116
 20
-10.658235
 10
-2.813983999999999
 20
-10.661957
  0
LWPOLYLINE
  5
E03
330
1E
100
AcDbEntity
  8
LAYER_1
  6
Continuous
 62
     7
100
AcDbPolyline
 90
        4
 70
     0
 43
0.0
 10
-2.813983999999999
 20
-10.661957
 10
-2.775225999999999
 20
-10.66526
 10
-2.735063
 20
-10.668157
 10
-2.693747999999999
 20
-10.67066499999999
  0
LWPOLYLINE
  5
E09
330
1E
100
AcDbEntity
  8
LAYER_1
  6
Continuous
 62
     7
100
AcDbPolyline
 90
        4
 70
     0
 43
0.0
 10
-2.693747999999999
 20
-10.67066499999999
 10
-2.651523
 20
-10.672799
 10
-2.608509999999999
 20
-10.674558
 10
-2.564831
 20
-10.67594099999999
  0
LWPOLYLINE
  5
E0F
330
1E
100
AcDbEntity
  8
LAYER_1
  6
Continuous
 62
     7
100
AcDbPolyline
 90
        4
 70
     0
 43
0.0
 10
-2.564831
 20
-10.67594099999999
 10
-2.520595999999999
 20
-10.67696
 10
-2.475890999999999
 20
-10.67766
 10
-2.430803
 20
-10.678094
  0
LWPOLYLINE
  5
E15
330
1E
100
AcDbEntity
  8
LAYER_1
  6
Continuous
 62
     7
100
AcDbPolyline
 90
        4
 70
     0
 43
0.0
 10
-2.430803
 20
-10.678094
 10
-2.385410999999999
 20
-10.678305
 10
-2.339751999999999
 20
-10.67828699999999
 10
-2.293858
 20
-10.67802799999999
  0
LWPOLYLINE
  5
E1B
330
1E
100
AcDbEntity
  8
LAYER_1
  6
Continuous
 62
     7
100
AcDbPolyline
 90
        4
 70
     0
 43
0.0
 10
-2.293858
 20
-10.67802799999999
 10
-2.247761
 20
-10.677498
 10
-2.201465
 20
-10.67675799999999
 10
-2.154968999999999
 20
-10.675858
  0
LWPOLYLINE
  5
E21
330
1E
100
AcDbEntity
  8
LAYER_1
  6
Continuous
 62
     7
100
AcDbPolyline
 90
        4
 70
     0
 43
0.0
 10
-2.154968999999999
 20
-10.675858
 10
-2.108279999999999
 20
-10.674843
 10
-2.061424
 20
-10.67370399999999
 10
-2.014429
 20
-10.67242899999999
  0
LWPOLYLINE
  5
E27
330
1E
100
AcDbEntity
  8
LAYER_1
  6
Continuous
 62
     7
100
AcDbPolyline
 90
        4
 70
     0
 43
0.0
 10
-2.014429
 20
-10.67242899999999
 10
-1.967335999999999
 20
-10.670991
 10
-1.920141999999999
 20
-10.66941099999999
 10
-1.872846
 20
-10.667705
  0
LWPOLYLINE
  5
E2D
330
1E
100
AcDbEntity
  8
LAYER_1
  6
Continuous
 62
     7
100
AcDbPolyline
 90
        4
 70
     0
 43
0.0
 10
-1.872846
 20
-10.667705
 10
-1.825452999999999
 20
-10.665903
 10
-1.777981
 20
-10.664009
 10
-1.730440999999999
 20
-10.662039
  0
LWPOLYLINE
  5
E33
330
1E
100
AcDbEntity
  8
LAYER_1
  6
Continuous
 62
     7
100
AcDbPolyline
 90
        4
 70
     0
 43
0.0
 10
-1.730440999999999
 20
-10.662039
 10
-1.682835999999999
 20
-10.660009
 10
-1.635172999999999
 20
-10.657908
 10
-1.587429
 20
-10.65572
  0
LWPOLYLINE
  5
E39
330
1E
100
AcDbEntity
  8
LAYER_1
  6
Continuous
 62
     7
100
AcDbPolyline
 90
        4
 70
     0
 43
0.0
 10
-1.587429
 20
-10.65572
 10
-1.539588999999999
 20
-10.653438
 10
-1.491662999999999
 20
-10.651085
 10
-1.443665
 20
-10.648693
  0
LWPOLYLINE
  5
E3F
330
1E
100
AcDbEntity
  8
LAYER_1
  6
Continuous
 62
     7
100
AcDbPolyline
 90
        4
 70
     0
 43
0.0
 10
-1.443665
 20
-10.648693
 10
-1.395629
 20
-10.646291
 10
-1.347576
 20
-10.64387299999999
 10
-1.299539
 20
-10.64141299999999
  0
LWPOLYLINE
  5
E45
330
1E
100
AcDbEntity
  8
LAYER_1
  6
Continuous
 62
     7
100
AcDbPolyline
 90
        4
 70
     0
 43
0.0
 10
-1.299539
 20
-10.64141299999999
 10
-1.251530999999999
 20
-10.638916
 10
-1.203529
 20
-10.636383
 10
-1.155483999999999
 20
-10.633831
  0
LWPOLYLINE
  5
E4B
330
1E
100
AcDbEntity
  8
LAYER_1
  6
Continuous
 62
     7
100
AcDbPolyline
 90
        4
 70
     0
 43
0.0
 10
-1.155483999999999
 20
-10.633831
 10
-1.107344
 20
-10.631273
 10
-1.059155999999999
 20
-10.628696
 10
-1.010969
 20
-10.62608299999999
  0
LWPOLYLINE
  5
E51
330
1E
100
AcDbEntity
  8
LAYER_1
  6
Continuous
 62
     7
100
AcDbPolyline
 90
        4
 70
     0
 43
0.0
 10
-1.010969
 20
-10.62608299999999
 10
-0.9628149999999999
 20
-10.623421
 10
-0.914685
 20
-10.620742
 10
-0.8665389999999998
 20
-10.618083
  0
LWPOLYLINE
  5
E57
330
1E
100
AcDbEntity
  8
LAYER_1
  6
Continuous
 62
     7
100
AcDbPolyline
 90
        4
 70
     0
 43
0.0
 10
-0.8665389999999998
 20
-10.618083
 10
-0.818341
 20
-10.615468
 10
-0.7701170000000001
 20
-10.61287599999999
 10
-0.7218740000000001
 20
-10.610264
  0
LWPOLYLINE
  5
E5D
330
1E
100
AcDbEntity
  8
LAYER_1
  6
Continuous
 62
     7
100
AcDbPolyline
 90
        4
 70
     0
 43
0.0
 10
-0.7218740000000001
 20
-10.610264
 10
-0.6736360000000001
 20
-10.607602
 10
-0.6254109999999999
 20
-10.60492299999999
 10
-0.57722
 20
-10.602264
  0
LWPOLYLINE
  5
E63
330
1E
100
AcDbEntity
  8
LAYER_1
  6
Continuous
 62
     7
100
AcDbPolyline
 90
        4
 70
     0
 43
0.0
 10
-0.57722
 20
-10.602264
 10
-0.5290650000000001
 20
-10.59964499999999
 10
-0.480936
 20
-10.597046
 10
-0.4327910000000001
 20
-10.594429
  0
LWPOLYLINE
  5
E69
330
1E
100
AcDbEntity
  8
LAYER_1
  6
Continuous
 62
     7
100
AcDbPolyline
 90
        4
 70
     0
 43
0.0
 10
-0.4327910000000001
 20
-10.594429
 10
-0.384599
 20
-10.59177299999999
 10
-0.33637
 20
-10.5891
 10
-0.288122
 20
-10.586441
  0
LWPOLYLINE
  5
E6F
330
1E
100
AcDbEntity
  8
LAYER_1
  6
Continuous
 62
     7
100
AcDbPolyline
 90
        4
 70
     0
 43
0.0
 10
-0.288122
 20
-10.586441
 10
-0.239878
 20
-10.583828
 10
-0.191638
 20
-10.581251
 10
-0.143402
 20
-10.57869299999999
  0
LWPOLYLINE
  5
E75
330
1E
100
AcDbEntity
  8
LAYER_1
  6
Continuous
 62
     7
100
AcDbPolyline
 90
        4
 70
     0
 43
0.0
 10
-0.143402
 20
-10.57869299999999
 10
-0.095154
 20
-10.576135
 10
-0.046926
 20
-10.573557
 10
0.001264
 20
-10.570941
  0
LWPOLYLINE
  5
E7B
330
1E
100
AcDbEntity
  8
LAYER_1
  6
Continuous
 62
     7
100
AcDbPolyline
 90
        4
 70
     0
 43
0.0
 10
0.001264
 20
-10.570941
 10
0.049409
 20
-10.56828199999999
 10
0.097524
 20
-10.56560299999999
 10
0.145622
 20
-10.562941
  0
LWPOLYLINE
  5
E81
330
1E
100
AcDbEntity
  8
LAYER_1
  6
Continuous
 62
     7
100
AcDbPolyline
 90
        4
 70
     0
 43
0.0
 10
0.145622
 20
-10.562941
 10
0.193723
 20
-10.560338
 10
0.241839
 20
-10.557762
 10
0.289984
 20
-10.555193
  0
LWPOLYLINE
  5
E87
330
1E
100
AcDbEntity
  8
LAYER_1
  6
Continuous
 62
     7
100
AcDbPolyline
 90
        4
 70
     0
 43
0.0
 10
0.289984
 20
-10.555193
 10
0.338171
 20
-10.552635
 10
0.386393
 20
-10.550057
 10
0.434638
 20
-10.547441
  0
LWPOLYLINE
  5
E8D
330
1E
100
AcDbEntity
  8
LAYER_1
  6
Continuous
 62
     7
100
AcDbPolyline
 90
        4
 70
     0
 43
0.0
 10
0.434638
 20
-10.547441
 10
0.4828800000000001
 20
-10.544792
 10
0.5311020000000001
 20
-10.542116
 10
0.579291
 20
-10.539457
  0
LWPOLYLINE
  5
E93
330
1E
100
AcDbEntity
  8
LAYER_1
  6
Continuous
 62
     7
100
AcDbPolyline
 90
        4
 70
     0
 43
0.0
 10
0.579291
 20
-10.539457
 10
0.627445
 20
-10.536843
 10
0.6755790000000001
 20
-10.534266
 10
0.723732
 20
-10.531705
  0
LWPOLYLINE
  5
E99
330
1E
100
AcDbEntity
  8
LAYER_1
  6
Continuous
 62
     7
100
AcDbPolyline
 90
        4
 70
     0
 43
0.0
 10
0.723732
 20
-10.531705
 10
0.771922
 20
-10.529147
 10
0.8201440000000001
 20
-10.52658599999999
 10
0.8683860000000001
 20
-10.524028
  0
LWPOLYLINE
  5
E9F
330
1E
100
AcDbEntity
  8
LAYER_1
  6
Continuous
 62
     7
100
AcDbPolyline
 90
        4
 70
     0
 43
0.0
 10
0.8683860000000001
 20
-10.524028
 10
0.916636
 20
-10.52146999999999
 10
0.9648979999999999
 20
-10.518914
 10
1.013193
 20
-10.516358
  0
LWPOLYLINE
  5
EA5
330
1E
100
AcDbEntity
  8
LAYER_1
  6
Continuous
 62
     7
100
AcDbPolyline
 90
        4
 70
     0
 43
0.0
 10
1.013193
 20
-10.516358
 10
1.061236
 20
-10.51381799999999
 10
1.107512999999999
 20
-10.511367
 10
1.150204999999999
 20
-10.509094
  0
LWPOLYLINE
  5
EAB
330
1E
100
AcDbEntity
  8
LAYER_1
  6
Continuous
 62
     7
100
AcDbPolyline
 90
        4
 70
     0
 43
0.0
 10
1.150204999999999
 20
-10.509094
 10
1.187516
 20
-10.50708399999999
 10
1.217651
 20
-10.505449
 10
1.238831
 20
-10.504291
  0
LWPOLYLINE
  5
EB1
330
1E
100
AcDbEntity
  8
LAYER_1
  6
Continuous
 62
     7
100
AcDbPolyline
 90
        4
 70
     0
 43
0.0
 10
1.238831
 20
-10.504291
 10
1.250167999999999
 20
-10.503674
 10
1.254344
 20
-10.503446
 10
1.254941
 20
-10.503413
  0
LWPOLYLINE
  5
EB7
330
1E
100
AcDbEntity
  8
LAYER_1
  6
Continuous
 62
     7
100
AcDbPolyline
 90
        4
 70
     0
 43
0.0
 10
0.3830119999999999
 20
-5.961673
 10
0.382614
 20
-5.961655999999999
 10
0.379831
 20
-5.961532
 10
0.372276
 20
-5.961197
  0
LWPOLYLINE
  5
EBD
330
1E
100
AcDbEntity
  8
LAYER_1
  6
Continuous
 62
     7
100
AcDbPolyline
 90
        4
 70
     0
 43
0.0
 10
0.372276
 20
-5.961197
 10
0.35815
 20
-5.960570999999999
 10
0.338061
 20
-5.959686
 10
0.313193
 20
-5.958598
  0
LWPOLYLINE
  5
EC3
330
1E
100
AcDbEntity
  8
LAYER_1
  6
Continuous
 62
     7
100
AcDbPolyline
 90
        4
 70
     0
 43
0.0
 10
0.313193
 20
-5.958598
 10
0.284724
 20
-5.957367999999999
 10
0.253872
 20
-5.956037999999999
 10
0.221846
 20
-5.954657
  0
LWPOLYLINE
  5
EC9
330
1E
100
AcDbEntity
  8
LAYER_1
  6
Continuous
 62
     7
100
AcDbPolyline
 90
        4
 70
     0
 43
0.0
 10
0.221846
 20
-5.954657
 10
0.18965
 20
-5.953273999999999
 10
0.157471
 20
-5.95189
 10
0.125303
 20
-5.950504
  0
LWPOLYLINE
  5
ECF
330
1E
100
AcDbEntity
  8
LAYER_1
  6
Continuous
 62
     7
100
AcDbPolyline
 90
        4
 70
     0
 43
0.0
 10
0.125303
 20
-5.950504
 10
0.093143
 20
-5.949119
 10
0.060998
 20
-5.947734999999999
 10
0.028874
 20
-5.946349999999999
  0
LWPOLYLINE
  5
ED5
330
1E
100
AcDbEntity
  8
LAYER_1
  6
Continuous
 62
     7
100
AcDbPolyline
 90
        4
 70
     0
 43
0.0
 10
0.028874
 20
-5.946349999999999
 10
-0.00323
 20
-5.944962999999999
 10
-0.035317
 20
-5.943566999999999
 10
-0.067413
 20
-5.942154
  0
LWPOLYLINE
  5
EDB
330
1E
100
AcDbEntity
  8
LAYER_1
  6
Continuous
 62
     7
100
AcDbPolyline
 90
        4
 70
     0
 43
0.0
 10
-0.067413
 20
-5.942154
 10
-0.099541
 20
-5.940711
 10
-0.131683
 20
-5.939262
 10
-0.163819
 20
-5.937823
  0
LWPOLYLINE
  5
EE1
330
1E
100
AcDbEntity
  8
LAYER_1
  6
Continuous
 62
     7
100
AcDbPolyline
 90
        4
 70
     0
 43
0.0
 10
-0.163819
 20
-5.937823
 10
-0.195913
 20
-5.936408
 10
-0.227987
 20
-5.935012
 10
-0.260055
 20
-5.933626
  0
LWPOLYLINE
  5
EE7
330
1E
100
AcDbEntity
  8
LAYER_1
  6
Continuous
 62
     7
100
AcDbPolyline
 90
        4
 70
     0
 43
0.0
 10
-0.260055
 20
-5.933626
 10
-0.292113
 20
-5.932239
 10
-0.324174
 20
-5.930843
 10
-0.356232
 20
-5.929425
  0
LWPOLYLINE
  5
EED
330
1E
100
AcDbEntity
  8
LAYER_1
  6
Continuous
 62
     7
100
AcDbPolyline
 90
        4
 70
     0
 43
0.0
 10
-0.356232
 20
-5.929425
 10
-0.388301
 20
-5.927986999999999
 10
-0.420379
 20
-5.926537
 10
-0.4524840000000001
 20
-5.925094
  0
LWPOLYLINE
  5
EF3
330
1E
100
AcDbEntity
  8
LAYER_1
  6
Continuous
 62
     7
100
AcDbPolyline
 90
        4
 70
     0
 43
0.0
 10
-0.4524840000000001
 20
-5.925094
 10
-0.484611
 20
-5.923682
 10
-0.5167600000000001
 20
-5.922287999999999
 10
-0.548913
 20
-5.920901999999999
  0
LWPOLYLINE
  5
EF9
330
1E
100
AcDbEntity
  8
LAYER_1
  6
Continuous
 62
     7
100
AcDbPolyline
 90
        4
 70
     0
 43
0.0
 10
-0.548913
 20
-5.920901999999999
 10
-0.581079
 20
-5.919512
 10
-0.613232
 20
-5.918116
 10
-0.645358
 20
-5.916700999999999
  0
LWPOLYLINE
  5
EFF
330
1E
100
AcDbEntity
  8
LAYER_1
  6
Continuous
 62
     7
100
AcDbPolyline
 90
        4
 70
     0
 43
0.0
 10
-0.645358
 20
-5.916700999999999
 10
-0.6774580000000001
 20
-5.915262
 10
-0.7095500000000001
 20
-5.913812
 10
-0.74165
 20
-5.912373999999999
  0
LWPOLYLINE
  5
F05
330
1E
100
AcDbEntity
  8
LAYER_1
  6
Continuous
 62
     7
100
AcDbPolyline
 90
        4
 70
     0
 43
0.0
 10
-0.74165
 20
-5.912373999999999
 10
-0.7737790000000001
 20
-5.910955999999999
 10
-0.8059279999999999
 20
-5.909548
 10
-0.8380829999999999
 20
-5.908129999999999
  0
LWPOLYLINE
  5
F0B
330
1E
100
AcDbEntity
  8
LAYER_1
  6
Continuous
 62
     7
100
AcDbPolyline
 90
        4
 70
     0
 43
0.0
 10
-0.8380829999999999
 20
-5.908129999999999
 10
-0.870246
 20
-5.906691999999999
 10
-0.9023979999999999
 20
-5.905241999999999
 10
-0.934528
 20
-5.903798999999999
  0
LWPOLYLINE
  5
F11
330
1E
100
AcDbEntity
  8
LAYER_1
  6
Continuous
 62
     7
100
AcDbPolyline
 90
        4
 70
     0
 43
0.0
 10
-0.934528
 20
-5.903798999999999
 10
-0.966627
 20
-5.902384999999999
 10
-0.9987169999999998
 20
-5.90098
 10
-1.030819
 20
-5.899562999999999
  0
LWPOLYLINE
  5
F17
330
1E
100
AcDbEntity
  8
LAYER_1
  6
Continuous
 62
     7
100
AcDbPolyline
 90
        4
 70
     0
 43
0.0
 10
-1.030819
 20
-5.899562999999999
 10
-1.062940999999999
 20
-5.898120999999999
 10
-1.095075
 20
-5.896671999999999
 10
-1.127205
 20
-5.895232
  0
LWPOLYLINE
  5
F1D
330
1E
100
AcDbEntity
  8
LAYER_1
  6
Continuous
 62
     7
100
AcDbPolyline
 90
        4
 70
     0
 43
0.0
 10
-1.127205
 20
-5.895232
 10
-1.159304
 20
-5.893818
 10
-1.191381
 20
-5.892420999999999
 10
-1.223441
 20
-5.891034999999999
  0
LWPOLYLINE
  5
F23
330
1E
100
AcDbEntity
  8
LAYER_1
  6
Continuous
 62
     7
100
AcDbPolyline
 90
        4
 70
     0
 43
0.0
 10
-1.223441
 20
-5.891034999999999
 10
-1.255498999999999
 20
-5.889653
 10
-1.287551
 20
-5.888276999999999
 10
-1.319582999999999
 20
-5.886921
  0
LWPOLYLINE
  5
F29
330
1E
100
AcDbEntity
  8
LAYER_1
  6
Continuous
 62
     7
100
AcDbPolyline
 90
        4
 70
     0
 43
0.0
 10
-1.319582999999999
 20
-5.886921
 10
-1.35158
 20
-5.885593
 10
-1.383556999999999
 20
-5.884282999999999
 10
-1.415528
 20
-5.882983999999999
  0
LWPOLYLINE
  5
F2F
330
1E
100
AcDbEntity
  8
LAYER_1
  6
Continuous
 62
     7
100
AcDbPolyline
 90
        4
 70
     0
 43
0.0
 10
-1.415528
 20
-5.882983999999999
 10
-1.447486
 20
-5.881687999999999
 10
-1.479435999999999
 20
-5.880412999999999
 10
-1.511357999999999
 20
-5.879176999999999
  0
LWPOLYLINE
  5
F35
330
1E
100
AcDbEntity
  8
LAYER_1
  6
Continuous
 62
     7
100
AcDbPolyline
 90
        4
 70
     0
 43
0.0
 10
-1.511357999999999
 20
-5.879176999999999
 10
-1.543254
 20
-5.877991999999999
 10
-1.575093999999999
 20
-5.876854999999999
 10
-1.606857999999999
 20
-5.875755999999999
  0
LWPOLYLINE
  5
F3B
330
1E
100
AcDbEntity
  8
LAYER_1
  6
Continuous
 62
     7
100
AcDbPolyline
 90
        4
 70
     0
 43
0.0
 10
-1.606857999999999
 20
-5.875755999999999
 10
-1.638525999999999
 20
-5.87469
 10
-1.670127999999999
 20
-5.873662999999999
 10
-1.701693
 20
-5.872681
  0
LWPOLYLINE
  5
F41
330
1E
100
AcDbEntity
  8
LAYER_1
  6
Continuous
 62
     7
100
AcDbPolyline
 90
        4
 70
     0
 43
0.0
 10
-1.701693
 20
-5.872681
 10
-1.733252
 20
-5.871758999999999
 10
-1.764759999999999
 20
-5.870892999999999
 10
-1.796177
 20
-5.870086999999999
  0
LWPOLYLINE
  5
F47
330
1E
100
AcDbEntity
  8
LAYER_1
  6
Continuous
 62
     7
100
AcDbPolyline
 90
        4
 70
     0
 43
0.0
 10
-1.796177
 20
-5.870086999999999
 10
-1.827487999999999
 20
-5.869337999999999
 10
-1.858679999999999
 20
-5.868668
 10
-1.889775999999999
 20
-5.868098
  0
LWPOLYLINE
  5
F4D
330
1E
100
AcDbEntity
  8
LAYER_1
  6
Continuous
 62
     7
100
AcDbPolyline
 90
        4
 70
     0
 43
0.0
 10
-1.889775999999999
 20
-5.868098
 10
-1.920804
 20
-5.867633999999999
 10
-1.951729999999999
 20
-5.867286
 10
-1.982527999999999
 20
-5.867055
  0
LWPOLYLINE
  5
F53
330
1E
100
AcDbEntity
  8
LAYER_1
  6
Continuous
 62
     7
100
AcDbPolyline
 90
        4
 70
     0
 43
0.0
 10
-1.982527999999999
 20
-5.867055
 10
-2.013151999999999
 20
-5.86694
 10
-2.043606
 20
-5.86694
 10
-2.073873999999999
 20
-5.867055
  0
LWPOLYLINE
  5
F59
330
1E
100
AcDbEntity
  8
LAYER_1
  6
Continuous
 62
     7
100
AcDbPolyline
 90
        4
 70
     0
 43
0.0
 10
-2.073873999999999
 20
-5.867055
 10
-2.103928999999999
 20
-5.867291
 10
-2.133729
 20
-5.867671999999999
 10
-2.163219999999999
 20
-5.868228
  0
LWPOLYLINE
  5
F5F
330
1E
100
AcDbEntity
  8
LAYER_1
  6
Continuous
 62
     7
100
AcDbPolyline
 90
        4
 70
     0
 43
0.0
 10
-2.163219999999999
 20
-5.868228
 10
-2.192336
 20
-5.868973999999999
 10
-2.221013
 20
-5.869913999999999
 10
-2.249165
 20
-5.871035
  0
LWPOLYLINE
  5
F65
330
1E
100
AcDbEntity
  8
LAYER_1
  6
Continuous
 62
     7
100
AcDbPolyline
 90
        4
 70
     0
 43
0.0
 10
-2.249165
 20
-5.871035
 10
-2.276702999999999
 20
-5.872341999999999
 10
-2.303476999999999
 20
-5.873848
 10
-2.329318999999999
 20
-5.875582999999999
  0
LWPOLYLINE
  5
F6B
330
1E
100
AcDbEntity
  8
LAYER_1
  6
Continuous
 62
     7
100
AcDbPolyline
 90
        4
 70
     0
 43
0.0
 10
-2.329318999999999
 20
-5.875582999999999
 10
-2.354077999999999
 20
-5.877569999999999
 10
-2.377622999999999
 20
-5.879787
 10
-2.399845999999999
 20
-5.882204999999999
  0
LWPOLYLINE
  5
F71
330
1E
100
AcDbEntity
  8
LAYER_1
  6
Continuous
 62
     7
100
AcDbPolyline
 90
        4
 70
     0
 43
0.0
 10
-2.399845999999999
 20
-5.882204999999999
 10
-2.420649
 20
-5.8848
 10
-2.439973
 20
-5.887548
 10
-2.457775999999999
 20
-5.890429
  0
LWPOLYLINE
  5
F77
330
1E
100
AcDbEntity
  8
LAYER_1
  6
Continuous
 62
     7
100
AcDbPolyline
 90
        4
 70
     0
 43
0.0
 10
-2.457775999999999
 20
-5.890429
 10
-2.474038
 20
-5.893423
 10
-2.488836999999999
 20
-5.896482999999999
 10
-2.502275999999999
 20
-5.899562999999999
  0
LWPOLYLINE
  5
F7D
330
1E
100
AcDbEntity
  8
LAYER_1
  6
Continuous
 62
     7
100
AcDbPolyline
 90
        4
 70
     0
 43
0.0
 10
-2.502275999999999
 20
-5.899562999999999
 10
-2.514441
 20
-5.902618
 10
-2.525443999999999
 20
-5.905635
 10
-2.535385999999999
 20
-5.908605999999999
  0
LWPOLYLINE
  5
F83
330
1E
100
AcDbEntity
  8
LAYER_1
  6
Continuous
 62
     7
100
AcDbPolyline
 90
        4
 70
     0
 43
0.0
 10
-2.535385999999999
 20
-5.908605999999999
 10
-2.544362
 20
-5.911521999999999
 10
-2.552467
 20
-5.914393
 10
-2.559803
 20
-5.917224
  0
LWPOLYLINE
  5
F89
330
1E
100
AcDbEntity
  8
LAYER_1
  6
Continuous
 62
     7
100
AcDbPolyline
 90
        4
 70
     0
 43
0.0
 10
-2.559803
 20
-5.917224
 10
-2.566475999999999
 20
-5.920023999999999
 10
-2.572534999999999
 20
-5.922804
 10
-2.578038999999999
 20
-5.925575
  0
LWPOLYLINE
  5
F8F
330
1E
100
AcDbEntity
  8
LAYER_1
  6
Continuous
 62
     7
100
AcDbPolyline
 90
        4
 70
     0
 43
0.0
 10
-2.578038999999999
 20
-5.925575
 10
-2.583038999999999
 20
-5.928342999999999
 10
-2.5876
 20
-5.931100999999999
 10
-2.591775999999999
 20
-5.933843
  0
LWPOLYLINE
  5
F95
330
1E
100
AcDbEntity
  8
LAYER_1
  6
Continuous
 62
     7
100
AcDbPolyline
 90
        4
 70
     0
 43
0.0
 10
-2.591775999999999
 20
-5.933843
 10
-2.595597999999999
 20
-5.93656
 10
-2.599079999999999
 20
-5.939276999999999
 10
-2.602205
 20
-5.942023999999999
  0
LWPOLYLINE
  5
F9B
330
1E
100
AcDbEntity
  8
LAYER_1
  6
Continuous
 62
     7
100
AcDbPolyline
 90
        4
 70
     0
 43
0.0
 10
-2.602205
 20
-5.942023999999999
 10
-2.604964999999999
 20
-5.944819999999999
 10
-2.60734
 20
-5.947664999999999
 10
-2.609302999999999
 20
-5.950547
  0
LWPOLYLINE
  5
FA1
330
1E
100
AcDbEntity
  8
LAYER_1
  6
Continuous
 62
     7
100
AcDbPolyline
 90
        4
 70
     0
 43
0.0
 10
-2.609302999999999
 20
-5.950547
 10
-2.61084
 20
-5.953462
 10
-2.611962
 20
-5.956405
 10
-2.612693
 20
-5.959378
  0
LWPOLYLINE
  5
FA7
330
1E
100
AcDbEntity
  8
LAYER_1
  6
Continuous
 62
     7
100
AcDbPolyline
 90
        4
 70
     0
 43
0.0
 10
-2.612693
 20
-5.959378
 10
-2.613062999999999
 20
-5.962374999999999
 10
-2.613062999999999
 20
-5.965391
 10
-2.612693
 20
-5.968416999999999
  0
LWPOLYLINE
  5
FAD
330
1E
100
AcDbEntity
  8
LAYER_1
  6
Continuous
 62
     7
100
AcDbPolyline
 90
        4
 70
     0
 43
0.0
 10
-2.612693
 20
-5.968416999999999
 10
-2.611962
 20
-5.971442999999999
 10
-2.61084
 20
-5.97444
 10
-2.609302999999999
 20
-5.977381999999999
  0
LWPOLYLINE
  5
FB3
330
1E
100
AcDbEntity
  8
LAYER_1
  6
Continuous
 62
     7
100
AcDbPolyline
 90
        4
 70
     0
 43
0.0
 10
-2.609302999999999
 20
-5.977381999999999
 10
-2.607343
 20
-5.98024
 10
-2.604983
 20
-5.983043
 10
-2.602263999999999
 20
-5.985815
  0
LWPOLYLINE
  5
FB9
330
1E
100
AcDbEntity
  8
LAYER_1
  6
Continuous
 62
     7
100
AcDbPolyline
 90
        4
 70
     0
 43
0.0
 10
-2.602263999999999
 20
-5.985815
 10
-2.599191999999999
 20
-5.988583999999999
 10
-2.595769999999999
 20
-5.991342999999999
 10
-2.591968999999999
 20
-5.994082999999999
  0
LWPOLYLINE
  5
FBF
330
1E
100
AcDbEntity
  8
LAYER_1
  6
Continuous
 62
     7
100
AcDbPolyline
 90
        4
 70
     0
 43
0.0
 10
-2.591968999999999
 20
-5.994082999999999
 10
-2.587769999999999
 20
-5.996801
 10
-2.583153999999999
 20
-5.999505999999999
 10
-2.578093999999999
 20
-6.002224
  0
LWPOLYLINE
  5
FC5
330
1E
100
AcDbEntity
  8
LAYER_1
  6
Continuous
 62
     7
100
AcDbPolyline
 90
        4
 70
     0
 43
0.0
 10
-2.578093999999999
 20
-6.002224
 10
-2.572550999999999
 20
-6.004964
 10
-2.566478
 20
-6.007747
 10
-2.559803
 20
-6.010578999999999
  0
LWPOLYLINE
  5
FCB
330
1E
100
AcDbEntity
  8
LAYER_1
  6
Continuous
 62
     7
100
AcDbPolyline
 90
        4
 70
     0
 43
0.0
 10
-2.559803
 20
-6.010578999999999
 10
-2.55247
 20
-6.013461
 10
-2.544378
 20
-6.016392999999999
 10
-2.535441
 20
-6.019362
  0
LWPOLYLINE
  5
FD1
330
1E
100
AcDbEntity
  8
LAYER_1
  6
Continuous
 62
     7
100
AcDbPolyline
 90
        4
 70
     0
 43
0.0
 10
-2.535441
 20
-6.019362
 10
-2.525566999999999
 20
-6.022362
 10
-2.514634999999999
 20
-6.025379
 10
-2.502527999999999
 20
-6.028405999999999
  0
LWPOLYLINE
  5
FD7
330
1E
100
AcDbEntity
  8
LAYER_1
  6
Continuous
 62
     7
100
AcDbPolyline
 90
        4
 70
     0
 43
0.0
 10
-2.502527999999999
 20
-6.028405999999999
 10
-2.489128
 20
-6.031430999999999
 10
-2.474343
 20
-6.034426999999999
 10
-2.458083
 20
-6.037366
  0
LWPOLYLINE
  5
FDD
330
1E
100
AcDbEntity
  8
LAYER_1
  6
Continuous
 62
     7
100
AcDbPolyline
 90
        4
 70
     0
 43
0.0
 10
-2.458083
 20
-6.037366
 10
-2.440268999999999
 20
-6.040217
 10
-2.420943999999999
 20
-6.042955
 10
-2.40015
 20
-6.045551
  0
LWPOLYLINE
  5
FE3
330
1E
100
AcDbEntity
  8
LAYER_1
  6
Continuous
 62
     7
100
AcDbPolyline
 90
        4
 70
     0
 43
0.0
 10
-2.40015
 20
-6.045551
 10
-2.377923
 20
-6.047968
 10
-2.354375999999999
 20
-6.050194999999999
 10
-2.329622
 20
-6.052213
  0
LWPOLYLINE
  5
FE9
330
1E
100
AcDbEntity
  8
LAYER_1
  6
Continuous
 62
     7
100
AcDbPolyline
 90
        4
 70
     0
 43
0.0
 10
-2.329622
 20
-6.052213
 10
-2.303779999999999
 20
-6.054001999999999
 10
-2.277006
 20
-6.055571999999999
 10
-2.249468999999999
 20
-6.056932999999999
  0
LWPOLYLINE
  5
FEF
330
1E
100
AcDbEntity
  8
LAYER_1
  6
Continuous
 62
     7
100
AcDbPolyline
 90
        4
 70
     0
 43
0.0
 10
-2.249468999999999
 20
-6.056932999999999
 10
-2.221309999999999
 20
-6.058085
 10
-2.192633
 20
-6.059037
 10
-2.163511999999999
 20
-6.059787
  0
LWPOLYLINE
  5
FF5
330
1E
100
AcDbEntity
  8
LAYER_1
  6
Continuous
 62
     7
100
AcDbPolyline
 90
        4
 70
     0
 43
0.0
 10
-2.163511999999999
 20
-6.059787
 10
-2.134020999999999
 20
-6.060341
 10
-2.104220999999999
 20
-6.060721
 10
-2.074165
 20
-6.060957
  0
LWPOLYLINE
  5
FFB
330
1E
100
AcDbEntity
  8
LAYER_1
  6
Continuous
 62
     7
100
AcDbPolyline
 90
        4
 70
     0
 43
0.0
 10
-2.074165
 20
-6.060957
 10
-2.043905
 20
-6.061071
 10
-2.013468
 20
-6.061058999999999
 10
-1.982874
 20
-6.060912999999999
  0
LWPOLYLINE
  5
1001
330
1E
100
AcDbEntity
  8
LAYER_1
  6
Continuous
 62
     7
100
AcDbPolyline
 90
        4
 70
     0
 43
0.0
 10
-1.982874
 20
-6.060912999999999
 10
-1.952140999999999
 20
-6.060629
 10
-1.921275999999999
 20
-6.06023
 10
-1.890275999999999
 20
-6.059744
  0
LWPOLYLINE
  5
1007
330
1E
100
AcDbEntity
  8
LAYER_1
  6
Continuous
 62
     7
100
AcDbPolyline
 90
        4
 70
     0
 43
0.0
 10
-1.890275999999999
 20
-6.059744
 10
-1.859150999999999
 20
-6.059196
 10
-1.827909
 20
-6.058576999999999
 10
-1.796583
 20
-6.057882
  0
LWPOLYLINE
  5
100D
330
1E
100
AcDbEntity
  8
LAYER_1
  6
Continuous
 62
     7
100
AcDbPolyline
 90
        4
 70
     0
 43
0.0
 10
-1.796583
 20
-6.057882
 10
-1.765188
 20
-6.057106
 10
-1.733725999999999
 20
-6.056251
 10
-1.702193
 20
-6.055330999999999
  0
LWPOLYLINE
  5
1013
330
1E
100
AcDbEntity
  8
LAYER_1
  6
Continuous
 62
     7
100
AcDbPolyline
 90
        4
 70
     0
 43
0.0
 10
-1.702193
 20
-6.055330999999999
 10
-1.670602
 20
-6.054349
 10
-1.638949
 20
-6.053322
 10
-1.607248
 20
-6.052255999999999
  0
LWPOLYLINE
  5
1019
330
1E
100
AcDbEntity
  8
LAYER_1
  6
Continuous
 62
     7
100
AcDbPolyline
 90
        4
 70
     0
 43
0.0
 10
-1.607248
 20
-6.052255999999999
 10
-1.575519
 20
-6.051158999999999
 10
-1.543744
 20
-6.050022
 10
-1.511912999999999
 20
-6.048839
  0
LWPOLYLINE
  5
101F
330
1E
100
AcDbEntity
  8
LAYER_1
  6
Continuous
 62
     7
100
AcDbPolyline
 90
        4
 70
     0
 43
0.0
 10
-1.511912999999999
 20
-6.048839
 10
-1.48002
 20
-6.047598999999999
 10
-1.448066
 20
-6.046321999999999
 10
-1.416066999999999
 20
-6.045028
  0
LWPOLYLINE
  5
1025
330
1E
100
AcDbEntity
  8
LAYER_1
  6
Continuous
 62
     7
100
AcDbPolyline
 90
        4
 70
     0
 43
0.0
 10
-1.416066999999999
 20
-6.045028
 10
-1.384044
 20
-6.043728999999999
 10
-1.352009999999999
 20
-6.042417999999999
 10
-1.319984
 20
-6.041091
  0
LWPOLYLINE
  5
102B
330
1E
100
AcDbEntity
  8
LAYER_1
  6
Continuous
 62
     7
100
AcDbPolyline
 90
        4
 70
     0
 43
0.0
 10
-1.319984
 20
-6.041091
 10
-1.287978999999999
 20
-6.039735
 10
-1.255975
 20
-6.038361
 10
-1.223940999999999
 20
-6.036976
  0
LWPOLYLINE
  5
1031
330
1E
100
AcDbEntity
  8
LAYER_1
  6
Continuous
 62
     7
100
AcDbPolyline
 90
        4
 70
     0
 43
0.0
 10
-1.223940999999999
 20
-6.036976
 10
-1.191854999999999
 20
-6.035591
 10
-1.159732999999999
 20
-6.034194
 10
-1.12761
 20
-6.03278
  0
LWPOLYLINE
  5
1037
330
1E
100
AcDbEntity
  8
LAYER_1
  6
Continuous
 62
     7
100
AcDbPolyline
 90
        4
 70
     0
 43
0.0
 10
-1.12761
 20
-6.03278
 10
-1.095503
 20
-6.03134
 10
-1.063414999999999
 20
-6.029891
 10
-1.031319
 20
-6.028449
  0
LWPOLYLINE
  5
103D
330
1E
100
AcDbEntity
  8
LAYER_1
  6
Continuous
 62
     7
100
AcDbPolyline
 90
        4
 70
     0
 43
0.0
 10
-1.031319
 20
-6.028449
 10
-0.9991899999999999
 20
-6.027032
 10
-0.967037
 20
-6.025627
 10
-0.9348739999999999
 20
-6.024212999999999
  0
LWPOLYLINE
  5
1043
330
1E
100
AcDbEntity
  8
LAYER_1
  6
Continuous
 62
     7
100
AcDbPolyline
 90
        4
 70
     0
 43
0.0
 10
-0.9348739999999999
 20
-6.024212999999999
 10
-0.902712
 20
-6.022769999999999
 10
-0.8705659999999999
 20
-6.021320999999999
 10
-0.8384409999999999
 20
-6.019881999999999
  0
LWPOLYLINE
  5
1049
330
1E
100
AcDbEntity
  8
LAYER_1
  6
Continuous
 62
     7
100
AcDbPolyline
 90
        4
 70
     0
 43
0.0
 10
-0.8384409999999999
 20
-6.019881999999999
 10
-0.8063369999999999
 20
-6.018466
 10
-0.774249
 20
-6.017057
 10
-0.74215
 20
-6.015638
  0
LWPOLYLINE
  5
104F
330
1E
100
AcDbEntity
  8
LAYER_1
  6
Continuous
 62
     7
100
AcDbPolyline
 90
        4
 70
     0
 43
0.0
 10
-0.74215
 20
-6.015638
 10
-0.710023
 20
-6.014198999999999
 10
-0.6778710000000001
 20
-6.012748999999999
 10
-0.645705
 20
-6.011311
  0
LWPOLYLINE
  5
1055
330
1E
100
AcDbEntity
  8
LAYER_1
  6
Continuous
 62
     7
100
AcDbPolyline
 90
        4
 70
     0
 43
0.0
 10
-0.645705
 20
-6.011311
 10
-0.61354
 20
-6.009896
 10
-0.581378
 20
-6.008498999999999
 10
-0.54922
 20
-6.007109999999999
  0
LWPOLYLINE
  5
105B
330
1E
100
AcDbEntity
  8
LAYER_1
  6
Continuous
 62
     7
100
AcDbPolyline
 90
        4
 70
     0
 43
0.0
 10
-0.54922
 20
-6.007109999999999
 10
-0.5170560000000001
 20
-6.005726
 10
-0.484903
 20
-6.004330999999999
 10
-0.452776
 20
-6.002917
  0
LWPOLYLINE
  5
1061
330
1E
100
AcDbEntity
  8
LAYER_1
  6
Continuous
 62
     7
100
AcDbPolyline
 90
        4
 70
     0
 43
0.0
 10
-0.452776
 20
-6.002917
 10
-0.4206780000000001
 20
-6.001475
 10
-0.388601
 20
-6.000026
 10
-0.356539
 20
-5.998587
  0
LWPOLYLINE
  5
1067
330
1E
100
AcDbEntity
  8
LAYER_1
  6
Continuous
 62
     7
100
AcDbPolyline
 90
        4
 70
     0
 43
0.0
 10
-0.356539
 20
-5.998587
 10
-0.324471
 20
-5.997169
 10
-0.292398
 20
-5.995773999999999
 10
-0.260303
 20
-5.99439
  0
LWPOLYLINE
  5
106D
330
1E
100
AcDbEntity
  8
LAYER_1
  6
Continuous
 62
     7
100
AcDbPolyline
 90
        4
 70
     0
 43
0.0
 10
-0.260303
 20
-5.99439
 10
-0.228176
 20
-5.993001
 10
-0.196024
 20
-5.991603999999999
 10
-0.163858
 20
-5.990188999999999
  0
LWPOLYLINE
  5
1073
330
1E
100
AcDbEntity
  8
LAYER_1
  6
Continuous
 62
     7
100
AcDbPolyline
 90
        4
 70
     0
 43
0.0
 10
-0.163858
 20
-5.990188999999999
 10
-0.131695
 20
-5.988751
 10
-0.099543
 20
-5.987301
 10
-0.067413
 20
-5.985858
  0
LWPOLYLINE
  5
1079
330
1E
100
AcDbEntity
  8
LAYER_1
  6
Continuous
 62
     7
100
AcDbPolyline
 90
        4
 70
     0
 43
0.0
 10
-0.067413
 20
-5.985858
 10
-0.035317
 20
-5.984446
 10
-0.00323
 20
-5.98305
 10
0.028874
 20
-5.981660999999999
  0
LWPOLYLINE
  5
107F
330
1E
100
AcDbEntity
  8
LAYER_1
  6
Continuous
 62
     7
100
AcDbPolyline
 90
        4
 70
     0
 43
0.0
 10
0.028874
 20
-5.981660999999999
 10
0.060998
 20
-5.980277
 10
0.093143
 20
-5.978894
 10
0.125303
 20
-5.977511999999999
  0
LWPOLYLINE
  5
1085
330
1E
100
AcDbEntity
  8
LAYER_1
  6
Continuous
 62
     7
100
AcDbPolyline
 90
        4
 70
     0
 43
0.0
 10
0.125303
 20
-5.977511999999999
 10
0.157471
 20
-5.976123
 10
0.18965
 20
-5.974737999999999
 10
0.221846
 20
-5.973354
  0
LWPOLYLINE
  5
108B
330
1E
100
AcDbEntity
  8
LAYER_1
  6
Continuous
 62
     7
100
AcDbPolyline
 90
        4
 70
     0
 43
0.0
 10
0.221846
 20
-5.973354
 10
0.253872
 20
-5.971974999999999
 10
0.284724
 20
-5.970646
 10
0.313193
 20
-5.969412999999999
  0
LWPOLYLINE
  5
1091
330
1E
100
AcDbEntity
  8
LAYER_1
  6
Continuous
 62
     7
100
AcDbPolyline
 90
        4
 70
     0
 43
0.0
 10
0.313193
 20
-5.969412999999999
 10
0.338061
 20
-5.968326999999999
 10
0.35815
 20
-5.967442
 10
0.372276
 20
-5.966815
  0
LWPOLYLINE
  5
1097
330
1E
100
AcDbEntity
  8
LAYER_1
  6
Continuous
 62
     7
100
AcDbPolyline
 90
        4
 70
     0
 43
0.0
 10
0.372276
 20
-5.966815
 10
0.379831
 20
-5.96648
 10
0.382614
 20
-5.966355999999999
 10
0.3830119999999999
 20
-5.966338999999999
  0
LWPOLYLINE
  5
109D
330
1E
100
AcDbEntity
  8
LAYER_1
  6
Continuous
 62
     7
100
AcDbPolyline
 90
        4
 70
     0
 43
0.0
 10
-1.875193
 20
-10.642957
 10
-1.879295999999999
 20
-10.627788
 10
-1.890079
 20
-10.617005
 10
-1.905248
 20
-10.61290199999999
  0
LWPOLYLINE
  5
10A3
330
1E
100
AcDbEntity
  8
LAYER_1
  6
Continuous
 62
     7
100
AcDbPolyline
 90
        4
 70
     0
 43
0.0
 10
-1.905248
 20
-10.61290199999999
 10
-1.920416999999999
 20
-10.617005
 10
-1.9312
 20
-10.627788
 10
-1.935302999999999
 20
-10.642957
  0
LWPOLYLINE
  5
10A9
330
1E
100
AcDbEntity
  8
LAYER_1
  6
Continuous
 62
     7
100
AcDbPolyline
 90
        4
 70
     0
 43
0.0
 10
-1.935302999999999
 20
-10.642957
 10
-1.9312
 20
-10.65812299999999
 10
-1.920416999999999
 20
-10.6689
 10
-1.905248
 20
-10.673
  0
LWPOLYLINE
  5
10AF
330
1E
100
AcDbEntity
  8
LAYER_1
  6
Continuous
 62
     7
100
AcDbPolyline
 90
        4
 70
     0
 43
0.0
 10
-1.905248
 20
-10.673
 10
-1.890079
 20
-10.6689
 10
-1.879295999999999
 20
-10.65812299999999
 10
-1.875193
 20
-10.642957
  0
LWPOLYLINE
  5
10B5
330
1E
100
AcDbEntity
  8
LAYER_1
  6
Continuous
 62
     7
100
AcDbPolyline
 90
        4
 70
     0
 43
0.0
 10
-1.875193
 20
-10.362232
 10
-1.879295999999999
 20
-10.34706499999999
 10
-1.890079
 20
-10.336282
 10
-1.905248
 20
-10.332177
  0
LWPOLYLINE
  5
10BB
330
1E
100
AcDbEntity
  8
LAYER_1
  6
Continuous
 62
     7
100
AcDbPolyline
 90
        4
 70
     0
 43
0.0
 10
-1.905248
 20
-10.332177
 10
-1.920416999999999
 20
-10.336282
 10
-1.9312
 20
-10.34706499999999
 10
-1.935302999999999
 20
-10.362232
  0
LWPOLYLINE
  5
10C1
330
1E
100
AcDbEntity
  8
LAYER_1
  6
Continuous
 62
     7
100
AcDbPolyline
 90
        4
 70
     0
 43
0.0
 10
-1.935302999999999
 20
-10.362232
 10
-1.9312
 20
-10.377402
 10
-1.920416999999999
 20
-10.38818699999999
 10
-1.905248
 20
-10.392291
  0
LWPOLYLINE
  5
10C7
330
1E
100
AcDbEntity
  8
LAYER_1
  6
Continuous
 62
     7
100
AcDbPolyline
 90
        4
 70
     0
 43
0.0
 10
-1.905248
 20
-10.392291
 10
-1.890079
 20
-10.38818699999999
 10
-1.879295999999999
 20
-10.377402
 10
-1.875193
 20
-10.362232
  0
LWPOLYLINE
  5
10CD
330
1E
100
AcDbEntity
  8
LAYER_1
  6
Continuous
 62
     7
100
AcDbPolyline
 90
        4
 70
     0
 43
0.0
 10
-1.875193
 20
-6.028349999999999
 10
-1.879295999999999
 20
-6.013183999999999
 10
-1.890079
 20
-6.002403
 10
-1.905248
 20
-5.998298999999999
  0
LWPOLYLINE
  5
10D3
330
1E
100
AcDbEntity
  8
LAYER_1
  6
Continuous
 62
     7
100
AcDbPolyline
 90
        4
 70
     0
 43
0.0
 10
-1.905248
 20
-5.998298999999999
 10
-1.920416999999999
 20
-6.002403
 10
-1.9312
 20
-6.013183999999999
 10
-1.935302999999999
 20
-6.028349999999999
  0
LWPOLYLINE
  5
10D9
330
1E
100
AcDbEntity
  8
LAYER_1
  6
Continuous
 62
     7
100
AcDbPolyline
 90
        4
 70
     0
 43
0.0
 10
-1.935302999999999
 20
-6.028349999999999
 10
-1.9312
 20
-6.043516999999999
 10
-1.920416999999999
 20
-6.054298
 10
-1.905248
 20
-6.058402
  0
LWPOLYLINE
  5
10DF
330
1E
100
AcDbEntity
  8
LAYER_1
  6
Continuous
 62
     7
100
AcDbPolyline
 90
        4
 70
     0
 43
0.0
 10
-1.905248
 20
-6.058402
 10
-1.890079
 20
-6.054298
 10
-1.879295999999999
 20
-6.043516999999999
 10
-1.875193
 20
-6.028349999999999
  0
LWPOLYLINE
  5
10E5
330
1E
100
AcDbEntity
  8
LAYER_1
  6
Continuous
 62
     7
100
AcDbPolyline
 90
        4
 70
     0
 43
0.0
 10
-1.875193
 20
-5.897791
 10
-1.879295999999999
 20
-5.882623
 10
-1.890079
 20
-5.871843
 10
-1.905248
 20
-5.86774
  0
LWPOLYLINE
  5
10EB
330
1E
100
AcDbEntity
  8
LAYER_1
  6
Continuous
 62
     7
100
AcDbPolyline
 90
        4
 70
     0
 43
0.0
 10
-1.905248
 20
-5.86774
 10
-1.920416999999999
 20
-5.871843
 10
-1.9312
 20
-5.882623
 10
-1.935302999999999
 20
-5.897791
  0
LWPOLYLINE
  5
10F1
330
1E
100
AcDbEntity
  8
LAYER_1
  6
Continuous
 62
     7
100
AcDbPolyline
 90
        4
 70
     0
 43
0.0
 10
-1.935302999999999
 20
-5.897791
 10
-1.9312
 20
-5.912958
 10
-1.920416999999999
 20
-5.923739
 10
-1.905248
 20
-5.927843
  0
LWPOLYLINE
  5
10F7
330
1E
100
AcDbEntity
  8
LAYER_1
  6
Continuous
 62
     7
100
AcDbPolyline
 90
        4
 70
     0
 43
0.0
 10
-1.905248
 20
-5.927843
 10
-1.890079
 20
-5.923739
 10
-1.879295999999999
 20
-5.912958
 10
-1.875193
 20
-5.897791
  0
LWPOLYLINE
  5
10FD
330
1E
100
AcDbEntity
  8
LAYER_1
  6
Continuous
 62
     7
100
AcDbPolyline
 90
        4
 70
     0
 43
0.0
 10
-2.070275999999999
 20
-10.644484
 10
-2.074378999999999
 20
-10.629315
 10
-2.085158
 20
-10.61853299999999
 10
-2.100318999999999
 20
-10.614429
  0
LWPOLYLINE
  5
1103
330
1E
100
AcDbEntity
  8
LAYER_1
  6
Continuous
 62
     7
100
AcDbPolyline
 90
        4
 70
     0
 43
0.0
 10
-2.100318999999999
 20
-10.614429
 10
-2.115486
 20
-10.61853299999999
 10
-2.126269999999999
 20
-10.629315
 10
-2.130374
 20
-10.644484
  0
LWPOLYLINE
  5
1109
330
1E
100
AcDbEntity
  8
LAYER_1
  6
Continuous
 62
     7
100
AcDbPolyline
 90
        4
 70
     0
 43
0.0
 10
-2.130374
 20
-10.644484
 10
-2.126269999999999
 20
-10.659653
 10
-2.115486
 20
-10.670436
 10
-2.100318999999999
 20
-10.674539
  0
LWPOLYLINE
  5
110F
330
1E
100
AcDbEntity
  8
LAYER_1
  6
Continuous
 62
     7
100
AcDbPolyline
 90
        4
 70
     0
 43
0.0
 10
-2.100318999999999
 20
-10.674539
 10
-2.085158
 20
-10.670436
 10
-2.074378999999999
 20
-10.659653
 10
-2.070275999999999
 20
-10.644484
  0
LWPOLYLINE
  5
1115
330
1E
100
AcDbEntity
  8
LAYER_1
  6
Continuous
 62
     7
100
AcDbPolyline
 90
        4
 70
     0
 43
0.0
 10
-2.071803
 20
-10.354555
 10
-2.075908
 20
-10.33938599999999
 10
-2.086691
 20
-10.32860399999999
 10
-2.101858
 20
-10.3245
  0
LWPOLYLINE
  5
111B
330
1E
100
AcDbEntity
  8
LAYER_1
  6
Continuous
 62
     7
100
AcDbPolyline
 90
        4
 70
     0
 43
0.0
 10
-2.101858
 20
-10.3245
 10
-2.117027
 20
-10.32860399999999
 10
-2.127809999999999
 20
-10.33938599999999
 10
-2.131912999999999
 20
-10.354555
  0
LWPOLYLINE
  5
1121
330
1E
100
AcDbEntity
  8
LAYER_1
  6
Continuous
 62
     7
100
AcDbPolyline
 90
        4
 70
     0
 43
0.0
 10
-2.131912999999999
 20
-10.354555
 10
-2.127809999999999
 20
-10.369723
 10
-2.117027
 20
-10.380506
 10
-2.101858
 20
-10.38461
  0
LWPOLYLINE
  5
1127
330
1E
100
AcDbEntity
  8
LAYER_1
  6
Continuous
 62
     7
100
AcDbPolyline
 90
        4
 70
     0
 43
0.0
 10
-2.101858
 20
-10.38461
 10
-2.086691
 20
-10.380506
 10
-2.075908
 20
-10.369723
 10
-2.071803
 20
-10.354555
  0
LWPOLYLINE
  5
112D
330
1E
100
AcDbEntity
  8
LAYER_1
  6
Continuous
 62
     7
100
AcDbPolyline
 90
        2
 70
     0
 43
0.0
 10
-1.256303
 20
-12.515319
 10
-1.079264
 20
-12.338291
  0
LWPOLYLINE
  5
1131
330
1E
100
AcDbEntity
  8
LAYER_1
  6
Continuous
 62
     7
100
AcDbPolyline
 90
        2
 70
     0
 43
0.0
 10
-1.220456999999999
 20
-12.55116499999999
 10
-1.043429
 20
-12.374122
  0
LWPOLYLINE
  5
1135
330
1E
100
AcDbEntity
  8
LAYER_1
  6
Continuous
 62
     7
100
AcDbPolyline
 90
        2
 70
     0
 43
0.0
 10
-1.184609999999999
 20
-12.587
 10
-1.007582999999999
 20
-12.409969
  0
LWPOLYLINE
  5
1139
330
1E
100
AcDbEntity
  8
LAYER_1
  6
Continuous
 62
     7
100
AcDbPolyline
 90
        2
 70
     0
 43
0.0
 10
-1.149858
 20
-12.621764
 10
-0.9728190000000001
 20
-12.44472
  0
LWPOLYLINE
  5
113D
330
1E
100
AcDbEntity
  8
LAYER_1
  6
Continuous
 62
     7
100
AcDbPolyline
 90
        2
 70
     0
 43
0.0
 10
-1.254121999999999
 20
-12.478386
 10
-1.078176999999999
 20
-12.65651199999999
  0
LWPOLYLINE
  5
1141
330
1E
100
AcDbEntity
  8
LAYER_1
  6
Continuous
 62
     7
100
AcDbPolyline
 90
        2
 70
     0
 43
0.0
 10
-1.219373999999999
 20
-12.443638
 10
-1.043412999999999
 20
-12.621748
  0
LWPOLYLINE
  5
1145
330
1E
100
AcDbEntity
  8
LAYER_1
  6
Continuous
 62
     7
100
AcDbPolyline
 90
        2
 70
     0
 43
0.0
 10
-1.183528
 20
-12.407791
 10
-1.007582999999999
 20
-12.58591299999999
  0
LWPOLYLINE
  5
1149
330
1E
100
AcDbEntity
  8
LAYER_1
  6
Continuous
 62
     7
100
AcDbPolyline
 90
        2
 70
     0
 43
0.0
 10
-1.148776
 20
-12.373039
 10
-0.9728190000000001
 20
-12.55116499999999
  0
LWPOLYLINE
  5
114D
330
1E
100
AcDbEntity
  8
LAYER_1
  6
Continuous
 62
     7
100
AcDbPolyline
 90
        2
 70
     0
 43
0.0
 10
-1.112929
 20
-12.33719299999999
 10
-0.9369839999999999
 20
-12.515319
  0
LWPOLYLINE
  5
1151
330
1E
100
AcDbEntity
  8
LAYER_1
  6
Continuous
 62
     7
100
AcDbPolyline
 90
        2
 70
     0
 43
0.0
 10
-1.114012
 20
-12.657594
 10
-0.9369839999999999
 20
-12.480567
  0
LWPOLYLINE
  5
1155
330
1E
100
AcDbEntity
  8
LAYER_1
  6
Continuous
 62
     7
100
AcDbPolyline
 90
        2
 70
     0
 43
0.0
 10
-3.248539
 20
-0.500319
 10
-3.248539
 20
-13.033913
  0
TEXT
  5
1159
330
1E
100
AcDbEntity
  8
LAYER_1
 62
     7
100
AcDbText
 10
-2.922913
 20
-0.910693
 30
0.0
 40
0.111095
  1
1.0"
 41
0.6830694450695355
  7
SN1
 72
     5
 11
-2.688029
 21
-0.910693
 31
0.0
100
AcDbText
  0
TEXT
  5
115A
330
1E
100
AcDbEntity
  8
LAYER_1
 62
     7
100
AcDbText
 10
-1.903027999999999
 20
-0.8427599999999999
 30
0.0
 40
0.111095
  1
HT12 (5.0%)  2.0" chord
 41
0.6482049258844659
  7
SN0
 72
     5
 11
-0.4524939999999999
 21
-0.8427599999999999
 31
0.0
100
AcDbText
  0
TEXT
  5
115B
330
1E
100
AcDbEntity
  8
LAYER_1
 62
     7
100
AcDbText
 10
0.001583
 20
-1.045854
 30
0.0
 40
0.111095
  1
13.0" semispan
 41
0.6773797200594086
  7
SN1
 72
     5
 11
0.926126
 21
-1.045854
 31
0.0
100
AcDbText
  0
LWPOLYLINE
  5
115C
330
1E
100
AcDbEntity
  8
LAYER_1
  6
Continuous
 62
     7
100
AcDbPolyline
 90
        4
 70
     0
 43
0.0
 10
-1.978345999999999
 20
-10.634457
 10
-1.984384
 20
-10.624849
 10
-1.994111999999999
 20
-10.619676
 10
-2.005456999999999
 20
-10.620039
  0
LWPOLYLINE
  5
1162
330
1E
100
AcDbEntity
  8
LAYER_1
  6
Continuous
 62
     7
100
AcDbPolyline
 90
        4
 70
     0
 43
0.0
 10
-2.005456999999999
 20
-10.620039
 10
-2.015063999999999
 20
-10.626085
 10
-2.020237999999999
 20
-10.63581
 10
-2.019874
 20
-10.64715
  0
LWPOLYLINE
  5
1168
330
1E
100
AcDbEntity
  8
LAYER_1
  6
Continuous
 62
     7
100
AcDbPolyline
 90
        4
 70
     0
 43
0.0
 10
-2.019874
 20
-10.64715
 10
-2.013835999999999
 20
-10.656768
 10
-2.004106
 20
-10.661941
 10
-1.992764
 20
-10.661567
  0
LWPOLYLINE
  5
116E
330
1E
100
AcDbEntity
  8
LAYER_1
  6
Continuous
 62
     7
100
AcDbPolyline
 90
        4
 70
     0
 43
0.0
 10
-1.992764
 20
-10.661567
 10
-1.983155
 20
-10.655532
 10
-1.977981999999999
 20
-10.64580599999999
 10
-1.978345999999999
 20
-10.634457
  0
LWPOLYLINE
  5
1174
330
1E
100
AcDbEntity
  8
LAYER_1
  6
Continuous
 62
     7
100
AcDbPolyline
 90
        4
 70
     0
 43
0.0
 10
1.069484
 20
-9.552275999999999
 10
1.068904
 20
-9.552419
 10
1.064842999999999
 20
-9.553419999999999
 10
1.053819
 20
-9.556138
  0
LWPOLYLINE
  5
117A
330
1E
100
AcDbEntity
  8
LAYER_1
  6
Continuous
 62
     7
100
AcDbPolyline
 90
        4
 70
     0
 43
0.0
 10
1.053819
 20
-9.556138
 10
1.033233
 20
-9.56123
 10
1.003937
 20
-9.568478999999999
 10
0.967665
 20
-9.577469
  0
LWPOLYLINE
  5
1180
330
1E
100
AcDbEntity
  8
LAYER_1
  6
Continuous
 62
     7
100
AcDbPolyline
 90
        4
 70
     0
 43
0.0
 10
0.967665
 20
-9.577469
 10
0.9261719999999998
 20
-9.587775999999999
 10
0.8811989999999999
 20
-9.598955
 10
0.8345119999999999
 20
-9.610566999999999
  0
LWPOLYLINE
  5
1186
330
1E
100
AcDbEntity
  8
LAYER_1
  6
Continuous
 62
     7
100
AcDbPolyline
 90
        4
 70
     0
 43
0.0
 10
0.8345119999999999
 20
-9.610566999999999
 10
0.7875830000000001
 20
-9.622242999999999
 10
0.7406800000000001
 20
-9.633908999999999
 10
0.693791
 20
-9.645566999999999
  0
LWPOLYLINE
  5
118C
330
1E
100
AcDbEntity
  8
LAYER_1
  6
Continuous
 62
     7
100
AcDbPolyline
 90
        4
 70
     0
 43
0.0
 10
0.693791
 20
-9.645566999999999
 10
0.6469090000000001
 20
-9.657227999999999
 10
0.600048
 20
-9.668881999999999
 10
0.55322
 20
-9.680528
  0
LWPOLYLINE
  5
1192
330
1E
100
AcDbEntity
  8
LAYER_1
  6
Continuous
 62
     7
100
AcDbPolyline
 90
        4
 70
     0
 43
0.0
 10
0.55322
 20
-9.680528
 10
0.5064220000000001
 20
-9.692159
 10
0.459636
 20
-9.70377
 10
0.412819
 20
-9.715346
  0
LWPOLYLINE
  5
1198
330
1E
100
AcDbEntity
  8
LAYER_1
  6
Continuous
 62
     7
100
AcDbPolyline
 90
        4
 70
     0
 43
0.0
 10
0.412819
 20
-9.715346
 10
0.36596
 20
-9.726895999999999
 10
0.31908
 20
-9.738426999999999
 10
0.2722199999999999
 20
-9.749969
  0
LWPOLYLINE
  5
119E
330
1E
100
AcDbEntity
  8
LAYER_1
  6
Continuous
 62
     7
100
AcDbPolyline
 90
        4
 70
     0
 43
0.0
 10
0.2722199999999999
 20
-9.749969
 10
0.225412
 20
-9.761550999999998
 10
0.178645
 20
-9.773151999999999
 10
0.131902
 20
-9.784763999999999
  0
LWPOLYLINE
  5
11A4
330
1E
100
AcDbEntity
  8
LAYER_1
  6
Continuous
 62
     7
100
AcDbPolyline
 90
        4
 70
     0
 43
0.0
 10
0.131902
 20
-9.784763999999999
 10
0.085161
 20
-9.796381
 10
0.038415
 20
-9.807978
 10
-0.008331
 20
-9.819539
  0
LWPOLYLINE
  5
11AA
330
1E
100
AcDbEntity
  8
LAYER_1
  6
Continuous
 62
     7
100
AcDbPolyline
 90
        4
 70
     0
 43
0.0
 10
-0.008331
 20
-9.819539
 10
-0.055105
 20
-9.831061
 10
-0.101903
 20
-9.84257
 10
-0.148732
 20
-9.85411
  0
LWPOLYLINE
  5
11B0
330
1E
100
AcDbEntity
  8
LAYER_1
  6
Continuous
 62
     7
100
AcDbPolyline
 90
        4
 70
     0
 43
0.0
 10
-0.148732
 20
-9.85411
 10
-0.195574
 20
-9.865698
 10
-0.242444
 20
-9.877330999999999
 10
-0.289331
 20
-9.888983999999998
  0
LWPOLYLINE
  5
11B6
330
1E
100
AcDbEntity
  8
LAYER_1
  6
Continuous
 62
     7
100
AcDbPolyline
 90
        4
 70
     0
 43
0.0
 10
-0.289331
 20
-9.888983999999998
 10
-0.336207
 20
-9.900642999999998
 10
-0.383079
 20
-9.912278
 10
-0.429929
 20
-9.923873999999999
  0
LWPOLYLINE
  5
11BC
330
1E
100
AcDbEntity
  8
LAYER_1
  6
Continuous
 62
     7
100
AcDbPolyline
 90
        4
 70
     0
 43
0.0
 10
-0.429929
 20
-9.923873999999999
 10
-0.4767520000000001
 20
-9.935404
 10
-0.523565
 20
-9.946915999999999
 10
-0.570386
 20
-9.958457000000001
  0
LWPOLYLINE
  5
11C2
330
1E
100
AcDbEntity
  8
LAYER_1
  6
Continuous
 62
     7
100
AcDbPolyline
 90
        4
 70
     0
 43
0.0
 10
-0.570386
 20
-9.958457000000001
 10
-0.617242
 20
-9.970041999999999
 10
-0.6641180000000001
 20
-9.981657999999999
 10
-0.7110120000000001
 20
-9.993263999999999
  0
LWPOLYLINE
  5
11C8
330
1E
100
AcDbEntity
  8
LAYER_1
  6
Continuous
 62
     7
100
AcDbPolyline
 90
        4
 70
     0
 43
0.0
 10
-0.7110120000000001
 20
-9.993263999999999
 10
-0.757929
 20
-10.004824
 10
-0.804831
 20
-10.016363
 10
-0.851693
 20
-10.02791299999999
  0
LWPOLYLINE
  5
11CE
330
1E
100
AcDbEntity
  8
LAYER_1
  6
Continuous
 62
     7
100
AcDbPolyline
 90
        4
 70
     0
 43
0.0
 10
-0.851693
 20
-10.02791299999999
 10
-0.8985049999999999
 20
-10.039487
 10
-0.945298
 20
-10.051076
 10
-0.99211
 20
-10.06264999999999
  0
LWPOLYLINE
  5
11D4
330
1E
100
AcDbEntity
  8
LAYER_1
  6
Continuous
 62
     7
100
AcDbPolyline
 90
        4
 70
     0
 43
0.0
 10
-0.99211
 20
-10.06264999999999
 10
-1.038966999999999
 20
-10.07419499999999
 10
-1.085847
 20
-10.085735
 10
-1.132704999999999
 20
-10.097291
  0
LWPOLYLINE
  5
11DA
330
1E
100
AcDbEntity
  8
LAYER_1
  6
Continuous
 62
     7
100
AcDbPolyline
 90
        4
 70
     0
 43
0.0
 10
-1.132704999999999
 20
-10.097291
 10
-1.179513999999999
 20
-10.108863
 10
-1.226283999999999
 20
-10.120459
 10
-1.273028
 20
-10.132067
  0
LWPOLYLINE
  5
11E0
330
1E
100
AcDbEntity
  8
LAYER_1
  6
Continuous
 62
     7
100
AcDbPolyline
 90
        4
 70
     0
 43
0.0
 10
-1.273028
 20
-10.132067
 10
-1.319763
 20
-10.14369
 10
-1.366479999999999
 20
-10.155319
 10
-1.413149999999999
 20
-10.166969
  0
LWPOLYLINE
  5
11E6
330
1E
100
AcDbEntity
  8
LAYER_1
  6
Continuous
 62
     7
100
AcDbPolyline
 90
        4
 70
     0
 43
0.0
 10
-1.413149999999999
 20
-10.166969
 10
-1.459765999999999
 20
-10.178662
 10
-1.506343
 20
-10.19037399999999
 10
-1.552902
 20
-10.202094
  0
LWPOLYLINE
  5
11EC
330
1E
100
AcDbEntity
  8
LAYER_1
  6
Continuous
 62
     7
100
AcDbPolyline
 90
        4
 70
     0
 43
0.0
 10
-1.552902
 20
-10.202094
 10
-1.599440999999999
 20
-10.21382299999999
 10
-1.645959999999999
 20
-10.225581
 10
-1.692429
 20
-10.237402
  0
LWPOLYLINE
  5
11F2
330
1E
100
AcDbEntity
  8
LAYER_1
  6
Continuous
 62
     7
100
AcDbPolyline
 90
        4
 70
     0
 43
0.0
 10
-1.692429
 20
-10.237402
 10
-1.738815999999999
 20
-10.24930099999999
 10
-1.785099999999999
 20
-10.261257
 10
-1.831248
 20
-10.27324799999999
  0
LWPOLYLINE
  5
11F8
330
1E
100
AcDbEntity
  8
LAYER_1
  6
Continuous
 62
     7
100
AcDbPolyline
 90
        4
 70
     0
 43
0.0
 10
-1.831248
 20
-10.27324799999999
 10
-1.877256
 20
-10.285254
 10
-1.923142999999999
 20
-10.297297
 10
-1.968956999999999
 20
-10.309413
  0
LWPOLYLINE
  5
11FE
330
1E
100
AcDbEntity
  8
LAYER_1
  6
Continuous
 62
     7
100
AcDbPolyline
 90
        4
 70
     0
 43
0.0
 10
-1.968956999999999
 20
-10.309413
 10
-2.01472
 20
-10.32162499999999
 10
-2.060388
 20
-10.333913
 10
-2.105901999999999
 20
-10.346264
  0
LWPOLYLINE
  5
1204
330
1E
100
AcDbEntity
  8
LAYER_1
  6
Continuous
 62
     7
100
AcDbPolyline
 90
        4
 70
     0
 43
0.0
 10
-2.105901999999999
 20
-10.346264
 10
-2.151206999999999
 20
-10.358677
 10
-2.196308
 20
-10.37117499999999
 10
-2.241232
 20
-10.383803
  0
LWPOLYLINE
  5
120A
330
1E
100
AcDbEntity
  8
LAYER_1
  6
Continuous
 62
     7
100
AcDbPolyline
 90
        4
 70
     0
 43
0.0
 10
-2.241232
 20
-10.383803
 10
-2.285984
 20
-10.396588
 10
-2.330534
 20
-10.409538
 10
-2.374830999999999
 20
-10.422638
  0
LWPOLYLINE
  5
1210
330
1E
100
AcDbEntity
  8
LAYER_1
  6
Continuous
 62
     7
100
AcDbPolyline
 90
        4
 70
     0
 43
0.0
 10
-2.374830999999999
 20
-10.422638
 10
-2.418829
 20
-10.43586799999999
 10
-2.462508
 20
-10.449222
 10
-2.505858
 20
-10.462693
  0
LWPOLYLINE
  5
1216
330
1E
100
AcDbEntity
  8
LAYER_1
  6
Continuous
 62
     7
100
AcDbPolyline
 90
        4
 70
     0
 43
0.0
 10
-2.505858
 20
-10.462693
 10
-2.548847
 20
-10.476293
 10
-2.591388999999999
 20
-10.49003399999999
 10
-2.633386
 20
-10.503941
  0
LWPOLYLINE
  5
121C
330
1E
100
AcDbEntity
  8
LAYER_1
  6
Continuous
 62
     7
100
AcDbPolyline
 90
        4
 70
     0
 43
0.0
 10
-2.633386
 20
-10.503941
 10
-2.674758
 20
-10.518041
 10
-2.715386
 20
-10.53227899999999
 10
-2.755165
 20
-10.54661
  0
LWPOLYLINE
  5
1222
330
1E
100
AcDbEntity
  8
LAYER_1
  6
Continuous
 62
     7
100
AcDbPolyline
 90
        4
 70
     0
 43
0.0
 10
-2.755165
 20
-10.54661
 10
-2.793968
 20
-10.560988
 10
-2.831563
 20
-10.575387
 10
-2.867689
 20
-10.58977599999999
  0
LWPOLYLINE
  5
1228
330
1E
100
AcDbEntity
  8
LAYER_1
  6
Continuous
 62
     7
100
AcDbPolyline
 90
        4
 70
     0
 43
0.0
 10
-2.867689
 20
-10.58977599999999
 10
-2.902125999999999
 20
-10.60414399999999
 10
-2.934702
 20
-10.618385
 10
-2.965275999999999
 20
-10.632402
  0
LWPOLYLINE
  5
122E
330
1E
100
AcDbEntity
  8
LAYER_1
  6
Continuous
 62
     7
100
AcDbPolyline
 90
        4
 70
     0
 43
0.0
 10
-2.965275999999999
 20
-10.632402
 10
-2.993716
 20
-10.646105
 10
-3.019954
 20
-10.659433
 10
-3.043937
 20
-10.67233099999999
  0
LWPOLYLINE
  5
1234
330
1E
100
AcDbEntity
  8
LAYER_1
  6
Continuous
 62
     7
100
AcDbPolyline
 90
        4
 70
     0
 43
0.0
 10
-3.043937
 20
-10.67233099999999
 10
-3.065652999999999
 20
-10.68474799999999
 10
-3.085231
 20
-10.696638
 10
-3.102843
 20
-10.707969
  0
LWPOLYLINE
  5
123A
330
1E
100
AcDbEntity
  8
LAYER_1
  6
Continuous
 62
     7
100
AcDbPolyline
 90
        4
 70
     0
 43
0.0
 10
-3.102843
 20
-10.707969
 10
-3.118647
 20
-10.71870099999999
 10
-3.132800999999999
 20
-10.728855
 10
-3.145456999999999
 20
-10.738457
  0
LWPOLYLINE
  5
1240
330
1E
100
AcDbEntity
  8
LAYER_1
  6
Continuous
 62
     7
100
AcDbPolyline
 90
        4
 70
     0
 43
0.0
 10
-3.145456999999999
 20
-10.738457
 10
-3.156754999999999
 20
-10.747541
 10
-3.166836999999999
 20
-10.75616499999999
 10
-3.175838999999999
 20
-10.764386
  0
LWPOLYLINE
  5
1246
330
1E
100
AcDbEntity
  8
LAYER_1
  6
Continuous
 62
     7
100
AcDbPolyline
 90
        4
 70
     0
 43
0.0
 10
-3.175838999999999
 20
-10.764386
 10
-3.183891999999999
 20
-10.77225
 10
-3.191079999999999
 20
-10.77981499999999
 10
-3.19748
 20
-10.787122
  0
LWPOLYLINE
  5
124C
330
1E
100
AcDbEntity
  8
LAYER_1
  6
Continuous
 62
     7
100
AcDbPolyline
 90
        4
 70
     0
 43
0.0
 10
-3.19748
 20
-10.787122
 10
-3.203161
 20
-10.794207
 10
-3.208212
 20
-10.801075
 10
-3.212717
 20
-10.807732
  0
LWPOLYLINE
  5
1252
330
1E
100
AcDbEntity
  8
LAYER_1
  6
Continuous
 62
     7
100
AcDbPolyline
 90
        4
 70
     0
 43
0.0
 10
-3.212717
 20
-10.807732
 10
-3.216741999999999
 20
-10.814213
 10
-3.22027
 20
-10.820543
 10
-3.223272
 20
-10.826764
  0
LWPOLYLINE
  5
1258
330
1E
100
AcDbEntity
  8
LAYER_1
  6
Continuous
 62
     7
100
AcDbPolyline
 90
        4
 70
     0
 43
0.0
 10
-3.223272
 20
-10.826764
 10
-3.225722999999999
 20
-10.83291
 10
-3.227589
 20
-10.83897499999999
 10
-3.228845999999999
 20
-10.84492899999999
  0
LWPOLYLINE
  5
125E
330
1E
100
AcDbEntity
  8
LAYER_1
  6
Continuous
 62
     7
100
AcDbPolyline
 90
        4
 70
     0
 43
0.0
 10
-3.228845999999999
 20
-10.84492899999999
 10
-3.229471999999999
 20
-10.850747
 10
-3.229495999999999
 20
-10.856432
 10
-3.228949
 20
-10.862
  0
LWPOLYLINE
  5
1264
330
1E
100
AcDbEntity
  8
LAYER_1
  6
Continuous
 62
     7
100
AcDbPolyline
 90
        4
 70
     0
 43
0.0
 10
-3.228949
 20
-10.862
 10
-3.227856
 20
-10.86745399999999
 10
-3.226229999999999
 20
-10.872782
 10
-3.224070999999999
 20
-10.877969
  0
LWPOLYLINE
  5
126A
330
1E
100
AcDbEntity
  8
LAYER_1
  6
Continuous
 62
     7
100
AcDbPolyline
 90
        4
 70
     0
 43
0.0
 10
-3.224070999999999
 20
-10.877969
 10
-3.221382
 20
-10.882988
 10
-3.218151999999999
 20
-10.887784
 10
-3.214366
 20
-10.892303
  0
LWPOLYLINE
  5
1270
330
1E
100
AcDbEntity
  8
LAYER_1
  6
Continuous
 62
     7
100
AcDbPolyline
 90
        4
 70
     0
 43
0.0
 10
-3.214366
 20
-10.892303
 10
-3.21001
 20
-10.896494
 10
-3.205113
 20
-10.90041
 10
-3.199704999999999
 20
-10.90411
  0
LWPOLYLINE
  5
1276
330
1E
100
AcDbEntity
  8
LAYER_1
  6
Continuous
 62
     7
100
AcDbPolyline
 90
        4
 70
     0
 43
0.0
 10
-3.199704999999999
 20
-10.90411
 10
-3.19381
 20
-10.907655
 10
-3.187413999999999
 20
-10.91102599999999
 10
-3.180487999999999
 20
-10.91419299999999
  0
LWPOLYLINE
  5
127C
330
1E
100
AcDbEntity
  8
LAYER_1
  6
Continuous
 62
     7
100
AcDbPolyline
 90
        4
 70
     0
 43
0.0
 10
-3.180487999999999
 20
-10.91419299999999
 10
-3.172997999999999
 20
-10.91715099999999
 10
-3.164909
 20
-10.919901
 10
-3.156177
 20
-10.92246899999999
  0
LWPOLYLINE
  5
1282
330
1E
100
AcDbEntity
  8
LAYER_1
  6
Continuous
 62
     7
100
AcDbPolyline
 90
        4
 70
     0
 43
0.0
 10
-3.156177
 20
-10.92246899999999
 10
-3.146752
 20
-10.924888
 10
-3.136543
 20
-10.927137
 10
-3.125449
 20
-10.92920499999999
  0
LWPOLYLINE
  5
1288
330
1E
100
AcDbEntity
  8
LAYER_1
  6
Continuous
 62
     7
100
AcDbPolyline
 90
        4
 70
     0
 43
0.0
 10
-3.125449
 20
-10.92920499999999
 10
-3.113366
 20
-10.931075
 10
-3.100171
 20
-10.932703
 10
-3.085744
 20
-10.93402799999999
  0
LWPOLYLINE
  5
128E
330
1E
100
AcDbEntity
  8
LAYER_1
  6
Continuous
 62
     7
100
AcDbPolyline
 90
        4
 70
     0
 43
0.0
 10
-3.085744
 20
-10.93402799999999
 10
-3.069961999999999
 20
-10.934997
 10
-3.052652999999999
 20
-10.935532
 10
-3.03365
 20
-10.935567
  0
LWPOLYLINE
  5
1294
330
1E
100
AcDbEntity
  8
LAYER_1
  6
Continuous
 62
     7
100
AcDbPolyline
 90
        4
 70
     0
 43
0.0
 10
-3.03365
 20
-10.935567
 10
-3.012795999999999
 20
-10.93504
 10
-2.989968999999999
 20
-10.933841
 10
-2.965054999999999
 20
-10.931886
  0
LWPOLYLINE
  5
129A
330
1E
100
AcDbEntity
  8
LAYER_1
  6
Continuous
 62
     7
100
AcDbPolyline
 90
        4
 70
     0
 43
0.0
 10
-2.965054999999999
 20
-10.931886
 10
-2.937974
 20
-10.929116
 10
-2.908774
 20
-10.925476
 10
-2.877534999999999
 20
-10.92092899999999
  0
LWPOLYLINE
  5
12A0
330
1E
100
AcDbEntity
  8
LAYER_1
  6
Continuous
 62
     7
100
AcDbPolyline
 90
        4
 70
     0
 43
0.0
 10
-2.877534999999999
 20
-10.92092899999999
 10
-2.844352999999999
 20
-10.91545299999999
 10
-2.809383
 20
-10.909065
 10
-2.772790999999999
 20
-10.901776
  0
LWPOLYLINE
  5
12A6
330
1E
100
AcDbEntity
  8
LAYER_1
  6
Continuous
 62
     7
100
AcDbPolyline
 90
        4
 70
     0
 43
0.0
 10
-2.772790999999999
 20
-10.901776
 10
-2.734751999999999
 20
-10.893601
 10
-2.695495
 20
-10.884628
 10
-2.655263999999999
 20
-10.874941
  0
LWPOLYLINE
  5
12AC
330
1E
100
AcDbEntity
  8
LAYER_1
  6
Continuous
 62
     7
100
AcDbPolyline
 90
        4
 70
     0
 43
0.0
 10
-2.655263999999999
 20
-10.874941
 10
-2.614250999999999
 20
-10.864637
 10
-2.572599
 20
-10.853746
 10
-2.530429
 20
-10.84230299999999
  0
LWPOLYLINE
  5
12B2
330
1E
100
AcDbEntity
  8
LAYER_1
  6
Continuous
 62
     7
100
AcDbPolyline
 90
        4
 70
     0
 43
0.0
 10
-2.530429
 20
-10.84230299999999
 10
-2.487819
 20
-10.830343
 10
-2.444862
 20
-10.817946
 10
-2.401622
 20
-10.805177
  0
LWPOLYLINE
  5
12B8
330
1E
100
AcDbEntity
  8
LAYER_1
  6
Continuous
 62
     7
100
AcDbPolyline
 90
        4
 70
     0
 43
0.0
 10
-2.401622
 20
-10.805177
 10
-2.358154
 20
-10.79210299999999
 10
-2.314497
 20
-10.778734
 10
-2.270693
 20
-10.765067
  0
LWPOLYLINE
  5
12BE
330
1E
100
AcDbEntity
  8
LAYER_1
  6
Continuous
 62
     7
100
AcDbPolyline
 90
        4
 70
     0
 43
0.0
 10
-2.270693
 20
-10.765067
 10
-2.22676
 20
-10.751085
 10
-2.1827
 20
-10.736841
 10
-2.1385
 20
-10.722386
  0
LWPOLYLINE
  5
12C4
330
1E
100
AcDbEntity
  8
LAYER_1
  6
Continuous
 62
     7
100
AcDbPolyline
 90
        4
 70
     0
 43
0.0
 10
-2.1385
 20
-10.722386
 10
-2.094148
 20
-10.707771
 10
-2.049672999999999
 20
-10.69298399999999
 10
-2.005109999999999
 20
-10.67802799999999
  0
LWPOLYLINE
  5
12CA
330
1E
100
AcDbEntity
  8
LAYER_1
  6
Continuous
 62
     7
100
AcDbPolyline
 90
        4
 70
     0
 43
0.0
 10
-2.005109999999999
 20
-10.67802799999999
 10
-1.960487999999999
 20
-10.662875
 10
-1.915815
 20
-10.647567
 10
-1.871083
 20
-10.63211
  0
LWPOLYLINE
  5
12D0
330
1E
100
AcDbEntity
  8
LAYER_1
  6
Continuous
 62
     7
100
AcDbPolyline
 90
        4
 70
     0
 43
0.0
 10
-1.871083
 20
-10.63211
 10
-1.826288
 20
-10.61653
 10
-1.781441
 20
-10.600837
 10
-1.736554999999999
 20
-10.585055
  0
LWPOLYLINE
  5
12D6
330
1E
100
AcDbEntity
  8
LAYER_1
  6
Continuous
 62
     7
100
AcDbPolyline
 90
        4
 70
     0
 43
0.0
 10
-1.736554999999999
 20
-10.585055
 10
-1.691625999999999
 20
-10.56919799999999
 10
-1.646659
 20
-10.55325599999999
 10
-1.601637999999999
 20
-10.537205
  0
LWPOLYLINE
  5
12DC
330
1E
100
AcDbEntity
  8
LAYER_1
  6
Continuous
 62
     7
100
AcDbPolyline
 90
        4
 70
     0
 43
0.0
 10
-1.601637999999999
 20
-10.537205
 10
-1.556559
 20
-10.521032
 10
-1.511416999999999
 20
-10.504763
 10
-1.46622
 20
-10.48844099999999
  0
LWPOLYLINE
  5
12E2
330
1E
100
AcDbEntity
  8
LAYER_1
  6
Continuous
 62
     7
100
AcDbPolyline
 90
        4
 70
     0
 43
0.0
 10
-1.46622
 20
-10.48844099999999
 10
-1.420979999999999
 20
-10.472103
 10
-1.375731
 20
-10.455746
 10
-1.330512
 20
-10.439358
  0
LWPOLYLINE
  5
12E8
330
1E
100
AcDbEntity
  8
LAYER_1
  6
Continuous
 62
     7
100
AcDbPolyline
 90
        4
 70
     0
 43
0.0
 10
-1.330512
 20
-10.439358
 10
-1.285337999999999
 20
-10.422924
 10
-1.240170999999999
 20
-10.406458
 10
-1.194968999999999
 20
-10.389969
  0
LWPOLYLINE
  5
12EE
330
1E
100
AcDbEntity
  8
LAYER_1
  6
Continuous
 62
     7
100
AcDbPolyline
 90
        4
 70
     0
 43
0.0
 10
-1.194968999999999
 20
-10.389969
 10
-1.149681999999999
 20
-10.37344999999999
 10
-1.104354999999999
 20
-10.35689499999999
 10
-1.059038999999999
 20
-10.340303
  0
LWPOLYLINE
  5
12F4
330
1E
100
AcDbEntity
  8
LAYER_1
  6
Continuous
 62
     7
100
AcDbPolyline
 90
        4
 70
     0
 43
0.0
 10
-1.059038999999999
 20
-10.340303
 10
-1.013762
 20
-10.32368699999999
 10
-0.968514
 20
-10.307057
 10
-0.9232479999999998
 20
-10.29044099999999
  0
LWPOLYLINE
  5
12FA
330
1E
100
AcDbEntity
  8
LAYER_1
  6
Continuous
 62
     7
100
AcDbPolyline
 90
        4
 70
     0
 43
0.0
 10
-0.9232479999999998
 20
-10.29044099999999
 10
-0.8779290000000001
 20
-10.27384799999999
 10
-0.8325709999999999
 20
-10.25726399999999
 10
-0.7872050000000001
 20
-10.24065
  0
LWPOLYLINE
  5
1300
330
1E
100
AcDbEntity
  8
LAYER_1
  6
Continuous
 62
     7
100
AcDbPolyline
 90
        4
 70
     0
 43
0.0
 10
-0.7872050000000001
 20
-10.24065
 10
-0.741845
 20
-10.22400899999999
 10
-0.6965120000000001
 20
-10.20735399999999
 10
-0.6512050000000001
 20
-10.19071999999999
  0
LWPOLYLINE
  5
1306
330
1E
100
AcDbEntity
  8
LAYER_1
  6
Continuous
 62
     7
100
AcDbPolyline
 90
        4
 70
     0
 43
0.0
 10
-0.6512050000000001
 20
-10.19071999999999
 10
-0.605919
 20
-10.17413899999999
 10
-0.5606520000000001
 20
-10.157582
 10
-0.515374
 20
-10.141
  0
LWPOLYLINE
  5
130C
330
1E
100
AcDbEntity
  8
LAYER_1
  6
Continuous
 62
     7
100
AcDbPolyline
 90
        4
 70
     0
 43
0.0
 10
-0.515374
 20
-10.141
 10
-0.470058
 20
-10.12437199999999
 10
-0.424724
 20
-10.107713
 10
-0.379374
 20
-10.091067
  0
LWPOLYLINE
  5
1312
330
1E
100
AcDbEntity
  8
LAYER_1
  6
Continuous
 62
     7
100
AcDbPolyline
 90
        4
 70
     0
 43
0.0
 10
-0.379374
 20
-10.091067
 10
-0.333995
 20
-10.074463
 10
-0.28861
 20
-10.05789299999999
 10
-0.24322
 20
-10.041346
  0
LWPOLYLINE
  5
1318
330
1E
100
AcDbEntity
  8
LAYER_1
  6
Continuous
 62
     7
100
AcDbPolyline
 90
        4
 70
     0
 43
0.0
 10
-0.24322
 20
-10.041346
 10
-0.197834
 20
-10.024789
 10
-0.15247
 20
-10.00822199999999
 10
-0.10715
 20
-9.991638
  0
LWPOLYLINE
  5
131E
330
1E
100
AcDbEntity
  8
LAYER_1
  6
Continuous
 62
     7
100
AcDbPolyline
 90
        4
 70
     0
 43
0.0
 10
-0.10715
 20
-9.991638
 10
-0.061886
 20
-9.975016999999999
 10
-0.016661
 20
-9.958392999999999
 10
0.028555
 20
-9.941791
  0
LWPOLYLINE
  5
1324
330
1E
100
AcDbEntity
  8
LAYER_1
  6
Continuous
 62
     7
100
AcDbPolyline
 90
        4
 70
     0
 43
0.0
 10
0.028555
 20
-9.941791
 10
0.073787
 20
-9.925221
 10
0.119049
 20
-9.908687999999999
 10
0.164346
 20
-9.892164999999998
  0
LWPOLYLINE
  5
132A
330
1E
100
AcDbEntity
  8
LAYER_1
  6
Continuous
 62
     7
100
AcDbPolyline
 90
        4
 70
     0
 43
0.0
 10
0.164346
 20
-9.892164999999998
 10
0.209685
 20
-9.875626999999999
 10
0.255048
 20
-9.859061
 10
0.300413
 20
-9.842457000000001
  0
LWPOLYLINE
  5
1330
330
1E
100
AcDbEntity
  8
LAYER_1
  6
Continuous
 62
     7
100
AcDbPolyline
 90
        4
 70
     0
 43
0.0
 10
0.300413
 20
-9.842457000000001
 10
0.345769
 20
-9.82581
 10
0.391105
 20
-9.809153
 10
0.4364130000000001
 20
-9.792527999999999
  0
LWPOLYLINE
  5
1336
330
1E
100
AcDbEntity
  8
LAYER_1
  6
Continuous
 62
     7
100
AcDbPolyline
 90
        4
 70
     0
 43
0.0
 10
0.4364130000000001
 20
-9.792527999999999
 10
0.481696
 20
-9.775946000000001
 10
0.5269750000000001
 20
-9.759408999999999
 10
0.572276
 20
-9.742886
  0
LWPOLYLINE
  5
133C
330
1E
100
AcDbEntity
  8
LAYER_1
  6
Continuous
 62
     7
100
AcDbPolyline
 90
        4
 70
     0
 43
0.0
 10
0.572276
 20
-9.742886
 10
0.617606
 20
-9.72635
 10
0.662973
 20
-9.709801999999999
 10
0.7083580000000001
 20
-9.693247999999998
  0
LWPOLYLINE
  5
1342
330
1E
100
AcDbEntity
  8
LAYER_1
  6
Continuous
 62
     7
100
AcDbPolyline
 90
        4
 70
     0
 43
0.0
 10
0.7083580000000001
 20
-9.693247999999998
 10
0.7537510000000001
 20
-9.676696000000001
 10
0.7991620000000001
 20
-9.660142999999999
 10
0.8446100000000001
 20
-9.643582999999999
  0
LWPOLYLINE
  5
1348
330
1E
100
AcDbEntity
  8
LAYER_1
  6
Continuous
 62
     7
100
AcDbPolyline
 90
        4
 70
     0
 43
0.0
 10
0.8446100000000001
 20
-9.643582999999999
 10
0.8898059999999999
 20
-9.627105999999999
 10
0.933342
 20
-9.611228
 10
0.973512
 20
-9.596567
  0
LWPOLYLINE
  5
134E
330
1E
100
AcDbEntity
  8
LAYER_1
  6
Continuous
 62
     7
100
AcDbPolyline
 90
        4
 70
     0
 43
0.0
 10
0.973512
 20
-9.596567
 10
1.008596999999999
 20
-9.583739999999998
 10
1.036934
 20
-9.573366
 10
1.056845999999999
 20
-9.566067
  0
LWPOLYLINE
  5
1354
330
1E
100
AcDbEntity
  8
LAYER_1
  6
Continuous
 62
     7
100
AcDbPolyline
 90
        4
 70
     0
 43
0.0
 10
1.056845999999999
 20
-9.566067
 10
1.067509999999999
 20
-9.562158
 10
1.071439
 20
-9.560717999999999
 10
1.072
 20
-9.560511999999999
  0
LWPOLYLINE
  5
135A
330
1E
100
AcDbEntity
  8
LAYER_1
  6
Continuous
 62
     7
100
AcDbPolyline
 90
        4
 70
     0
 43
0.0
 10
-1.976693
 20
-10.64372
 10
-1.977316999999999
 20
-10.632388
 10
-1.983316
 20
-10.623146
 10
-1.993413
 20
-10.617969
  0
LWPOLYLINE
  5
1360
330
1E
100
AcDbEntity
  8
LAYER_1
  6
Continuous
 62
     7
100
AcDbPolyline
 90
        4
 70
     0
 43
0.0
 10
-1.993413
 20
-10.617969
 10
-2.004745
 20
-10.618588
 10
-2.013983
 20
-10.624591
 10
-2.019165
 20
-10.63469299999999
  0
LWPOLYLINE
  5
1366
330
1E
100
AcDbEntity
  8
LAYER_1
  6
Continuous
 62
     7
100
AcDbPolyline
 90
        4
 70
     0
 43
0.0
 10
-2.019165
 20
-10.63469299999999
 10
-2.018539
 20
-10.646022
 10
-2.012539999999999
 20
-10.65525899999999
 10
-2.002441
 20
-10.660441
  0
LWPOLYLINE
  5
136C
330
1E
100
AcDbEntity
  8
LAYER_1
  6
Continuous
 62
     7
100
AcDbPolyline
 90
        4
 70
     0
 43
0.0
 10
-2.002441
 20
-10.660441
 10
-1.991108
 20
-10.659816
 10
-1.981868
 20
-10.653817
 10
-1.976693
 20
-10.64372
  0
LWPOLYLINE
  5
1372
330
1E
100
AcDbEntity
  8
LAYER_1
  6
Continuous
 62
     7
100
AcDbPolyline
 90
        4
 70
     0
 43
0.0
 10
1.213649999999999
 20
-11.174846
 10
1.213072999999999
 20
-11.17469
 10
1.209037
 20
-11.17359499999999
 10
1.198083
 20
-11.170622
  0
LWPOLYLINE
  5
1378
330
1E
100
AcDbEntity
  8
LAYER_1
  6
Continuous
 62
     7
100
AcDbPolyline
 90
        4
 70
     0
 43
0.0
 10
1.198083
 20
-11.170622
 10
1.177608999999999
 20
-11.16509299999999
 10
1.148471
 20
-11.157235
 10
1.112386
 20
-11.14751199999999
  0
LWPOLYLINE
  5
137E
330
1E
100
AcDbEntity
  8
LAYER_1
  6
Continuous
 62
     7
100
AcDbPolyline
 90
        4
 70
     0
 43
0.0
 10
1.112386
 20
-11.14751199999999
 10
1.071095999999999
 20
-11.13641
 10
1.026344
 20
-11.124388
 10
0.9798860000000001
 20
-11.111913
  0
LWPOLYLINE
  5
1384
330
1E
100
AcDbEntity
  8
LAYER_1
  6
Continuous
 62
     7
100
AcDbPolyline
 90
        4
 70
     0
 43
0.0
 10
0.9798860000000001
 20
-11.111913
 10
0.9331709999999999
 20
-11.099373
 10
0.88649
 20
-11.086835
 10
0.839831
 20
-11.074303
  0
LWPOLYLINE
  5
138A
330
1E
100
AcDbEntity
  8
LAYER_1
  6
Continuous
 62
     7
100
AcDbPolyline
 90
        4
 70
     0
 43
0.0
 10
0.839831
 20
-11.074303
 10
0.7931770000000001
 20
-11.061767
 10
0.746536
 20
-11.049238
 10
0.6999290000000001
 20
-11.03671999999999
  0
LWPOLYLINE
  5
1390
330
1E
100
AcDbEntity
  8
LAYER_1
  6
Continuous
 62
     7
100
AcDbPolyline
 90
        4
 70
     0
 43
0.0
 10
0.6999290000000001
 20
-11.03671999999999
 10
0.6533640000000001
 20
-11.024206
 10
0.6068180000000001
 20
-11.011677
 10
0.560264
 20
-10.99911
  0
LWPOLYLINE
  5
1396
330
1E
100
AcDbEntity
  8
LAYER_1
  6
Continuous
 62
     7
100
AcDbPolyline
 90
        4
 70
     0
 43
0.0
 10
0.560264
 20
-10.99911
 10
0.513679
 20
-10.98648999999999
 10
0.467082
 20
-10.973852
 10
0.4205
 20
-10.961232
  0
LWPOLYLINE
  5
139C
330
1E
100
AcDbEntity
  8
LAYER_1
  6
Continuous
 62
     7
100
AcDbPolyline
 90
        4
 70
     0
 43
0.0
 10
0.4205
 20
-10.961232
 10
0.373946
 20
-10.948666
 10
0.327417
 20
-10.936141
 10
0.280902
 20
-10.923638
  0
LWPOLYLINE
  5
13A2
330
1E
100
AcDbEntity
  8
LAYER_1
  6
Continuous
 62
     7
100
AcDbPolyline
 90
        4
 70
     0
 43
0.0
 10
0.280902
 20
-10.923638
 10
0.234397
 20
-10.911135
 10
0.18789
 20
-10.898613
 10
0.141386
 20
-10.886055
  0
LWPOLYLINE
  5
13A8
330
1E
100
AcDbEntity
  8
LAYER_1
  6
Continuous
 62
     7
100
AcDbPolyline
 90
        4
 70
     0
 43
0.0
 10
0.141386
 20
-10.886055
 10
0.09489
 20
-10.873459
 10
0.048386
 20
-10.86083499999999
 10
0.001846
 20
-10.84821999999999
  0
LWPOLYLINE
  5
13AE
330
1E
100
AcDbEntity
  8
LAYER_1
  6
Continuous
 62
     7
100
AcDbPolyline
 90
        4
 70
     0
 43
0.0
 10
0.001846
 20
-10.84821999999999
 10
-0.044747
 20
-10.83564999999999
 10
-0.091381
 20
-10.82310099999999
 10
-0.138039
 20
-10.810567
  0
LWPOLYLINE
  5
13B4
330
1E
100
AcDbEntity
  8
LAYER_1
  6
Continuous
 62
     7
100
AcDbPolyline
 90
        4
 70
     0
 43
0.0
 10
-0.138039
 20
-10.810567
 10
-0.18469
 20
-10.798034
 10
-0.231321
 20
-10.785486
 10
-0.277913
 20
-10.772913
  0
LWPOLYLINE
  5
13BA
330
1E
100
AcDbEntity
  8
LAYER_1
  6
Continuous
 62
     7
100
AcDbPolyline
 90
        4
 70
     0
 43
0.0
 10
-0.277913
 20
-10.772913
 10
-0.324462
 20
-10.7603
 10
-0.370991
 20
-10.74767199999999
 10
-0.4175390000000001
 20
-10.735067
  0
LWPOLYLINE
  5
13C0
330
1E
100
AcDbEntity
  8
LAYER_1
  6
Continuous
 62
     7
100
AcDbPolyline
 90
        4
 70
     0
 43
0.0
 10
-0.4175390000000001
 20
-10.735067
 10
-0.464134
 20
-10.72248599999999
 10
-0.5107619999999999
 20
-10.709919
 10
-0.5574020000000001
 20
-10.697331
  0
LWPOLYLINE
  5
13C6
330
1E
100
AcDbEntity
  8
LAYER_1
  6
Continuous
 62
     7
100
AcDbPolyline
 90
        4
 70
     0
 43
0.0
 10
-0.5574020000000001
 20
-10.697331
 10
-0.604044
 20
-10.68469899999999
 10
-0.650661
 20
-10.672052
 10
-0.697248
 20
-10.659429
  0
LWPOLYLINE
  5
13CC
330
1E
100
AcDbEntity
  8
LAYER_1
  6
Continuous
 62
     7
100
AcDbPolyline
 90
        4
 70
     0
 43
0.0
 10
-0.697248
 20
-10.659429
 10
-0.743804
 20
-10.64686699999999
 10
-0.790346
 20
-10.63431999999999
 10
-0.836902
 20
-10.62174799999999
  0
LWPOLYLINE
  5
13D2
330
1E
100
AcDbEntity
  8
LAYER_1
  6
Continuous
 62
     7
100
AcDbPolyline
 90
        4
 70
     0
 43
0.0
 10
-0.836902
 20
-10.62174799999999
 10
-0.8834760000000001
 20
-10.609125
 10
-0.9300679999999999
 20
-10.59648099999999
 10
-0.97665
 20
-10.58385799999999
  0
LWPOLYLINE
  5
13D8
330
1E
100
AcDbEntity
  8
LAYER_1
  6
Continuous
 62
     7
100
AcDbPolyline
 90
        4
 70
     0
 43
0.0
 10
-0.97665
 20
-10.58385799999999
 10
-1.023203
 20
-10.5713
 10
-1.069730999999999
 20
-10.558779
 10
-1.116247999999999
 20
-10.54627599999999
  0
LWPOLYLINE
  5
13DE
330
1E
100
AcDbEntity
  8
LAYER_1
  6
Continuous
 62
     7
100
AcDbPolyline
 90
        4
 70
     0
 43
0.0
 10
-1.116247999999999
 20
-10.54627599999999
 10
-1.16276
 20
-10.53377899999999
 10
-1.209255999999999
 20
-10.5213
 10
-1.25572
 20
-10.508858
  0
LWPOLYLINE
  5
13E4
330
1E
100
AcDbEntity
  8
LAYER_1
  6
Continuous
 62
     7
100
AcDbPolyline
 90
        4
 70
     0
 43
0.0
 10
-1.25572
 20
-10.508858
 10
-1.302162
 20
-10.496482
 10
-1.348579999999999
 20
-10.484144
 10
-1.394984
 20
-10.471831
  0
LWPOLYLINE
  5
13EA
330
1E
100
AcDbEntity
  8
LAYER_1
  6
Continuous
 62
     7
100
AcDbPolyline
 90
        4
 70
     0
 43
0.0
 10
-1.394984
 20
-10.471831
 10
-1.441375999999999
 20
-10.459529
 10
-1.487763999999999
 20
-10.44725899999999
 10
-1.534138
 20
-10.435067
  0
LWPOLYLINE
  5
13F0
330
1E
100
AcDbEntity
  8
LAYER_1
  6
Continuous
 62
     7
100
AcDbPolyline
 90
        4
 70
     0
 43
0.0
 10
-1.534138
 20
-10.435067
 10
-1.580475999999999
 20
-10.422976
 10
-1.626747999999999
 20
-10.41099699999999
 10
-1.672929
 20
-10.39911
  0
LWPOLYLINE
  5
13F6
330
1E
100
AcDbEntity
  8
LAYER_1
  6
Continuous
 62
     7
100
AcDbPolyline
 90
        4
 70
     0
 43
0.0
 10
-1.672929
 20
-10.39911
 10
-1.718983
 20
-10.387306
 10
-1.764958
 20
-10.37559399999999
 10
-1.810902
 20
-10.363984
  0
LWPOLYLINE
  5
13FC
330
1E
100
AcDbEntity
  8
LAYER_1
  6
Continuous
 62
     7
100
AcDbPolyline
 90
        4
 70
     0
 43
0.0
 10
-1.810902
 20
-10.363984
 10
-1.856845
 20
-10.352471
 10
-1.902745
 20
-10.34108
 10
-1.948539
 20
-10.329819
  0
LWPOLYLINE
  5
1402
330
1E
100
AcDbEntity
  8
LAYER_1
  6
Continuous
 62
     7
100
AcDbPolyline
 90
        4
 70
     0
 43
0.0
 10
-1.948539
 20
-10.329819
 10
-1.994181
 20
-10.318712
 10
-2.039686
 20
-10.30777599999999
 10
-2.085093999999999
 20
-10.297039
  0
LWPOLYLINE
  5
1408
330
1E
100
AcDbEntity
  8
LAYER_1
  6
Continuous
 62
     7
100
AcDbPolyline
 90
        4
 70
     0
 43
0.0
 10
-2.085093999999999
 20
-10.297039
 10
-2.130443999999999
 20
-10.286522
 10
-2.175686
 20
-10.276251
 10
-2.220775999999999
 20
-10.266232
  0
LWPOLYLINE
  5
140E
330
1E
100
AcDbEntity
  8
LAYER_1
  6
Continuous
 62
     7
100
AcDbPolyline
 90
        4
 70
     0
 43
0.0
 10
-2.220775999999999
 20
-10.266232
 10
-2.265670999999999
 20
-10.25647599999999
 10
-2.310350999999999
 20
-10.24698
 10
-2.354802999999999
 20
-10.23774799999999
  0
LWPOLYLINE
  5
1414
330
1E
100
AcDbEntity
  8
LAYER_1
  6
Continuous
 62
     7
100
AcDbPolyline
 90
        4
 70
     0
 43
0.0
 10
-2.354802999999999
 20
-10.23774799999999
 10
-2.398989999999999
 20
-10.2288
 10
-2.442863
 20
-10.220195
 10
-2.486345999999999
 20
-10.212
  0
LWPOLYLINE
  5
141A
330
1E
100
AcDbEntity
  8
LAYER_1
  6
Continuous
 62
     7
100
AcDbPolyline
 90
        4
 70
     0
 43
0.0
 10
-2.486345999999999
 20
-10.212
 10
-2.529351999999999
 20
-10.204269
 10
-2.571787
 20
-10.19702499999999
 10
-2.613528
 20
-10.190276
  0
LWPOLYLINE
  5
1420
330
1E
100
AcDbEntity
  8
LAYER_1
  6
Continuous
 62
     7
100
AcDbPolyline
 90
        4
 70
     0
 43
0.0
 10
-2.613528
 20
-10.190276
 10
-2.654436999999999
 20
-10.184034
 10
-2.694298999999999
 20
-10.178403
 10
-2.732886
 20
-10.173484
  0
LWPOLYLINE
  5
1426
330
1E
100
AcDbEntity
  8
LAYER_1
  6
Continuous
 62
     7
100
AcDbPolyline
 90
        4
 70
     0
 43
0.0
 10
-2.732886
 20
-10.173484
 10
-2.769963999999999
 20
-10.169346
 10
-2.805356
 20
-10.166005
 10
-2.838886
 20
-10.163441
  0
LWPOLYLINE
  5
142C
330
1E
100
AcDbEntity
  8
LAYER_1
  6
Continuous
 62
     7
100
AcDbPolyline
 90
        4
 70
     0
 43
0.0
 10
-2.838886
 20
-10.163441
 10
-2.870404999999999
 20
-10.16164099999999
 10
-2.899818
 20
-10.16057999999999
 10
-2.927050999999999
 20
-10.160232
  0
LWPOLYLINE
  5
1432
330
1E
100
AcDbEntity
  8
LAYER_1
  6
Continuous
 62
     7
100
AcDbPolyline
 90
        4
 70
     0
 43
0.0
 10
-2.927050999999999
 20
-10.160232
 10
-2.952061999999999
 20
-10.16056099999999
 10
-2.97495
 20
-10.161471
 10
-2.995842999999999
 20
-10.162846
  0
LWPOLYLINE
  5
1438
330
1E
100
AcDbEntity
  8
LAYER_1
  6
Continuous
 62
     7
100
AcDbPolyline
 90
        4
 70
     0
 43
0.0
 10
-2.995842999999999
 20
-10.162846
 10
-3.014869
 20
-10.16457299999999
 10
-3.032172999999999
 20
-10.166589
 10
-3.047897999999999
 20
-10.168846
  0
LWPOLYLINE
  5
143E
330
1E
100
AcDbEntity
  8
LAYER_1
  6
Continuous
 62
     7
100
AcDbPolyline
 90
        4
 70
     0
 43
0.0
 10
-3.047897999999999
 20
-10.168846
 10
-3.062183
 20
-10.171321
 10
-3.075177999999999
 20
-10.17396999999999
 10
-3.087034999999999
 20
-10.176791
  0
LWPOLYLINE
  5
1444
330
1E
100
AcDbEntity
  8
LAYER_1
  6
Continuous
 62
     7
100
AcDbPolyline
 90
        4
 70
     0
 43
0.0
 10
-3.087034999999999
 20
-10.176791
 10
-3.097893999999999
 20
-10.179771
 10
-3.107848
 20
-10.182906
 10
-3.116983999999999
 20
-10.18619299999999
  0
LWPOLYLINE
  5
144A
330
1E
100
AcDbEntity
  8
LAYER_1
  6
Continuous
 62
     7
100
AcDbPolyline
 90
        4
 70
     0
 43
0.0
 10
-3.116983999999999
 20
-10.18619299999999
 10
-3.125391999999999
 20
-10.189631
 10
-3.133141
 20
-10.19319599999999
 10
-3.140315
 20
-10.196846
  0
LWPOLYLINE
  5
1450
330
1E
100
AcDbEntity
  8
LAYER_1
  6
Continuous
 62
     7
100
AcDbPolyline
 90
        4
 70
     0
 43
0.0
 10
-3.140315
 20
-10.196846
 10
-3.146972
 20
-10.20056
 10
-3.153127
 20
-10.204377
 10
-3.158771999999999
 20
-10.208358
  0
LWPOLYLINE
  5
1456
330
1E
100
AcDbEntity
  8
LAYER_1
  6
Continuous
 62
     7
100
AcDbPolyline
 90
        4
 70
     0
 43
0.0
 10
-3.158771999999999
 20
-10.208358
 10
-3.163891999999999
 20
-10.21255
 10
-3.168461999999999
 20
-10.21695299999999
 10
-3.172441
 20
-10.22155499999999
  0
LWPOLYLINE
  5
145C
330
1E
100
AcDbEntity
  8
LAYER_1
  6
Continuous
 62
     7
100
AcDbPolyline
 90
        4
 70
     0
 43
0.0
 10
-3.172441
 20
-10.22155499999999
 10
-3.175815
 20
-10.226329
 10
-3.178596999999999
 20
-10.23128999999999
 10
-3.180819
 20
-10.236429
  0
LWPOLYLINE
  5
1462
330
1E
100
AcDbEntity
  8
LAYER_1
  6
Continuous
 62
     7
100
AcDbPolyline
 90
        4
 70
     0
 43
0.0
 10
-3.180819
 20
-10.236429
 10
-3.182503
 20
-10.241731
 10
-3.183659
 20
-10.247182
 10
-3.184286999999999
 20
-10.25276399999999
  0
LWPOLYLINE
  5
1468
330
1E
100
AcDbEntity
  8
LAYER_1
  6
Continuous
 62
     7
100
AcDbPolyline
 90
        4
 70
     0
 43
0.0
 10
-3.184286999999999
 20
-10.25276399999999
 10
-3.184365
 20
-10.25845399999999
 10
-3.183864999999999
 20
-10.264216
 10
-3.18274
 20
-10.26999999999999
  0
LWPOLYLINE
  5
146E
330
1E
100
AcDbEntity
  8
LAYER_1
  6
Continuous
 62
     7
100
AcDbPolyline
 90
        4
 70
     0
 43
0.0
 10
-3.18274
 20
-10.26999999999999
 10
-3.180966
 20
-10.275784
 10
-3.178582
 20
-10.281583
 10
-3.17565
 20
-10.287441
  0
LWPOLYLINE
  5
1474
330
1E
100
AcDbEntity
  8
LAYER_1
  6
Continuous
 62
     7
100
AcDbPolyline
 90
        4
 70
     0
 43
0.0
 10
-3.17565
 20
-10.287441
 10
-3.172213
 20
-10.293395
 10
-3.168250999999999
 20
-10.29944399999999
 10
-3.163727999999999
 20
-10.305583
  0
LWPOLYLINE
  5
147A
330
1E
100
AcDbEntity
  8
LAYER_1
  6
Continuous
 62
     7
100
AcDbPolyline
 90
        4
 70
     0
 43
0.0
 10
-3.163727999999999
 20
-10.305583
 10
-3.158611
 20
-10.311793
 10
-3.152871999999999
 20
-10.31811699999999
 10
-3.146484
 20
-10.324594
  0
LWPOLYLINE
  5
1480
330
1E
100
AcDbEntity
  8
LAYER_1
  6
Continuous
 62
     7
100
AcDbPolyline
 90
        4
 70
     0
 43
0.0
 10
-3.146484
 20
-10.324594
 10
-3.139406999999999
 20
-10.331281
 10
-3.131566999999999
 20
-10.3382
 10
-3.12287
 20
-10.345386
  0
LWPOLYLINE
  5
1486
330
1E
100
AcDbEntity
  8
LAYER_1
  6
Continuous
 62
     7
100
AcDbPolyline
 90
        4
 70
     0
 43
0.0
 10
-3.12287
 20
-10.345386
 10
-3.113208
 20
-10.352882
 10
-3.102454999999999
 20
-10.360705
 10
-3.090479999999999
 20
-10.368858
  0
LWPOLYLINE
  5
148C
330
1E
100
AcDbEntity
  8
LAYER_1
  6
Continuous
 62
     7
100
AcDbPolyline
 90
        4
 70
     0
 43
0.0
 10
-3.090479999999999
 20
-10.368858
 10
-3.077141
 20
-10.377353
 10
-3.062263
 20
-10.38621199999999
 10
-3.045660999999999
 20
-10.395457
  0
LWPOLYLINE
  5
1492
330
1E
100
AcDbEntity
  8
LAYER_1
  6
Continuous
 62
     7
100
AcDbPolyline
 90
        4
 70
     0
 43
0.0
 10
-3.045660999999999
 20
-10.395457
 10
-3.027166999999999
 20
-10.4051
 10
-3.006622
 20
-10.415124
 10
-2.983886
 20
-10.4255
  0
LWPOLYLINE
  5
1498
330
1E
100
AcDbEntity
  8
LAYER_1
  6
Continuous
 62
     7
100
AcDbPolyline
 90
        4
 70
     0
 43
0.0
 10
-2.983886
 20
-10.4255
 10
-2.958855999999999
 20
-10.436199
 10
-2.931550999999999
 20
-10.447172
 10
-2.902027999999999
 20
-10.458346
  0
LWPOLYLINE
  5
149E
330
1E
100
AcDbEntity
  8
LAYER_1
  6
Continuous
 62
     7
100
AcDbPolyline
 90
        4
 70
     0
 43
0.0
 10
-2.902027999999999
 20
-10.458346
 10
-2.870352999999999
 20
-10.46964
 10
-2.836664999999999
 20
-10.48100099999999
 10
-2.801122
 20
-10.49235799999999
  0
LWPOLYLINE
  5
14A4
330
1E
100
AcDbEntity
  8
LAYER_1
  6
Continuous
 62
     7
100
AcDbPolyline
 90
        4
 70
     0
 43
0.0
 10
-2.801122
 20
-10.49235799999999
 10
-2.763888999999999
 20
-10.50365899999999
 10
-2.725208
 20
-10.51484499999999
 10
-2.685318999999999
 20
-10.52588599999999
  0
LWPOLYLINE
  5
14AA
330
1E
100
AcDbEntity
  8
LAYER_1
  6
Continuous
 62
     7
100
AcDbPolyline
 90
        4
 70
     0
 43
0.0
 10
-2.685318999999999
 20
-10.52588599999999
 10
-2.644452
 20
-10.53675299999999
 10
-2.602741999999999
 20
-10.547419
 10
-2.560302999999999
 20
-10.55785799999999
  0
LWPOLYLINE
  5
14B0
330
1E
100
AcDbEntity
  8
LAYER_1
  6
Continuous
 62
     7
100
AcDbPolyline
 90
        4
 70
     0
 43
0.0
 10
-2.560302999999999
 20
-10.55785799999999
 10
-2.517249
 20
-10.56804999999999
 10
-2.473672999999999
 20
-10.57803
 10
-2.429664999999999
 20
-10.587831
  0
LWPOLYLINE
  5
14B6
330
1E
100
AcDbEntity
  8
LAYER_1
  6
Continuous
 62
     7
100
AcDbPolyline
 90
        4
 70
     0
 43
0.0
 10
-2.429664999999999
 20
-10.587831
 10
-2.385307
 20
-10.597466
 10
-2.340641999999999
 20
-10.606937
 10
-2.295692999999999
 20
-10.61622
  0
LWPOLYLINE
  5
14BC
330
1E
100
AcDbEntity
  8
LAYER_1
  6
Continuous
 62
     7
100
AcDbPolyline
 90
        4
 70
     0
 43
0.0
 10
-2.295692999999999
 20
-10.61622
 10
-2.250496
 20
-10.62529499999999
 10
-2.205054999999999
 20
-10.634196
 10
-2.159386
 20
-10.64298399999999
  0
LWPOLYLINE
  5
14C2
330
1E
100
AcDbEntity
  8
LAYER_1
  6
Continuous
 62
     7
100
AcDbPolyline
 90
        4
 70
     0
 43
0.0
 10
-2.159386
 20
-10.64298399999999
 10
-2.113506999999999
 20
-10.65169699999999
 10
-2.067438
 20
-10.660325
 10
-2.021205
 20
-10.668846
  0
LWPOLYLINE
  5
14C8
330
1E
100
AcDbEntity
  8
LAYER_1
  6
Continuous
 62
     7
100
AcDbPolyline
 90
        4
 70
     0
 43
0.0
 10
-2.021205
 20
-10.668846
 10
-1.974845
 20
-10.677238
 10
-1.928352
 20
-10.68550899999999
 10
-1.881731999999999
 20
-10.693677
  0
LWPOLYLINE
  5
14CE
330
1E
100
AcDbEntity
  8
LAYER_1
  6
Continuous
 62
     7
100
AcDbPolyline
 90
        4
 70
     0
 43
0.0
 10
-1.881731999999999
 20
-10.693677
 10
-1.835006
 20
-10.701755
 10
-1.788174
 20
-10.70976999999999
 10
-1.741263999999999
 20
-10.71773199999999
  0
LWPOLYLINE
  5
14D4
330
1E
100
AcDbEntity
  8
LAYER_1
  6
Continuous
 62
     7
100
AcDbPolyline
 90
        4
 70
     0
 43
0.0
 10
-1.741263999999999
 20
-10.71773199999999
 10
-1.694284
 20
-10.725643
 10
-1.647222999999999
 20
-10.73350099999999
 10
-1.600066999999999
 20
-10.741291
  0
LWPOLYLINE
  5
14DA
330
1E
100
AcDbEntity
  8
LAYER_1
  6
Continuous
 62
     7
100
AcDbPolyline
 90
        4
 70
     0
 43
0.0
 10
-1.600066999999999
 20
-10.741291
 10
-1.552793
 20
-10.74900399999999
 10
-1.505425999999999
 20
-10.756664
 10
-1.457983999999999
 20
-10.76430299999999
  0
LWPOLYLINE
  5
14E0
330
1E
100
AcDbEntity
  8
LAYER_1
  6
Continuous
 62
     7
100
AcDbPolyline
 90
        4
 70
     0
 43
0.0
 10
-1.457983999999999
 20
-10.76430299999999
 10
-1.410492999999999
 20
-10.77194199999999
 10
-1.362983
 20
-10.779566
 10
-1.315484
 20
-10.78715
  0
LWPOLYLINE
  5
14E6
330
1E
100
AcDbEntity
  8
LAYER_1
  6
Continuous
 62
     7
100
AcDbPolyline
 90
        4
 70
     0
 43
0.0
 10
-1.315484
 20
-10.78715
 10
-1.268013999999999
 20
-10.794688
 10
-1.220536
 20
-10.802186
 10
-1.173
 20
-10.809677
  0
LWPOLYLINE
  5
14EC
330
1E
100
AcDbEntity
  8
LAYER_1
  6
Continuous
 62
     7
100
AcDbPolyline
 90
        4
 70
     0
 43
0.0
 10
-1.173
 20
-10.809677
 10
-1.125385999999999
 20
-10.817182
 10
-1.077717
 20
-10.824678
 10
-1.030038999999999
 20
-10.832138
  0
LWPOLYLINE
  5
14F2
330
1E
100
AcDbEntity
  8
LAYER_1
  6
Continuous
 62
     7
100
AcDbPolyline
 90
        4
 70
     0
 43
0.0
 10
-1.030038999999999
 20
-10.832138
 10
-0.9823809999999999
 20
-10.839553
 10
-0.934745
 20
-10.84694299999999
 10
-0.887094
 20
-10.85435799999999
  0
LWPOLYLINE
  5
14F8
330
1E
100
AcDbEntity
  8
LAYER_1
  6
Continuous
 62
     7
100
AcDbPolyline
 90
        4
 70
     0
 43
0.0
 10
-0.887094
 20
-10.85435799999999
 10
-0.8394109999999999
 20
-10.861817
 10
-0.791699
 20
-10.869301
 10
-0.743969
 20
-10.87677599999999
  0
LWPOLYLINE
  5
14FE
330
1E
100
AcDbEntity
  8
LAYER_1
  6
Continuous
 62
     7
100
AcDbPolyline
 90
        4
 70
     0
 43
0.0
 10
-0.743969
 20
-10.87677599999999
 10
-0.696232
 20
-10.884202
 10
-0.648508
 20
-10.89160899999999
 10
-0.600819
 20
-10.89902799999999
  0
LWPOLYLINE
  5
1504
330
1E
100
AcDbEntity
  8
LAYER_1
  6
Continuous
 62
     7
100
AcDbPolyline
 90
        4
 70
     0
 43
0.0
 10
-0.600819
 20
-10.89902799999999
 10
-0.553173
 20
-10.90648399999999
 10
-0.5055490000000001
 20
-10.91395099999999
 10
-0.4579130000000001
 20
-10.921402
  0
LWPOLYLINE
  5
150A
330
1E
100
AcDbEntity
  8
LAYER_1
  6
Continuous
 62
     7
100
AcDbPolyline
 90
        4
 70
     0
 43
0.0
 10
-0.4579130000000001
 20
-10.921402
 10
-0.41022
 20
-10.92882499999999
 10
-0.362489
 20
-10.936232
 10
-0.314748
 20
-10.943665
  0
LWPOLYLINE
  5
1510
330
1E
100
AcDbEntity
  8
LAYER_1
  6
Continuous
 62
     7
100
AcDbPolyline
 90
        4
 70
     0
 43
0.0
 10
-0.314748
 20
-10.943665
 10
-0.267016
 20
-10.951135
 10
-0.219291
 20
-10.958641
 10
-0.171567
 20
-10.966165
  0
LWPOLYLINE
  5
1516
330
1E
100
AcDbEntity
  8
LAYER_1
  6
Continuous
 62
     7
100
AcDbPolyline
 90
        4
 70
     0
 43
0.0
 10
-0.171567
 20
-10.966165
 10
-0.123847
 20
-10.97369799999999
 10
-0.076139
 20
-10.98120399999999
 10
-0.028457
 20
-10.98866499999999
  0
LWPOLYLINE
  5
151C
330
1E
100
AcDbEntity
  8
LAYER_1
  6
Continuous
 62
     7
100
AcDbPolyline
 90
        4
 70
     0
 43
0.0
 10
-0.028457
 20
-10.98866499999999
 10
0.01919
 20
-10.99608
 10
0.066811
 20
-11.00346199999999
 10
0.114413
 20
-11.010858
  0
LWPOLYLINE
  5
1522
330
1E
100
AcDbEntity
  8
LAYER_1
  6
Continuous
 62
     7
100
AcDbPolyline
 90
        4
 70
     0
 43
0.0
 10
0.114413
 20
-11.010858
 10
0.161997
 20
-11.01830099999999
 10
0.209592
 20
-11.025783
 10
0.25722
 20
-11.033291
  0
LWPOLYLINE
  5
1528
330
1E
100
AcDbEntity
  8
LAYER_1
  6
Continuous
 62
     7
100
AcDbPolyline
 90
        4
 70
     0
 43
0.0
 10
0.25722
 20
-11.033291
 10
0.304894
 20
-11.040805
 10
0.352602
 20
-11.04831099999999
 10
0.400331
 20
-11.055791
  0
LWPOLYLINE
  5
152E
330
1E
100
AcDbEntity
  8
LAYER_1
  6
Continuous
 62
     7
100
AcDbPolyline
 90
        4
 70
     0
 43
0.0
 10
0.400331
 20
-11.055791
 10
0.4480710000000001
 20
-11.063216
 10
0.495799
 20
-11.070628
 10
0.543484
 20
-11.078055
  0
LWPOLYLINE
  5
1534
330
1E
100
AcDbEntity
  8
LAYER_1
  6
Continuous
 62
     7
100
AcDbPolyline
 90
        4
 70
     0
 43
0.0
 10
0.543484
 20
-11.078055
 10
0.5911270000000001
 20
-11.085506
 10
0.6387470000000001
 20
-11.092992
 10
0.6863739999999999
 20
-11.10049999999999
  0
LWPOLYLINE
  5
153A
330
1E
100
AcDbEntity
  8
LAYER_1
  6
Continuous
 62
     7
100
AcDbPolyline
 90
        4
 70
     0
 43
0.0
 10
0.6863739999999999
 20
-11.10049999999999
 10
0.734047
 20
-11.108016
 10
0.781751
 20
-11.11553999999999
 10
0.8294689999999999
 20
-11.123067
  0
LWPOLYLINE
  5
1540
330
1E
100
AcDbEntity
  8
LAYER_1
  6
Continuous
 62
     7
100
AcDbPolyline
 90
        4
 70
     0
 43
0.0
 10
0.8294689999999999
 20
-11.123067
 10
0.877194
 20
-11.130602
 10
0.924934
 20
-11.13813
 10
0.9727049999999998
 20
-11.145665
  0
LWPOLYLINE
  5
1546
330
1E
100
AcDbEntity
  8
LAYER_1
  6
Continuous
 62
     7
100
AcDbPolyline
 90
        4
 70
     0
 43
0.0
 10
0.9727049999999998
 20
-11.145665
 10
1.020232
 20
-11.15317299999999
 10
1.066008999999999
 20
-11.16039299999999
 10
1.108247999999999
 20
-11.167039
  0
LWPOLYLINE
  5
154C
330
1E
100
AcDbEntity
  8
LAYER_1
  6
Continuous
 62
     7
100
AcDbPolyline
 90
        4
 70
     0
 43
0.0
 10
1.108247999999999
 20
-11.167039
 10
1.145153
 20
-11.172839
 10
1.174969
 20
-11.17750599999999
 10
1.195929
 20
-11.180776
  0
LWPOLYLINE
  5
1552
330
1E
100
AcDbEntity
  8
LAYER_1
  6
Continuous
 62
     7
100
AcDbPolyline
 90
        4
 70
     0
 43
0.0
 10
1.195929
 20
-11.180776
 10
1.207138999999999
 20
-11.182535
 10
1.211268
 20
-11.183183
 10
1.211858
 20
-11.18327599999999
  0
LWPOLYLINE
  5
1558
330
1E
100
AcDbEntity
  8
LAYER_1
  6
Continuous
 62
     7
100
AcDbPolyline
 90
        2
 70
     0
 43
0.0
 10
-3.279255999999999
 20
-12.997094
 10
-3.230109999999999
 20
-12.997094
  0
LWPOLYLINE
  5
155C
330
1E
100
AcDbEntity
  8
LAYER_1
  6
Continuous
 62
     7
100
AcDbPolyline
 90
        2
 70
     0
 43
0.0
 10
-3.279255999999999
 20
-12.00177599999999
 10
-3.230109999999999
 20
-12.00177599999999
  0
LWPOLYLINE
  5
1560
330
1E
100
AcDbEntity
  8
LAYER_1
  6
Continuous
 62
     7
100
AcDbPolyline
 90
        2
 70
     0
 43
0.0
 10
-3.279255999999999
 20
-10.994165
 10
-3.230109999999999
 20
-10.994165
  0
LWPOLYLINE
  5
1564
330
1E
100
AcDbEntity
  8
LAYER_1
  6
Continuous
 62
     7
100
AcDbPolyline
 90
        2
 70
     0
 43
0.0
 10
-3.279255999999999
 20
-9.998858
 10
-3.230109999999999
 20
-9.998858
  0
LWPOLYLINE
  5
1568
330
1E
100
AcDbEntity
  8
LAYER_1
  6
Continuous
 62
     7
100
AcDbPolyline
 90
        2
 70
     0
 43
0.0
 10
-3.279255999999999
 20
-9.003538999999999
 10
-3.230109999999999
 20
-9.003538999999999
  0
LWPOLYLINE
  5
156C
330
1E
100
AcDbEntity
  8
LAYER_1
  6
Continuous
 62
     7
100
AcDbPolyline
 90
        2
 70
     0
 43
0.0
 10
-3.279255999999999
 20
-7.995941
 10
-3.230109999999999
 20
-7.995941
  0
LWPOLYLINE
  5
1570
330
1E
100
AcDbEntity
  8
LAYER_1
  6
Continuous
 62
     7
100
AcDbPolyline
 90
        2
 70
     0
 43
0.0
 10
-3.279255999999999
 20
-7.000621999999999
 10
-3.230109999999999
 20
-7.000621999999999
  0
LWPOLYLINE
  5
1574
330
1E
100
AcDbEntity
  8
LAYER_1
  6
Continuous
 62
     7
100
AcDbPolyline
 90
        2
 70
     0
 43
0.0
 10
-3.279255999999999
 20
-6.005310999999999
 10
-3.230109999999999
 20
-6.005310999999999
  0
LWPOLYLINE
  5
1578
330
1E
100
AcDbEntity
  8
LAYER_1
  6
Continuous
 62
     7
100
AcDbPolyline
 90
        2
 70
     0
 43
0.0
 10
-3.279255999999999
 20
-4.997708999999999
 10
-3.230109999999999
 20
-4.997708999999999
  0
LWPOLYLINE
  5
157C
330
1E
100
AcDbEntity
  8
LAYER_1
  6
Continuous
 62
     7
100
AcDbPolyline
 90
        2
 70
     0
 43
0.0
 10
-3.279255999999999
 20
-4.002402
 10
-3.230109999999999
 20
-4.002402
  0
LWPOLYLINE
  5
1580
330
1E
100
AcDbEntity
  8
LAYER_1
  6
Continuous
 62
     7
100
AcDbPolyline
 90
        2
 70
     0
 43
0.0
 10
-3.279255999999999
 20
-2.994791
 10
-3.230109999999999
 20
-2.994791
  0
LWPOLYLINE
  5
1584
330
1E
100
AcDbEntity
  8
LAYER_1
  6
Continuous
 62
     7
100
AcDbPolyline
 90
        2
 70
     0
 43
0.0
 10
-3.279255999999999
 20
-1.999468999999999
 10
-3.230109999999999
 20
-1.999468999999999
  0
LWPOLYLINE
  5
1588
330
1E
100
AcDbEntity
  8
LAYER_1
  6
Continuous
 62
     7
100
AcDbPolyline
 90
        2
 70
     0
 43
0.0
 10
-3.248539
 20
-0.9980549999999999
 10
-2.292402
 20
-1.000358
  0
LWPOLYLINE
  5
158C
330
1E
100
AcDbEntity
  8
LAYER_1
  6
Continuous
 62
     7
100
AcDbPolyline
 90
        3
 70
     0
 43
0.0
 10
-2.402913
 20
-0.969374
 10
-2.292402
 20
-1.000358
 10
-2.403054999999999
 20
-1.030803
  0
LWPOLYLINE
  5
1591
330
1E
100
AcDbEntity
  8
LAYER_1
  6
Continuous
 62
     7
100
AcDbPolyline
 90
       10
 70
     0
 43
0.0
 10
-3.248539
 20
-14.00314999999999
 10
-3.248399
 20
-14.001318
 10
-3.247415999999999
 20
-13.988496
 10
-3.244747
 20
-13.953695
 10
-3.239549999999999
 20
-13.885924
 10
-3.230981
 20
-13.77419299999999
 10
-3.218199
 20
-13.607512
 10
-3.200361
 20
-13.374892
 10
-3.176622
 20
-13.065343
 10
-3.146141999999999
 20
-12.667874
  0
LWPOLYLINE
  5
159D
330
1E
100
AcDbEntity
  8
LAYER_1
  6
Continuous
 62
     7
100
AcDbPolyline
 90
       43
 70
     0
 43
0.0
 10
-3.146141999999999
 20
-12.667874
 10
-3.138656
 20
-12.570256
 10
-3.130835999999999
 20
-12.46827899999999
 10
-3.122695
 20
-12.362125
 10
-3.114247999999999
 20
-12.25197599999999
 10
-3.105509
 20
-12.138014
 10
-3.096492
 20
-12.020422
 10
-3.087209999999999
 20
-11.89938099999999
 10
-3.077679
 20
-11.77507499999999
 10
-3.067911
 20
-11.647685
 10
-3.057920999999999
 20
-11.517394
 10
-3.047722
 20
-11.38438399999999
 10
-3.037329999999999
 20
-11.248837
 10
-3.026758
 20
-11.110936
 10
-3.016019
 20
-10.97086299999999
 10
-3.005128
 20
-10.828799
 10
-2.994099
 20
-10.684928
 10
-2.982947
 20
-10.539432
 10
-2.971684
 20
-10.39249199999999
 10
-2.960325
 20
-10.24429199999999
 10
-2.948883999999999
 20
-10.09501299999999
 10
-2.937374999999999
 20
-9.944838
 10
-2.925812
 20
-9.793949000000001
 10
-2.914208999999999
 20
-9.642528
 10
-2.90258
 20
-9.490757999999999
 10
-2.89094
 20
-9.33882
 10
-2.879300999999999
 20
-9.186897999999999
 10
-2.867677999999999
 20
-9.035173
 10
-2.856085999999999
 20
-8.883827999999999
 10
-2.844538
 20
-8.733043999999999
 10
-2.833047999999999
 20
-8.583004999999999
 10
-2.821629999999999
 20
-8.433892
 10
-2.810297999999999
 20
-8.285887999999999
 10
-2.799065999999999
 20
-8.139174999999999
 10
-2.787949
 20
-7.993935
 10
-2.776959999999999
 20
-7.850350999999999
 10
-2.766113
 20
-7.708605
 10
-2.755422
 20
-7.568878999999999
 10
-2.744902
 20
-7.431354999999999
 10
-2.734566
 20
-7.296216
 10
-2.724428
 20
-7.163644
 10
-2.714501999999999
 20
-7.033821
 10
-2.704803
 20
-6.906928999999998
  0
LWPOLYLINE
  5
15CA
330
1E
100
AcDbEntity
  8
LAYER_1
  6
Continuous
 62
     7
100
AcDbPolyline
 90
       25
 70
     0
 43
0.0
 10
-2.704803
 20
-6.906928999999998
 10
-2.688394999999999
 20
-6.692247999999999
 10
-2.672668999999999
 20
-6.486743999999999
 10
-2.657572999999999
 20
-6.290057
 10
-2.643051999999999
 20
-6.101829
 10
-2.629054
 20
-5.9217
 10
-2.615524999999999
 20
-5.749312
 10
-2.602411999999999
 20
-5.584305
 10
-2.589660999999999
 20
-5.426319999999999
 10
-2.57722
 20
-5.274999
 10
-2.565034999999999
 20
-5.129980999999999
 10
-2.553052
 20
-4.990908
 10
-2.541218999999999
 20
-4.857419999999999
 10
-2.529481999999999
 20
-4.729158999999999
 10
-2.517786999999999
 20
-4.605766
 10
-2.506082
 20
-4.486880999999999
 10
-2.494311999999999
 20
-4.372145999999999
 10
-2.482425999999999
 20
-4.261199999999999
 10
-2.470368999999999
 20
-4.153685
 10
-2.458086999999999
 20
-4.049242999999999
 10
-2.445529
 20
-3.947512999999999
 10
-2.43264
 20
-3.848137
 10
-2.419366999999999
 20
-3.750755
 10
-2.405657
 20
-3.655008999999999
 10
-2.391456999999999
 20
-3.560538999999999
  0
LWPOLYLINE
  5
15E5
330
1E
100
AcDbEntity
  8
LAYER_1
  6
Continuous
 62
     7
100
AcDbPolyline
 90
       14
 70
     0
 43
0.0
 10
-2.391456999999999
 20
-3.560538999999999
 10
-2.363823
 20
-3.388730999999999
 10
-2.334306
 20
-3.220493999999999
 10
-2.302875999999999
 20
-3.056275999999999
 10
-2.269503999999999
 20
-2.896520999999999
 10
-2.234159999999999
 20
-2.741677
 10
-2.196816
 20
-2.592189999999999
 10
-2.157440999999999
 20
-2.448504999999999
 10
-2.116006999999999
 20
-2.311068
 10
-2.072483
 20
-2.180327
 10
-2.026841999999999
 20
-2.056726999999999
 10
-1.979053
 20
-1.940713
 10
-1.929086
 20
-1.832733
 10
-1.876913
 20
-1.733231999999999
  0
LWPOLYLINE
  5
15F5
330
1E
100
AcDbEntity
  8
LAYER_1
  6
Continuous
 62
     7
100
AcDbPolyline
 90
        7
 70
     0
 43
0.0
 10
-1.876913
 20
-1.733231999999999
 10
-1.756924
 20
-1.547315
 10
-1.630743
 20
-1.398544
 10
-1.502670999999999
 20
-1.282170999999999
 10
-1.377012
 20
-1.193443999999999
 10
-1.258065999999999
 20
-1.127613999999999
 10
-1.150137999999999
 20
-1.079929
  0
LWPOLYLINE
  5
15FE
330
1E
100
AcDbEntity
  8
LAYER_1
  6
Continuous
 62
     7
100
AcDbPolyline
 90
        4
 70
     0
 43
0.0
 10
-1.150137999999999
 20
-1.079929
 10
-0.975694
 20
-1.02336
 10
-0.8439770000000001
 20
-1.002456999999999
 10
-0.7364410000000001
 20
-0.999303
  0
LWPOLYLINE
  5
1604
330
1E
100
AcDbEntity
  8
LAYER_1
  6
Continuous
 62
     7
100
AcDbPolyline
 90
        4
 70
     0
 43
0.0
 10
-0.7364410000000001
 20
-0.999303
 10
-0.637822
 20
-0.998966
 10
-0.545967
 20
-0.998517
 10
-0.462012
 20
-0.9980120000000001
  0
LWPOLYLINE
  5
160A
330
1E
100
AcDbEntity
  8
LAYER_1
  6
Continuous
 62
     7
100
AcDbPolyline
 90
        4
 70
     0
 43
0.0
 10
-0.462012
 20
-0.9980120000000001
 10
-0.387454
 20
-0.9991419999999999
 10
-0.325124
 20
-1.010118
 10
-0.278205
 20
-1.040775999999999
  0
LWPOLYLINE
  5
1610
330
1E
100
AcDbEntity
  8
LAYER_1
  6
Continuous
 62
     7
100
AcDbPolyline
 90
        4
 70
     0
 43
0.0
 10
-0.278205
 20
-1.040775999999999
 10
-0.246883
 20
-1.110406999999999
 10
-0.219255
 20
-1.276118
 10
-0.180413
 20
-1.604469
  0
LWPOLYLINE
  5
1616
330
1E
100
AcDbEntity
  8
LAYER_1
  6
Continuous
 62
     7
100
AcDbPolyline
 90
       15
 70
     0
 43
0.0
 10
-0.180413
 20
-1.604469
 10
-0.169241
 20
-1.702156
 10
-0.156947
 20
-1.80967
 10
-0.143611
 20
-1.926311
 10
-0.129311
 20
-2.051379
 10
-0.114125
 20
-2.184175
 10
-0.098132
 20
-2.323999999999999
 10
-0.08141
 20
-2.470156
 10
-0.064038
 20
-2.621941999999999
 10
-0.046094
 20
-2.778659
 10
-0.027657
 20
-2.939608999999999
 10
-0.008805
 20
-3.104091999999999
 10
0.010384
 20
-3.271409
 10
0.029831
 20
-3.440860999999999
 10
0.049457
 20
-3.611748
  0
LWPOLYLINE
  5
1627
330
1E
100
AcDbEntity
  8
LAYER_1
  6
Continuous
 62
     7
100
AcDbPolyline
 90
       21
 70
     0
 43
0.0
 10
0.049457
 20
-3.611748
 10
0.063272
 20
-3.731933
 10
0.07717
 20
-3.852758
 10
0.091183
 20
-3.974496999999999
 10
0.105342
 20
-4.097430999999999
 10
0.11968
 20
-4.221834999999999
 10
0.134229
 20
-4.347987999999999
 10
0.149022
 20
-4.476166
 10
0.16409
 20
-4.606646999999999
 10
0.179467
 20
-4.739708999999999
 10
0.195183
 20
-4.875627999999999
 10
0.211272
 20
-5.014683999999999
 10
0.227766
 20
-5.157150999999999
 10
0.244696
 20
-5.303309999999999
 10
0.262096
 20
-5.453434999999999
 10
0.279996
 20
-5.607806
 10
0.298431
 20
-5.7667
 10
0.317431
 20
-5.930393
 10
0.33703
 20
-6.099164
 10
0.357258
 20
-6.273289
 10
0.37815
 20
-6.453046999999999
  0
LWPOLYLINE
  5
163E
330
1E
100
AcDbEntity
  8
LAYER_1
  6
Continuous
 62
     7
100
AcDbPolyline
 90
       29
 70
     0
 43
0.0
 10
0.37815
 20
-6.453046999999999
 10
0.39349
 20
-6.584988
 10
0.4091540000000001
 20
-6.719692
 10
0.425111
 20
-6.856903999999999
 10
0.44133
 20
-6.996372999999999
 10
0.4577790000000001
 20
-7.137846
 10
0.474428
 20
-7.281069
 10
0.4912470000000001
 20
-7.425788999999999
 10
0.508203
 20
-7.571753999999999
 10
0.5252670000000001
 20
-7.718710999999999
 10
0.542407
 20
-7.866407
 10
0.559592
 20
-8.014587999999999
 10
0.5767920000000001
 20
-8.163002
 10
0.593975
 20
-8.311396
 10
0.6111100000000001
 20
-8.459516999999999
 10
0.628167
 20
-8.607111999999998
 10
0.6451150000000001
 20
-8.753928
 10
0.6619229999999999
 20
-8.899711999999999
 10
0.678559
 20
-9.044211
 10
0.694994
 20
-9.187172
 10
0.7111950000000001
 20
-9.328342999999998
 10
0.7271320000000001
 20
-9.46747
 10
0.742775
 20
-9.6043
 10
0.758091
 20
-9.73858
 10
0.7730510000000001
 20
-9.870058
 10
0.787623
 20
-9.998480999999999
 10
0.801777
 20
-10.123595
 10
0.8154809999999999
 20
-10.245148
 10
0.8287049999999998
 20
-10.362886
  0
LWPOLYLINE
  5
165D
330
1E
100
AcDbEntity
  8
LAYER_1
  6
Continuous
 62
     7
100
AcDbPolyline
 90
       16
 70
     0
 43
0.0
 10
0.8287049999999998
 20
-10.362886
 10
0.8520459999999998
 20
-10.572006
 10
0.873679
 20
-10.767841
 10
0.893678
 20
-10.95127799999999
 10
0.9121169999999999
 20
-11.12320399999999
 10
0.9290709999999998
 20
-11.28450299999999
 10
0.9446139999999999
 20
-11.436064
 10
0.95882
 20
-11.57877299999999
 10
0.9717639999999999
 20
-11.71351499999999
 10
0.983519
 20
-11.84117799999999
 10
0.9941600000000001
 20
-11.962649
 10
1.003759999999999
 20
-12.078813
 10
1.012395
 20
-12.190558
 10
1.020138999999999
 20
-12.298769
 10
1.027064999999999
 20
-12.404334
 10
1.033247999999999
 20
-12.508138
  0
LWPOLYLINE
  5
166F
330
1E
100
AcDbEntity
  8
LAYER_1
  6
Continuous
 62
     7
100
AcDbPolyline
 90
        9
 70
     0
 43
0.0
 10
1.033247999999999
 20
-12.508138
 10
1.04306
 20
-12.699725
 10
1.050791
 20
-12.885793
 10
1.05671
 20
-13.06389299999999
 10
1.061087999999999
 20
-13.231578
 10
1.064194
 20
-13.38639899999999
 10
1.066297999999999
 20
-13.52591
 10
1.067670999999999
 20
-13.64766099999999
 10
1.068583
 20
-13.74920499999999
  0
LWPOLYLINE
  5
167A
330
1E
100
AcDbEntity
  8
LAYER_1
  6
Continuous
 62
     7
100
AcDbPolyline
 90
        4
 70
     0
 43
0.0
 10
1.068583
 20
-13.74920499999999
 10
1.070018
 20
-13.919257
 10
1.070546999999999
 20
-13.981908
 10
1.070621999999999
 20
-13.99085799999999
  0
LWPOLYLINE
  5
1680
330
1E
100
AcDbEntity
  8
LAYER_1
  6
DASHED
 62
     7
100
AcDbPolyline
 90
        4
 70
     0
 43
0.0
 10
-3.250074999999999
 20
-14.00008299999999
 10
-2.25015
 20
-0.9995549999999999
 10
-0.250303
 20
-0.9995549999999999
 10
1.250330999999999
 20
-14.00008299999999
  0
LWPOLYLINE
  5
1686
330
1E
100
AcDbEntity
  8
LAYER_1
  6
Continuous
 62
     7
100
AcDbPolyline
 90
        7
 70
     1
 43
0.0
 10
-2.041263999999999
 20
-10.531846
 10
-2.041263999999999
 20
-10.69926399999999
 10
-2.495913
 20
-10.700803
 10
-2.661802999999999
 20
-10.68696899999999
 10
-2.753956999999999
 20
-10.67621999999999
 10
-2.064302999999999
 20
-10.67621999999999
 10
-2.064302999999999
 20
-10.531846
  0
LWPOLYLINE
  5
168F
330
1E
100
AcDbEntity
  8
LAYER_1
  6
Continuous
 62
     7
100
AcDbPolyline
 90
        4
 70
     0
 43
0.0
 10
-1.936831
 20
-11.815913
 10
-1.945216999999999
 20
-11.784908
 10
-1.967254999999999
 20
-11.762871
 10
-1.998263999999999
 20
-11.754484
  0
LWPOLYLINE
  5
1695
330
1E
100
AcDbEntity
  8
LAYER_1
  6
Continuous
 62
     7
100
AcDbPolyline
 90
        4
 70
     0
 43
0.0
 10
-1.998263999999999
 20
-11.754484
 10
-2.029268999999999
 20
-11.762871
 10
-2.051306999999999
 20
-11.784908
 10
-2.059693
 20
-11.815913
  0
LWPOLYLINE
  5
169B
330
1E
100
AcDbEntity
  8
LAYER_1
  6
Continuous
 62
     7
100
AcDbPolyline
 90
        4
 70
     0
 43
0.0
 10
-2.059693
 20
-11.815913
 10
-2.051306999999999
 20
-11.846925
 10
-2.029268999999999
 20
-11.868969
 10
-1.998263999999999
 20
-11.877358
  0
LWPOLYLINE
  5
16A1
330
1E
100
AcDbEntity
  8
LAYER_1
  6
Continuous
 62
     7
100
AcDbPolyline
 90
        4
 70
     0
 43
0.0
 10
-1.998263999999999
 20
-11.877358
 10
-1.967254999999999
 20
-11.868969
 10
-1.945216999999999
 20
-11.846925
 10
-1.936831
 20
-11.815913
  0
LWPOLYLINE
  5
16A7
330
1E
100
AcDbEntity
  8
LAYER_1
  6
Continuous
 62
     7
100
AcDbPolyline
 90
        4
 70
     0
 43
0.0
 10
-2.753956999999999
 20
-10.677764
 10
-2.74969
 20
-10.684875
 10
-2.719825
 20
-10.734653
 10
-2.638764
 20
-10.86976399999999
  0
LWPOLYLINE
  5
16AD
330
1E
100
AcDbEntity
  8
LAYER_1
  6
Continuous
 62
     7
100
AcDbPolyline
 90
        6
 70
     0
 43
0.0
 10
-2.638764
 20
-10.86976399999999
 10
-2.557627
 20
-11.004977
 10
-2.459708
 20
-11.168161
 10
-2.355868999999999
 20
-11.341202
 10
-2.256969999999999
 20
-11.50598699999999
 10
-2.173874
 20
-11.644402
  0
LWPOLYLINE
  5
16B5
330
1E
100
AcDbEntity
  8
LAYER_1
  6
Continuous
 62
     7
100
AcDbPolyline
 90
        4
 70
     0
 43
0.0
 10
-2.173874
 20
-11.644402
 10
-2.087480999999999
 20
-11.78797
 10
-2.050349
 20
-11.84813899999999
 10
-2.037676999999999
 20
-11.865067
  0
LWPOLYLINE
  5
16BB
330
1E
100
AcDbEntity
  8
LAYER_1
  6
Continuous
 62
     7
100
AcDbPolyline
 90
        4
 70
     0
 43
0.0
 10
-2.037676999999999
 20
-11.865067
 10
-2.028783
 20
-11.87229499999999
 10
-2.01944
 20
-11.876789
 10
-2.009527999999999
 20
-11.87888599999999
  0
LWPOLYLINE
  5
16C1
330
1E
100
AcDbEntity
  8
LAYER_1
  6
Continuous
 62
     7
100
AcDbPolyline
 90
        4
 70
     0
 43
0.0
 10
-2.009527999999999
 20
-11.87888599999999
 10
-1.998998
 20
-11.87892799999999
 10
-1.988134
 20
-11.87715
 10
-1.977263999999999
 20
-11.873776
  0
LWPOLYLINE
  5
16C7
330
1E
100
AcDbEntity
  8
LAYER_1
  6
Continuous
 62
     7
100
AcDbPolyline
 90
        4
 70
     0
 43
0.0
 10
-1.977263999999999
 20
-11.873776
 10
-1.966797
 20
-11.868997
 10
-1.957356
 20
-11.862855
 10
-1.949622
 20
-11.855346
  0
LWPOLYLINE
  5
16CD
330
1E
100
AcDbEntity
  8
LAYER_1
  6
Continuous
 62
     7
100
AcDbPolyline
 90
        4
 70
     0
 43
0.0
 10
-1.949622
 20
-11.855346
 10
-1.944079
 20
-11.84654499999999
 10
-1.940475999999999
 20
-11.836834
 10
-1.938358
 20
-11.826665
  0
LWPOLYLINE
  5
16D3
330
1E
100
AcDbEntity
  8
LAYER_1
  6
Continuous
 62
     7
100
AcDbPolyline
 90
        4
 70
     0
 43
0.0
 10
-1.938358
 20
-11.826665
 10
-1.937938
 20
-11.809868
 10
-1.942183999999999
 20
-11.75370299999999
 10
-1.954731999999999
 20
-11.61880299999999
  0
LWPOLYLINE
  5
16D9
330
1E
100
AcDbEntity
  8
LAYER_1
  6
Continuous
 62
     7
100
AcDbPolyline
 90
        5
 70
     0
 43
0.0
 10
-1.954731999999999
 20
-11.61880299999999
 10
-1.970972
 20
-11.45066099999999
 10
-1.990572999999999
 20
-11.249782
 10
-2.010174
 20
-11.04986199999999
 10
-2.026413
 20
-10.884594
  0
LWPOLYLINE
  5
16E0
330
1E
100
AcDbEntity
  8
LAYER_1
  6
Continuous
 62
     7
100
AcDbPolyline
 90
        4
 70
     0
 43
0.0
 10
-2.026413
 20
-10.884594
 10
-2.039022
 20
-10.756335
 10
-2.043666999999999
 20
-10.709081
 10
-2.044331
 20
-10.702331
  0
LWPOLYLINE
  5
16E6
330
1E
100
AcDbEntity
  8
LAYER_1
  6
Continuous
 62
     7
100
AcDbPolyline
 90
        4
 70
     0
 43
0.0
 10
-2.316886
 20
-13.997819
 10
-2.327793
 20
-13.957491
 10
-2.356456999999999
 20
-13.92882399999999
 10
-2.396790999999999
 20
-13.917913
  0
LWPOLYLINE
  5
16EC
330
1E
100
AcDbEntity
  8
LAYER_1
  6
Continuous
 62
     7
100
AcDbPolyline
 90
        4
 70
     0
 43
0.0
 10
-2.396790999999999
 20
-13.917913
 10
-2.437116
 20
-13.92882399999999
 10
-2.465783
 20
-13.957491
 10
-2.476693
 20
-13.997819
  0
LWPOLYLINE
  5
16F2
330
1E
100
AcDbEntity
  8
LAYER_1
  6
Continuous
 62
     7
100
AcDbPolyline
 90
        4
 70
     0
 43
0.0
 10
-2.476693
 20
-13.997819
 10
-2.465783
 20
-14.038144
 10
-2.437116
 20
-14.06681
 10
-2.396790999999999
 20
-14.07772
  0
LWPOLYLINE
  5
16F8
330
1E
100
AcDbEntity
  8
LAYER_1
  6
Continuous
 62
     7
100
AcDbPolyline
 90
        4
 70
     0
 43
0.0
 10
-2.396790999999999
 20
-14.07772
 10
-2.356456999999999
 20
-14.06681
 10
-2.327793
 20
-14.038144
 10
-2.316886
 20
-13.997819
  0
LWPOLYLINE
  5
16FE
330
1E
100
AcDbEntity
  8
LAYER_1
  6
Continuous
 62
     7
100
AcDbPolyline
 90
        4
 70
     1
 43
0.0
 10
-2.050790999999999
 20
-13.33985799999999
 10
-1.940204999999999
 20
-13.33985799999999
 10
-1.940204999999999
 20
-13.42135799999999
 10
-2.050790999999999
 20
-13.50864999999999
  0
LWPOLYLINE
  5
1704
330
1E
100
AcDbEntity
  8
LAYER_1
  6
Continuous
 62
     7
100
AcDbPolyline
 90
        4
 70
     1
 43
0.0
 10
-2.050790999999999
 20
-14.473413
 10
-1.940204999999999
 20
-14.552
 10
-1.940204999999999
 20
-14.63638599999999
 10
-2.050790999999999
 20
-14.63638599999999
  0
LWPOLYLINE
  5
170A
330
1E
100
AcDbEntity
  8
LAYER_1
  6
DASHED
 62
     7
100
AcDbPolyline
 90
        2
 70
     0
 43
0.0
 10
-1.997083
 20
-12.49708299999999
 10
-1.997083
 20
-15.495319
  0
LWPOLYLINE
  5
170E
330
1E
100
AcDbEntity
  8
LAYER_1
  6
Continuous
 62
     7
100
AcDbPolyline
 90
        2
 70
     0
 43
0.0
 10
-3.236256
 20
-14.403067
 10
-1.998263999999999
 20
-14.403067
  0
LWPOLYLINE
  5
1712
330
1E
100
AcDbEntity
  8
LAYER_1
  6
Continuous
 62
     7
100
AcDbPolyline
 90
        3
 70
     0
 43
0.0
 10
-3.125665
 20
-14.433791
 10
-3.236256
 20
-14.403067
 10
-3.125665
 20
-14.37235799999999
  0
LWPOLYLINE
  5
1717
330
1E
100
AcDbEntity
  8
LAYER_1
  6
Continuous
 62
     7
100
AcDbPolyline
 90
        3
 70
     0
 43
0.0
 10
-2.108845999999999
 20
-14.37235799999999
 10
-1.998263999999999
 20
-14.403067
 10
-2.108845999999999
 20
-14.433791
  0
LWPOLYLINE
  5
171C
330
1E
100
AcDbEntity
  8
LAYER_1
  6
Continuous
 62
     7
100
AcDbPolyline
 90
        4
 70
     0
 43
0.0
 10
-2.084276
 20
-13.15990199999999
 10
-2.086835999999999
 20
-13.15992099999999
 10
-2.104756999999999
 20
-13.160053
 10
-2.153402
 20
-13.160413
  0
LWPOLYLINE
  5
1722
330
1E
100
AcDbEntity
  8
LAYER_1
  6
Continuous
 62
     7
100
AcDbPolyline
 90
        4
 70
     0
 43
0.0
 10
-2.153402
 20
-13.160413
 10
-2.24104
 20
-13.161156
 10
-2.347682999999999
 20
-13.16258099999999
 10
-2.446247999999999
 20
-13.165028
  0
LWPOLYLINE
  5
1728
330
1E
100
AcDbEntity
  8
LAYER_1
  6
Continuous
 62
     7
100
AcDbPolyline
 90
        4
 70
     0
 43
0.0
 10
-2.446247999999999
 20
-13.165028
 10
-2.516172
 20
-13.169288
 10
-2.562877999999999
 20
-13.177988
 10
-2.598319
 20
-13.19420499999999
  0
LWPOLYLINE
  5
172E
330
1E
100
AcDbEntity
  8
LAYER_1
  6
Continuous
 62
     7
100
AcDbPolyline
 90
        4
 70
     0
 43
0.0
 10
-2.598319
 20
-13.19420499999999
 10
-2.632395
 20
-13.221072
 10
-2.666811
 20
-13.26205
 10
-2.70122
 20
-13.320665
  0
LWPOLYLINE
  5
1734
330
1E
100
AcDbEntity
  8
LAYER_1
  6
Continuous
 62
     7
100
AcDbPolyline
 90
        4
 70
     0
 43
0.0
 10
-2.70122
 20
-13.320665
 10
-2.735071
 20
-13.398907
 10
-2.766871
 20
-13.492621
 10
-2.794913
 20
-13.59612199999999
  0
LWPOLYLINE
  5
173A
330
1E
100
AcDbEntity
  8
LAYER_1
  6
Continuous
 62
     7
100
AcDbPolyline
 90
        4
 70
     0
 43
0.0
 10
-2.794913
 20
-13.59612199999999
 10
-2.817772
 20
-13.703238
 10
-2.835049
 20
-13.805921
 10
-2.846638
 20
-13.895638
  0
LWPOLYLINE
  5
1740
330
1E
100
AcDbEntity
  8
LAYER_1
  6
Continuous
 62
     7
100
AcDbPolyline
 90
        4
 70
     0
 43
0.0
 10
-2.846638
 20
-13.895638
 10
-2.852432999999999
 20
-13.967654
 10
-2.852432999999999
 20
-14.03250799999999
 10
-2.846638
 20
-14.104528
  0
LWPOLYLINE
  5
1746
330
1E
100
AcDbEntity
  8
LAYER_1
  6
Continuous
 62
     7
100
AcDbPolyline
 90
        4
 70
     0
 43
0.0
 10
-2.846638
 20
-14.104528
 10
-2.835049
 20
-14.194205
 10
-2.817772
 20
-14.296626
 10
-2.794913
 20
-14.40302799999999
  0
LWPOLYLINE
  5
174C
330
1E
100
AcDbEntity
  8
LAYER_1
  6
Continuous
 62
     7
100
AcDbPolyline
 90
        4
 70
     0
 43
0.0
 10
-2.794913
 20
-14.40302799999999
 10
-2.766909
 20
-14.505228
 10
-2.735376
 20
-14.597423
 10
-2.702247999999999
 20
-14.67437399999999
  0
LWPOLYLINE
  5
1752
330
1E
100
AcDbEntity
  8
LAYER_1
  6
Continuous
 62
     7
100
AcDbPolyline
 90
        4
 70
     0
 43
0.0
 10
-2.702247999999999
 20
-14.67437399999999
 10
-2.669064
 20
-14.73228599999999
 10
-2.635768
 20
-14.77313299999999
 10
-2.601901999999999
 20
-14.80033099999999
  0
LWPOLYLINE
  5
1758
330
1E
100
AcDbEntity
  8
LAYER_1
  6
Continuous
 62
     7
100
AcDbPolyline
 90
        4
 70
     0
 43
0.0
 10
-2.601901999999999
 20
-14.80033099999999
 10
-2.565189
 20
-14.817146
 10
-2.516075999999999
 20
-14.826339
 10
-2.443176999999999
 20
-14.830528
  0
LWPOLYLINE
  5
175E
330
1E
100
AcDbEntity
  8
LAYER_1
  6
Continuous
 62
     7
100
AcDbPolyline
 90
        4
 70
     0
 43
0.0
 10
-2.443176999999999
 20
-14.830528
 10
-2.341597
 20
-14.832049
 10
-2.232275
 20
-14.832087
 10
-2.142638
 20
-14.83155499999999
  0
LWPOLYLINE
  5
1764
330
1E
100
AcDbEntity
  8
LAYER_1
  6
Continuous
 62
     7
100
AcDbPolyline
 90
        4
 70
     0
 43
0.0
 10
-2.142638
 20
-14.83155499999999
 10
-2.092918999999999
 20
-14.831203
 10
-2.074600999999999
 20
-14.83107399999999
 10
-2.071984
 20
-14.83105499999999
  0
LWPOLYLINE
  5
176A
330
1E
100
AcDbEntity
  8
LAYER_1
  6
Continuous
 62
     7
100
AcDbPolyline
 90
        2
 70
     0
 43
0.0
 10
-3.248539
 20
-14.797264
 10
-3.248539
 20
-14.201291
  0
LWPOLYLINE
  5
176E
330
1E
100
AcDbEntity
  8
LAYER_1
  6
Continuous
 62
     7
100
AcDbPolyline
 90
        4
 70
     0
 43
0.0
 10
-2.505138
 20
-12.76053899999999
 10
-2.504075999999999
 20
-12.76057699999999
 10
-2.49664
 20
-12.760844
 10
-2.476456999999999
 20
-12.761567
  0
LWPOLYLINE
  5
1774
330
1E
100
AcDbEntity
  8
LAYER_1
  6
Continuous
 62
     7
100
AcDbPolyline
 90
        4
 70
     0
 43
0.0
 10
-2.476456999999999
 20
-12.761567
 10
-2.441036999999999
 20
-12.763977
 10
-2.403338
 20
-12.77332499999999
 10
-2.380205
 20
-12.795874
  0
LWPOLYLINE
  5
177A
330
1E
100
AcDbEntity
  8
LAYER_1
  6
Continuous
 62
     7
100
AcDbPolyline
 90
        4
 70
     0
 43
0.0
 10
-2.380205
 20
-12.795874
 10
-2.382500999999999
 20
-12.835092
 10
-2.397197
 20
-12.883295
 10
-2.405291
 20
-12.93001199999999
  0
LWPOLYLINE
  5
1780
330
1E
100
AcDbEntity
  8
LAYER_1
  6
Continuous
 62
     7
100
AcDbPolyline
 90
        4
 70
     0
 43
0.0
 10
-2.405291
 20
-12.93001199999999
 10
-2.393120999999999
 20
-12.96674499999999
 10
-2.368316999999999
 20
-12.99278
 10
-2.343857999999999
 20
-13.009374
  0
LWPOLYLINE
  5
1786
330
1E
100
AcDbEntity
  8
LAYER_1
  6
Continuous
 62
     7
100
AcDbPolyline
 90
        4
 70
     0
 43
0.0
 10
-2.343857999999999
 20
-13.009374
 10
-2.329804
 20
-13.018023
 10
-2.324625999999999
 20
-13.02121
 10
-2.323885999999999
 20
-13.021665
  0
LWPOLYLINE
  5
178C
330
1E
100
AcDbEntity
  8
LAYER_1
  6
DASHED
 62
     7
100
AcDbPolyline
 90
        5
 70
     0
 43
0.0
 10
-2.833830999999999
 20
-14.007764
 10
-2.833830999999999
 20
-13.817303
 10
-2.317747999999999
 20
-13.00015
 10
-1.946038999999999
 20
-13.00015
 10
-1.946038999999999
 20
-13.998539
  0
LWPOLYLINE
  5
1793
330
1E
100
AcDbEntity
  8
LAYER_1
  6
DASHED
 62
     7
100
AcDbPolyline
 90
        2
 70
     0
 43
0.0
 10
-4.25
 20
-15.008457
 10
-3.758483999999999
 20
-15.008457
  0
LWPOLYLINE
  5
1797
330
1E
100
AcDbEntity
  8
LAYER_1
  6
DASHED
 62
     7
100
AcDbPolyline
 90
        2
 70
     0
 43
0.0
 10
3.761665
 20
-15.008457
 10
4.253176999999999
 20
-15.008457
  0
LWPOLYLINE
  5
179B
330
1E
100
AcDbEntity
  8
LAYER_1
  6
DASHED
 62
     7
100
AcDbPolyline
 90
        2
 70
     0
 43
0.0
 10
-4.25
 20
-5.006149999999999
 10
-3.758483999999999
 20
-5.006149999999999
  0
LWPOLYLINE
  5
179F
330
1E
100
AcDbEntity
  8
LAYER_1
  6
DASHED
 62
     7
100
AcDbPolyline
 90
        2
 70
     0
 43
0.0
 10
3.761665
 20
-5.006149999999999
 10
4.253176999999999
 20
-5.006149999999999
  0
ENDSEC
  0
SECTION
  2
OBJECTS
  0
DICTIONARY
  5
C
330
0
100
AcDbDictionary
281
     1
  3
ACAD_GROUP
350
D
  3
ACAD_LAYOUT
350
19
  3
ACAD_MLINESTYLE
350
16
  3
ACAD_PLOTSETTINGS
350
18
  3
ACAD_PLOTSTYLENAME
350
E
  0
DICTIONARY
  5
D
102
{ACAD_REACTORS
330
C
102
}
330
C
100
AcDbDictionary
281
     1
  0
DICTIONARY
  5
19
102
{ACAD_REACTORS
330
C
102
}
330
C
100
AcDbDictionary
281
     1
  3
Layout1
350
1D
  3
Model
350
21
  0
DICTIONARY
  5
16
102
{ACAD_REACTORS
330
C
102
}
330
C
100
AcDbDictionary
281
     1
  3
Standard
350
17
  0
DICTIONARY
  5
18
102
{ACAD_REACTORS
330
C
102
}
330
C
100
AcDbDictionary
281
     1
  0
ACDBDICTIONARYWDFLT
  5
E
102
{ACAD_REACTORS
330
C
102
}
330
C
100
AcDbDictionary
281
     1
  3
Normal
350
F
100
AcDbDictionaryWithDefault
340
F
  0
LAYOUT
  5
1D
102
{ACAD_REACTORS
330
19
102
}
330
19
100
AcDbPlotSettings
  1

  2
Epson FX-80
  4

  6

 40
0.0
 41
0.0
 42
0.0
 43
0.0
 44
0.0
 45
0.0
 46
0.0
 47
0.0
 48
0.0
 49
0.0
140
0.0
141
0.0
142
1.0
143
1.0
 70
   688
 72
     0
 73
     0
 74
     5
  7

 75
    16
147
1.0
148
0.0
149
0.0
100
AcDbLayout
  1
Layout1
 70
     1
 71
     1
 10
0.0
 20
0.0
 11
12.0
 21
9.0
 12
0.0
 22
0.0
 32
0.0
 14
1.000000000000000E+20
 24
1.000000000000000E+20
 34
1.000000000000000E+20
 15
-1.000000000000000E+20
 25
-1.000000000000000E+20
 35
-1.000000000000000E+20
146
0.0
 13
0.0
 23
0.0
 33
0.0
 16
1.0
 26
0.0
 36
0.0
 17
0.0
 27
1.0
 37
0.0
 76
     0
330
1A
  0
LAYOUT
  5
21
102
{ACAD_REACTORS
330
19
102
}
330
19
100
AcDbPlotSettings
  1

  2
Epson FX-80
  4

  6

 40
0.0
 41
0.0
 42
0.0
 43
0.0
 44
0.0
 45
0.0
 46
0.0
 47
0.0
 48
0.0
 49
0.0
140
0.0
141
0.0
142
1.0
143
1.0
 70
  1712
 72
     0
 73
     0
 74
     0
  7

 75
     0
147
1.0
148
0.0
149
0.0
100
AcDbLayout
  1
Model
 70
     1
 71
     0
 10
0.0
 20
0.0
 11
12.0
 21
9.0
 12
0.0
 22
0.0
 32
0.0
 14
0.0
 24
0.0
 34
0.0
 15
0.0
 25
0.0
 35
0.0
146
0.0
 13
0.0
 23
0.0
 33
0.0
 16
1.0
 26
0.0
 36
0.0
 17
0.0
 27
1.0
 37
0.0
 76
     0
330
1E
  0
MLINESTYLE
  5
17
102
{ACAD_REACTORS
330
16
102
}
330
16
100
AcDbMlineStyle
  2
STANDARD
 70
     0
  3

 62
   256
 51
90.0
 52
90.0
 71
     2
 49
0.5
 62
   256
  6
BYLAYER
 49
-0.5
 62
   256
  6
BYLAYER
  0
ACDBPLACEHOLDER
  5
F
102
{ACAD_REACTORS
330
E
102
}
330
E
  0
ENDSEC
  0
EOF
