  0
SECTION
  2
HEADER
  9
$ACADVER
  1
AC1015
  9
$ACADMAINTVER
 70
    10
  9
$DWGCODEPAGE
  3
ANSI_1252
  9
$INSBASE
 10
0.0
 20
0.0
 30
0.0
  9
$EXTMIN
 10
-7.506591336964365
 20
-15.19006983076463
 30
0.0
  9
$EXTMAX
 10
4.353594
 20
8.561484409380582
 30
0.0
  9
$LIMMIN
 10
0.0
 20
0.0
  9
$LIMMAX
 10
12.0
 20
9.0
  9
$ORTHOMODE
 70
     0
  9
$REGENMODE
 70
     1
  9
$FILLMODE
 70
     1
  9
$QTEXTMODE
 70
     0
  9
$MIRRTEXT
 70
     1
  9
$LTSCALE
 40
0.000394
  9
$ATTMODE
 70
     1
  9
$TEXTSIZE
 40
0.2
  9
$TRACEWID
 40
0.05
  9
$TEXTSTYLE
  7
Standard
  9
$CLAYER
  8
0
  9
$CELTYPE
  6
CONTINUOUS
  9
$CECOLOR
 62
   256
  9
$CELTSCALE
 40
1.0
  9
$DISPSILH
 70
     0
  9
$DIMSCALE
 40
1.0
  9
$DIMASZ
 40
0.18
  9
$DIMEXO
 40
0.0625
  9
$DIMDLI
 40
0.38
  9
$DIMRND
 40
0.0
  9
$DIMDLE
 40
0.0
  9
$DIMEXE
 40
0.18
  9
$DIMTP
 40
0.0
  9
$DIMTM
 40
0.0
  9
$DIMTXT
 40
0.18
  9
$DIMCEN
 40
0.09
  9
$DIMTSZ
 40
0.0
  9
$DIMTOL
 70
     0
  9
$DIMLIM
 70
     0
  9
$DIMTIH
 70
     1
  9
$DIMTOH
 70
     1
  9
$DIMSE1
 70
     0
  9
$DIMSE2
 70
     0
  9
$DIMTAD
 70
     0
  9
$DIMZIN
 70
     0
  9
$DIMBLK
  1

  9
$DIMASO
 70
     1
  9
$DIMSHO
 70
     1
  9
$DIMPOST
  1

  9
$DIMAPOST
  1

  9
$DIMALT
 70
     0
  9
$DIMALTD
 70
     2
  9
$DIMALTF
 40
25.4
  9
$DIMLFAC
 40
1.0
  9
$DIMTOFL
 70
     0
  9
$DIMTVP
 40
0.0
  9
$DIMTIX
 70
     0
  9
$DIMSOXD
 70
     0
  9
$DIMSAH
 70
     0
  9
$DIMBLK1
  1

  9
$DIMBLK2
  1

  9
$DIMSTYLE
  2
Standard
  9
$DIMCLRD
 70
     0
  9
$DIMCLRE
 70
     0
  9
$DIMCLRT
 70
     0
  9
$DIMTFAC
 40
1.0
  9
$DIMGAP
 40
0.09
  9
$DIMJUST
 70
     0
  9
$DIMSD1
 70
     0
  9
$DIMSD2
 70
     0
  9
$DIMTOLJ
 70
     1
  9
$DIMTZIN
 70
     0
  9
$DIMALTZ
 70
     0
  9
$DIMALTTZ
 70
     0
  9
$DIMUPT
 70
     0
  9
$DIMDEC
 70
     4
  9
$DIMTDEC
 70
     4
  9
$DIMALTU
 70
     2
  9
$DIMALTTD
 70
     2
  9
$DIMTXSTY
  7
Standard
  9
$DIMAUNIT
 70
     0
  9
$DIMADEC
 70
     0
  9
$DIMALTRND
 40
0.0
  9
$DIMAZIN
 70
     0
  9
$DIMDSEP
 70
    46
  9
$DIMATFIT
 70
     3
  9
$DIMFRAC
 70
     0
  9
$DIMLDRBLK
  1

  9
$DIMLUNIT
 70
     2
  9
$DIMLWD
 70
    -2
  9
$DIMLWE
 70
    -2
  9
$DIMTMOVE
 70
     0
  9
$LUNITS
 70
     2
  9
$LUPREC
 70
     4
  9
$SKETCHINC
 40
0.1
  9
$FILLETRAD
 40
0.0
  9
$AUNITS
 70
     0
  9
$AUPREC
 70
     0
  9
$MENU
  1
.
  9
$ELEVATION
 40
0.0
  9
$PELEVATION
 40
0.0
  9
$THICKNESS
 40
0.0
  9
$LIMCHECK
 70
     0
  9
$CHAMFERA
 40
0.0
  9
$CHAMFERB
 40
0.0
  9
$CHAMFERC
 40
0.0
  9
$CHAMFERD
 40
0.0
  9
$SKPOLY
 70
     0
  9
$TDCREATE
 40
2453215.879379293
  9
$TDUCREATE
 40
2453216.046045961
  9
$TDUPDATE
 40
2453215.879649595
  9
$TDUUPDATE
 40
2453216.046316261
  9
$TDINDWG
 40
0.0002707639
  9
$TDUSRTIMER
 40
0.0002707639
  9
$USRTIMER
 70
     1
  9
$ANGBASE
 50
0.0
  9
$ANGDIR
 70
     0
  9
$PDMODE
 70
    35
  9
$PDSIZE
 40
0.000315
  9
$PLINEWID
 40
0.0
  9
$SPLFRAME
 70
     0
  9
$SPLINETYPE
 70
     6
  9
$SPLINESEGS
 70
     8
  9
$HANDSEED
  5
745
  9
$SURFTAB1
 70
     6
  9
$SURFTAB2
 70
     6
  9
$SURFTYPE
 70
     6
  9
$SURFU
 70
     6
  9
$SURFV
 70
     6
  9
$UCSBASE
  2

  9
$UCSNAME
  2

  9
$UCSORG
 10
0.0
 20
0.0
 30
0.0
  9
$UCSXDIR
 10
1.0
 20
0.0
 30
0.0
  9
$UCSYDIR
 10
0.0
 20
1.0
 30
0.0
  9
$UCSORTHOREF
  2

  9
$UCSORTHOVIEW
 70
     0
  9
$UCSORGTOP
 10
0.0
 20
0.0
 30
0.0
  9
$UCSORGBOTTOM
 10
0.0
 20
0.0
 30
0.0
  9
$UCSORGLEFT
 10
0.0
 20
0.0
 30
0.0
  9
$UCSORGRIGHT
 10
0.0
 20
0.0
 30
0.0
  9
$UCSORGFRONT
 10
0.0
 20
0.0
 30
0.0
  9
$UCSORGBACK
 10
0.0
 20
0.0
 30
0.0
  9
$PUCSBASE
  2

  9
$PUCSNAME
  2

  9
$PUCSORG
 10
0.0
 20
0.0
 30
0.0
  9
$PUCSXDIR
 10
1.0
 20
0.0
 30
0.0
  9
$PUCSYDIR
 10
0.0
 20
1.0
 30
0.0
  9
$PUCSORTHOREF
  2

  9
$PUCSORTHOVIEW
 70
     0
  9
$PUCSORGTOP
 10
0.0
 20
0.0
 30
0.0
  9
$PUCSORGBOTTOM
 10
0.0
 20
0.0
 30
0.0
  9
$PUCSORGLEFT
 10
0.0
 20
0.0
 30
0.0
  9
$PUCSORGRIGHT
 10
0.0
 20
0.0
 30
0.0
  9
$PUCSORGFRONT
 10
0.0
 20
0.0
 30
0.0
  9
$PUCSORGBACK
 10
0.0
 20
0.0
 30
0.0
  9
$USERI1
 70
     0
  9
$USERI2
 70
     0
  9
$USERI3
 70
     0
  9
$USERI4
 70
     0
  9
$USERI5
 70
     0
  9
$USERR1
 40
0.0
  9
$USERR2
 40
0.0
  9
$USERR3
 40
0.0
  9
$USERR4
 40
0.0
  9
$USERR5
 40
0.0
  9
$WORLDVIEW
 70
     1
  9
$SHADEDGE
 70
     3
  9
$SHADEDIF
 70
    70
  9
$TILEMODE
 70
     1
  9
$MAXACTVP
 70
    64
  9
$PINSBASE
 10
0.0
 20
0.0
 30
0.0
  9
$PLIMCHECK
 70
     0
  9
$PEXTMIN
 10
1.000000000000000E+20
 20
1.000000000000000E+20
 30
1.000000000000000E+20
  9
$PEXTMAX
 10
-1.000000000000000E+20
 20
-1.000000000000000E+20
 30
-1.000000000000000E+20
  9
$PLIMMIN
 10
0.0
 20
0.0
  9
$PLIMMAX
 10
12.0
 20
9.0
  9
$UNITMODE
 70
     0
  9
$VISRETAIN
 70
     1
  9
$PLINEGEN
 70
     0
  9
$PSLTSCALE
 70
     1
  9
$TREEDEPTH
 70
  3020
  9
$CMLSTYLE
  2
Standard
  9
$CMLJUST
 70
     0
  9
$CMLSCALE
 40
1.0
  9
$PROXYGRAPHICS
 70
     1
  9
$MEASUREMENT
 70
     0
  9
$CELWEIGHT
370
    -1
  9
$ENDCAPS
280
     0
  9
$JOINSTYLE
280
     0
  9
$LWDISPLAY
290
     0
  9
$INSUNITS
 70
     0
  9
$HYPERLINKBASE
  1

  9
$STYLESHEET
  1

  9
$XEDIT
290
     1
  9
$CEPSNTYPE
380
     0
  9
$PSTYLEMODE
290
     1
  9
$FINGERPRINTGUID
  2
{467AE144-FD7B-4A16-8226-003382765D46}
  9
$VERSIONGUID
  2
{1AC1B378-AC77-4855-9BFA-E4F2BCE43075}
  9
$EXTNAMES
290
     1
  9
$PSVPSCALE
 40
0.0
  9
$OLESTARTUP
290
     0
  0
ENDSEC
  0
SECTION
  2
CLASSES
  0
CLASS
  1
ACDBDICTIONARYWDFLT
  2
AcDbDictionaryWithDefault
  3
AutoCAD 2000
 90
        0
280
     0
281
     0
  0
CLASS
  1
ACDBPLACEHOLDER
  2
AcDbPlaceHolder
  3
AutoCAD 2000
 90
        0
280
     0
281
     0
  0
CLASS
  1
LAYOUT
  2
AcDbLayout
  3
AutoCAD 2000
 90
        0
280
     0
281
     0
  0
ENDSEC
  0
SECTION
  2
TABLES
  0
TABLE
  2
VPORT
  5
8
330
0
100
AcDbSymbolTable
 70
     2
  0
VPORT
  5
744
330
8
100
AcDbSymbolTableRecord
100
AcDbViewportTableRecord
  2
*Active
 70
     0
 10
0.0
 20
0.0
 11
1.0
 21
1.0
 12
23.46286277676937
 22
3.528664185902272
 13
0.0
 23
0.0
 14
1.0
 24
1.0
 15
0.0
 25
0.0
 16
0.0
 26
0.0
 36
1.0
 17
0.0
 27
0.0
 37
0.0
 40
67.76582399186854
 41
1.760330578512396
 42
50.0
 43
0.0
 44
0.0
 50
0.0
 51
0.0
 71
     0
 72
   100
 73
     1
 74
     1
 75
     0
 76
     0
 77
     0
 78
     0
281
     0
 65
     1
110
0.0
120
0.0
130
0.0
111
1.0
121
0.0
131
0.0
112
0.0
122
1.0
132
0.0
 79
     0
146
0.0
  0
ENDTAB
  0
TABLE
  2
LTYPE
  5
5
330
0
100
AcDbSymbolTable
 70
    10
  0
LTYPE
  5
13
330
5
100
AcDbSymbolTableRecord
100
AcDbLinetypeTableRecord
  2
ByBlock
 70
     0
  3

 72
    65
 73
     0
 40
0.0
  0
LTYPE
  5
14
330
5
100
AcDbSymbolTableRecord
100
AcDbLinetypeTableRecord
  2
ByLayer
 70
     0
  3

 72
    65
 73
     0
 40
0.0
  0
LTYPE
  5
15
330
5
100
AcDbSymbolTableRecord
100
AcDbLinetypeTableRecord
  2
CONTINUOUS
 70
     0
  3
Solid line
 72
    65
 73
     0
 40
0.0
  0
LTYPE
  5
22
330
5
100
AcDbSymbolTableRecord
100
AcDbLinetypeTableRecord
  2
DASHED
 70
     0
  3
__ __ __ __ __ __ __ __ __ __ __ __ __ __ __
 72
    65
 73
     2
 40
0.000003
 49
0.000002
 74
     0
 49
-0.000001
 74
     0
  0
LTYPE
  5
23
330
5
100
AcDbSymbolTableRecord
100
AcDbLinetypeTableRecord
  2
HIDDEN
 70
     0
  3
 _ _ _ _ _ _ _ _ _ _ _ _ _ _ _ _ _ _ _ _ _ _
 72
    65
 73
     2
 40
0.000001
 49
0.000001
 74
     0
 49
0.0
 74
     0
  0
LTYPE
  5
24
330
5
100
AcDbSymbolTableRecord
100
AcDbLinetypeTableRecord
  2
CENTER
 70
     0
  3
____ _ ____ _ ____ _ ____ _ ____ _ ____ _ ____
 72
    65
 73
     4
 40
0.000008
 49
0.000005
 74
     0
 49
-0.000001
 74
     0
 49
0.000001
 74
     0
 49
-0.000001
 74
     0
  0
LTYPE
  5
25
330
5
100
AcDbSymbolTableRecord
100
AcDbLinetypeTableRecord
  2
PHANTOM
 70
     0
  3
_____ _ _ _____ _ _ _____ _ _ _____ _ _ ____
 72
    65
 73
     6
 40
0.00001
 49
0.000005
 74
     0
 49
-0.000001
 74
     0
 49
0.000001
 74
     0
 49
-0.000001
 74
     0
 49
0.000001
 74
     0
 49
-0.000001
 74
     0
  0
LTYPE
  5
26
330
5
100
AcDbSymbolTableRecord
100
AcDbLinetypeTableRecord
  2
DOT
 70
     0
  3
...............................................
 72
    65
 73
     2
 40
0.000001
 49
0.0
 74
     0
 49
-0.000001
 74
     0
  0
LTYPE
  5
27
330
5
100
AcDbSymbolTableRecord
100
AcDbLinetypeTableRecord
  2
DASHDOT
 70
     0
  3
__ . __ . __ . __ . __ . __ . __ . __ . __ . __
 72
    65
 73
     4
 40
0.000004
 49
0.000002
 74
     0
 49
-0.000001
 74
     0
 49
0.0
 74
     0
 49
-0.000001
 74
     0
  0
LTYPE
  5
28
330
5
100
AcDbSymbolTableRecord
100
AcDbLinetypeTableRecord
  2
BORDER
 70
     0
  3
__ __ . __ __ . __ __ . __ __ . __ __ . __ __
 72
    65
 73
     6
 40
0.000007
 49
0.000002
 74
     0
 49
-0.000001
 74
     0
 49
0.000002
 74
     0
 49
-0.000001
 74
     0
 49
0.0
 74
     0
 49
-0.000001
 74
     0
  0
LTYPE
  5
29
330
5
100
AcDbSymbolTableRecord
100
AcDbLinetypeTableRecord
  2
DIVIDE
 70
     0
  3
__ . . __ . . __ . . __ . . __ . . __ . . __
 72
    65
 73
     6
 40
0.000005
 49
0.000002
 74
     0
 49
-0.000001
 74
     0
 49
0.0
 74
     0
 49
-0.000001
 74
     0
 49
0.0
 74
     0
 49
-0.000001
 74
     0
  0
LTYPE
  5
2A
330
5
100
AcDbSymbolTableRecord
100
AcDbLinetypeTableRecord
  2
DOTDOT
 70
     0
  3
 . .  . .  . .  . .  . .  . . 
 72
    65
 73
     5
 40
0.000002
 49
-0.000001
 74
     0
 49
0.0
 74
     0
 49
-0.000001
 74
     0
 49
0.0
 74
     0
 49
-0.000001
 74
     0
  0
ENDTAB
  0
TABLE
  2
LAYER
  5
2
330
0
100
AcDbSymbolTable
 70
     4
  0
LAYER
  5
10
330
2
100
AcDbSymbolTableRecord
100
AcDbLayerTableRecord
  2
0
 70
     0
 62
     7
  6
CONTINUOUS
370
    -3
390
F
  0
LAYER
  5
33
330
2
100
AcDbSymbolTableRecord
100
AcDbLayerTableRecord
  2
FOREGROUND
 70
     0
 62
     7
  6
CONTINUOUS
370
    -3
390
F
  0
LAYER
  5
34
330
2
100
AcDbSymbolTableRecord
100
AcDbLayerTableRecord
  2
BACKGROUND
 70
     1
 62
    -7
  6
CONTINUOUS
370
    -3
390
F
  0
LAYER
  5
35
330
2
100
AcDbSymbolTableRecord
100
AcDbLayerTableRecord
  2
LAYER_1
 70
     0
 62
     7
  6
CONTINUOUS
370
    -3
390
F
  0
ENDTAB
  0
TABLE
  2
STYLE
  5
3
330
0
100
AcDbSymbolTable
 70
     9
  0
STYLE
  5
11
330
3
100
AcDbSymbolTableRecord
100
AcDbTextStyleTableRecord
  2
Standard
 70
     0
 40
0.0
 41
1.0
 50
0.0
 71
     0
 42
0.2
  3
txt
  4

  0
STYLE
  5
2B
330
3
100
AcDbSymbolTableRecord
100
AcDbTextStyleTableRecord
  2
SN0
 70
     0
 40
0.0
 41
0.000004
 50
0.0
 71
     0
 42
0.0
  3
ROMAND
  4

  0
STYLE
  5
2C
330
3
100
AcDbSymbolTableRecord
100
AcDbTextStyleTableRecord
  2
SV0
 70
     4
 40
0.0
 41
0.000004
 50
0.0
 71
     0
 42
0.0
  3
ROMAND
  4

  0
STYLE
  5
2D
330
3
100
AcDbSymbolTableRecord
100
AcDbTextStyleTableRecord
  2
SN1
 70
     0
 40
0.0
 41
0.000004
 50
0.0
 71
     0
 42
0.0
  3
ROMAND
  4

  0
STYLE
  5
2E
330
3
100
AcDbSymbolTableRecord
100
AcDbTextStyleTableRecord
  2
SV1
 70
     4
 40
0.0
 41
0.000004
 50
0.0
 71
     0
 42
0.0
  3
ROMAND
  4

  0
STYLE
  5
2F
330
3
100
AcDbSymbolTableRecord
100
AcDbTextStyleTableRecord
  2
SN2
 70
     0
 40
0.0
 41
0.000004
 50
0.0
 71
     0
 42
0.0
  3
ROMAND
  4

  0
STYLE
  5
30
330
3
100
AcDbSymbolTableRecord
100
AcDbTextStyleTableRecord
  2
SV2
 70
     4
 40
0.0
 41
0.000004
 50
0.0
 71
     0
 42
0.0
  3
ROMAND
  4

  0
STYLE
  5
31
330
3
100
AcDbSymbolTableRecord
100
AcDbTextStyleTableRecord
  2
SN3
 70
     0
 40
0.0
 41
0.000004
 50
0.0
 71
     0
 42
0.0
  3
ROMAND
  4

  0
STYLE
  5
32
330
3
100
AcDbSymbolTableRecord
100
AcDbTextStyleTableRecord
  2
SV3
 70
     4
 40
0.0
 41
0.000004
 50
0.0
 71
     0
 42
0.0
  3
ROMAND
  4

  0
ENDTAB
  0
TABLE
  2
VIEW
  5
6
330
0
100
AcDbSymbolTable
 70
     0
  0
ENDTAB
  0
TABLE
  2
UCS
  5
7
330
0
100
AcDbSymbolTable
 70
     0
  0
ENDTAB
  0
TABLE
  2
APPID
  5
9
330
0
100
AcDbSymbolTable
 70
     1
  0
APPID
  5
12
330
9
100
AcDbSymbolTableRecord
100
AcDbRegAppTableRecord
  2
ACAD
 70
     0
  0
ENDTAB
  0
TABLE
  2
DIMSTYLE
  5
A
330
0
100
AcDbSymbolTable
 70
     1
100
AcDbDimStyleTable
 71
     0
  0
DIMSTYLE
105
742
330
A
100
AcDbSymbolTableRecord
100
AcDbDimStyleTableRecord
  2
Standard
 70
     0
340
11
  0
ENDTAB
  0
TABLE
  2
BLOCK_RECORD
  5
1
330
0
100
AcDbSymbolTable
 70
     0
  0
BLOCK_RECORD
  5
1E
330
1
100
AcDbSymbolTableRecord
100
AcDbBlockTableRecord
  2
*Model_Space
340
21
  0
BLOCK_RECORD
  5
1A
330
1
100
AcDbSymbolTableRecord
100
AcDbBlockTableRecord
  2
*Paper_Space
340
1D
  0
ENDTAB
  0
ENDSEC
  0
SECTION
  2
BLOCKS
  0
BLOCK
  5
1F
330
1E
100
AcDbEntity
  8
0
100
AcDbBlockBegin
  2
*Model_Space
 70
     0
 10
0.0
 20
0.0
 30
0.0
  3
*Model_Space
  1

  0
ENDBLK
  5
20
330
1E
100
AcDbEntity
  8
0
100
AcDbBlockEnd
  0
BLOCK
  5
1B
330
1A
100
AcDbEntity
 67
     1
  8
0
100
AcDbBlockBegin
  2
*Paper_Space
 70
     0
 10
0.0
 20
0.0
 30
0.0
  3
*Paper_Space
  1

  0
ENDBLK
  5
1C
330
1A
100
AcDbEntity
 67
     1
  8
0
100
AcDbBlockEnd
  0
ENDSEC
  0
SECTION
  2
ENTITIES
  0
LWPOLYLINE
  5
39
330
1E
100
AcDbEntity
  8
LAYER_1
  6
Continuous
 62
     7
100
AcDbPolyline
 90
        7
 70
     0
 43
0.0
 10
4.10311
 20
-1.002373999999999
 10
4.098499999999999
 20
-1.002172999999999
 10
4.06623
 20
-1.000762
 10
3.97864
 20
-0.996935
 10
3.808069
 20
-0.98948
 10
3.526858
 20
-0.977191
 10
3.107345999999999
 20
-0.958858
  0
LWPOLYLINE
  5
42
330
1E
100
AcDbEntity
  8
LAYER_1
  6
Continuous
 62
     7
100
AcDbPolyline
 90
       32
 70
     0
 43
0.0
 10
3.107345999999999
 20
-0.958858
 10
3.007932999999999
 20
-0.954513
 10
2.902649
 20
-0.9499129999999999
 10
2.791843
 20
-0.945077
 10
2.675861999999999
 20
-0.9400209999999999
 10
2.555053
 20
-0.934762
 10
2.429762999999999
 20
-0.9293189999999999
 10
2.300339
 20
-0.9237079999999998
 10
2.167129999999999
 20
-0.917947
 10
2.030480999999999
 20
-0.9120540000000001
 10
1.890741
 20
-0.9060450000000001
 10
1.748256
 20
-0.899937
 10
1.603374
 20
-0.89375
 10
1.456442
 20
-0.887498
 10
1.307806999999999
 20
-0.881201
 10
1.157817
 20
-0.8748749999999999
 10
1.006819
 20
-0.8685379999999998
 10
0.85516
 20
-0.8622069999999999
 10
0.703187
 20
-0.8558989999999999
 10
0.551248
 20
-0.8496319999999998
 10
0.399689
 20
-0.8434229999999999
 10
0.248859
 20
-0.8372899999999999
 10
0.099104
 20
-0.83125
 10
-0.049228
 20
-0.825319
 10
-0.19579
 20
-0.819517
 10
-0.340235
 20
-0.813859
 10
-0.4822160000000001
 20
-0.808364
 10
-0.6213850000000001
 20
-0.803048
 10
-0.7573949999999999
 20
-0.797929
 10
-0.8899
 20
-0.793025
 10
-1.01855
 20
-0.788353
 10
-1.143
 20
-0.783929
  0
LWPOLYLINE
  5
64
330
1E
100
AcDbEntity
  8
LAYER_1
  6
Continuous
 62
     7
100
AcDbPolyline
 90
       16
 70
     0
 43
0.0
 10
-1.143
 20
-0.783929
 10
-1.386072999999999
 20
-0.7756270000000001
 10
-1.610716999999999
 20
-0.768469
 10
-1.817929
 20
-0.7624620000000001
 10
-2.008706
 20
-0.7576109999999999
 10
-2.184042999999999
 20
-0.753923
 10
-2.344936999999999
 20
-0.7514020000000001
 10
-2.492383999999999
 20
-0.7500560000000001
 10
-2.62738
 20
-0.7498899999999999
 10
-2.750922999999999
 20
-0.7509090000000001
 10
-2.864006999999999
 20
-0.7531210000000001
 10
-2.967629999999999
 20
-0.7565300000000001
 10
-3.062788
 20
-0.7611430000000001
 10
-3.150476999999999
 20
-0.7669660000000001
 10
-3.231692999999999
 20
-0.7740040000000001
 10
-3.307433
 20
-0.7822640000000001
  0
LWPOLYLINE
  5
76
330
1E
100
AcDbEntity
  8
LAYER_1
  6
Continuous
 62
     7
100
AcDbPolyline
 90
        5
 70
     0
 43
0.0
 10
-3.307433
 20
-0.7822640000000001
 10
-3.550448
 20
-0.8234519999999999
 10
-3.727589
 20
-0.8776699999999999
 10
-3.835981999999999
 20
-0.9406770000000001
 10
-3.872751999999999
 20
-1.008232
  0
LWPOLYLINE
  5
7D
330
1E
100
AcDbEntity
  8
LAYER_1
  6
Continuous
 62
     7
100
AcDbPolyline
 90
        5
 70
     0
 43
0.0
 10
-3.872751999999999
 20
-1.008232
 10
-3.835981999999999
 20
-1.076076999999999
 10
-3.727589
 20
-1.139842999999999
 10
-3.550448
 20
-1.195133999999999
 10
-3.307433
 20
-1.237554999999999
  0
LWPOLYLINE
  5
84
330
1E
100
AcDbEntity
  8
LAYER_1
  6
Continuous
 62
     7
100
AcDbPolyline
 90
       16
 70
     0
 43
0.0
 10
-3.307433
 20
-1.237554999999999
 10
-3.231692999999999
 20
-1.246146999999999
 10
-3.150476999999999
 20
-1.253508999999999
 10
-3.062788
 20
-1.259641999999999
 10
-2.967629999999999
 20
-1.264542
 10
-2.864006999999999
 20
-1.268208999999999
 10
-2.750922999999999
 20
-1.270642
 10
-2.62738
 20
-1.271838
 10
-2.492383999999999
 20
-1.271795999999999
 10
-2.344936999999999
 20
-1.270515
 10
-2.184042999999999
 20
-1.267992999999999
 10
-2.008706
 20
-1.264229
 10
-1.817929
 20
-1.259220999999999
 10
-1.610716999999999
 20
-1.252968
 10
-1.386072999999999
 20
-1.245468
 10
-1.143
 20
-1.23672
  0
LWPOLYLINE
  5
96
330
1E
100
AcDbEntity
  8
LAYER_1
  6
Continuous
 62
     7
100
AcDbPolyline
 90
       32
 70
     0
 43
0.0
 10
-1.143
 20
-1.23672
 10
-1.01855
 20
-1.232040999999999
 10
-0.8899
 20
-1.227087999999999
 10
-0.7573949999999999
 20
-1.221879999999999
 10
-0.6213850000000001
 20
-1.216436
 10
-0.4822160000000001
 20
-1.210776
 10
-0.340235
 20
-1.204915999999999
 10
-0.19579
 20
-1.198878
 10
-0.049228
 20
-1.192679
 10
0.099104
 20
-1.186339
 10
0.248859
 20
-1.179875999999999
 10
0.399689
 20
-1.173308999999999
 10
0.551248
 20
-1.166657
 10
0.703187
 20
-1.159938999999999
 10
0.85516
 20
-1.153173999999999
 10
1.006819
 20
-1.146380999999999
 10
1.157817
 20
-1.139579
 10
1.307806999999999
 20
-1.132784999999999
 10
1.456442
 20
-1.126020999999999
 10
1.603374
 20
-1.119303
 10
1.748256
 20
-1.112651
 10
1.890741
 20
-1.106084999999999
 10
2.030480999999999
 20
-1.099621999999999
 10
2.167129999999999
 20
-1.093283
 10
2.300339
 20
-1.087083999999999
 10
2.429762999999999
 20
-1.081046999999999
 10
2.555053
 20
-1.075187999999999
 10
2.675861999999999
 20
-1.069528
 10
2.791843
 20
-1.064084999999999
 10
2.902649
 20
-1.058877999999999
 10
3.007932999999999
 20
-1.053925999999999
 10
3.107345999999999
 20
-1.049247999999999
  0
LWPOLYLINE
  5
B8
330
1E
100
AcDbEntity
  8
LAYER_1
  6
Continuous
 62
     7
100
AcDbPolyline
 90
        7
 70
     0
 43
0.0
 10
3.107345999999999
 20
-1.049247999999999
 10
3.526858
 20
-1.0295
 10
3.808069
 20
-1.016262999999999
 10
3.97864
 20
-1.008232999999999
 10
4.06623
 20
-1.00411
 10
4.098499999999999
 20
-1.002591
 10
4.10311
 20
-1.002373999999999
  0
LWPOLYLINE
  5
C1
330
1E
100
AcDbEntity
  8
LAYER_1
  6
DASHED
 62
     7
100
AcDbPolyline
 90
        5
 70
     0
 43
0.0
 10
-3.871201
 20
-4.504680999999999
 10
-2.126330999999999
 20
8.495830999999999
 10
1.375704999999999
 20
8.495830999999999
 10
4.128176999999999
 20
-4.504680999999999
 10
-0.381457
 20
-4.639845999999999
  0
LWPOLYLINE
  5
C8
330
1E
100
AcDbEntity
  8
LAYER_1
  6
Continuous
 62
     7
100
AcDbPolyline
 90
        2
 70
     0
 43
0.0
 10
-7.377038999999999
 20
-4.442180999999999
 10
-0.631083
 20
-4.471618
  0
LWPOLYLINE
  5
CC
330
1E
100
AcDbEntity
  8
LAYER_1
  6
Continuous
 62
     7
100
AcDbPolyline
 90
        2
 70
     0
 43
0.0
 10
-7.377038999999999
 20
-5.067197
 10
-0.631083
 20
-5.037759999999999
  0
LWPOLYLINE
  5
D0
330
1E
100
AcDbEntity
  8
LAYER_1
  6
Continuous
 62
     7
100
AcDbPolyline
 90
        2
 70
     0
 43
0.0
 10
-0.221996
 20
-3.904248
 10
-0.044969
 20
-3.727205
  0
LWPOLYLINE
  5
D4
330
1E
100
AcDbEntity
  8
LAYER_1
  6
Continuous
 62
     7
100
AcDbPolyline
 90
        2
 70
     0
 43
0.0
 10
-0.186165
 20
-3.940082999999999
 10
-0.009122
 20
-3.763055
  0
LWPOLYLINE
  5
D8
330
1E
100
AcDbEntity
  8
LAYER_1
  6
Continuous
 62
     7
100
AcDbPolyline
 90
        2
 70
     0
 43
0.0
 10
-0.150319
 20
-3.975929
 10
0.026705
 20
-3.798901999999999
  0
LWPOLYLINE
  5
DC
330
1E
100
AcDbEntity
  8
LAYER_1
  6
Continuous
 62
     7
100
AcDbPolyline
 90
        2
 70
     0
 43
0.0
 10
-0.115567
 20
-4.010692999999999
 10
0.061469
 20
-3.83365
  0
LWPOLYLINE
  5
E0
330
1E
100
AcDbEntity
  8
LAYER_1
  6
Continuous
 62
     7
100
AcDbPolyline
 90
        2
 70
     0
 43
0.0
 10
-0.219831
 20
-3.867319
 10
-0.043874
 20
-4.045429
  0
LWPOLYLINE
  5
E4
330
1E
100
AcDbEntity
  8
LAYER_1
  6
Continuous
 62
     7
100
AcDbPolyline
 90
        2
 70
     0
 43
0.0
 10
-0.185067
 20
-3.832566999999999
 10
-0.009122
 20
-4.010676999999999
  0
LWPOLYLINE
  5
E8
330
1E
100
AcDbEntity
  8
LAYER_1
  6
Continuous
 62
     7
100
AcDbPolyline
 90
        2
 70
     0
 43
0.0
 10
-0.149232
 20
-3.796719999999999
 10
0.026705
 20
-3.974845999999999
  0
LWPOLYLINE
  5
EC
330
1E
100
AcDbEntity
  8
LAYER_1
  6
Continuous
 62
     7
100
AcDbPolyline
 90
        2
 70
     0
 43
0.0
 10
-0.114484
 20
-3.761969
 10
0.061469
 20
-3.940082999999999
  0
LWPOLYLINE
  5
F0
330
1E
100
AcDbEntity
  8
LAYER_1
  6
Continuous
 62
     7
100
AcDbPolyline
 90
        2
 70
     0
 43
0.0
 10
-0.078638
 20
-3.726122
 10
0.097303
 20
-3.904248
  0
LWPOLYLINE
  5
F4
330
1E
100
AcDbEntity
  8
LAYER_1
  6
Continuous
 62
     7
100
AcDbPolyline
 90
        2
 70
     0
 43
0.0
 10
-0.07972
 20
-4.046527999999999
 10
0.097303
 20
-3.8695
  0
LWPOLYLINE
  5
F8
330
1E
100
AcDbEntity
  8
LAYER_1
  6
Continuous
 62
     7
100
AcDbPolyline
 90
        2
 70
     0
 43
0.0
 10
-2.138263999999999
 20
-3.756719999999999
 10
-2.036874
 20
-3.517819
  0
LWPOLYLINE
  5
FC
330
1E
100
AcDbEntity
  8
LAYER_1
  6
Continuous
 62
     7
100
AcDbPolyline
 90
        2
 70
     0
 43
0.0
 10
-2.117732
 20
-3.805083
 10
-2.016345999999999
 20
-3.566176999999999
  0
LWPOLYLINE
  5
100
330
1E
100
AcDbEntity
  8
LAYER_1
  6
Continuous
 62
     7
100
AcDbPolyline
 90
        2
 70
     0
 43
0.0
 10
-2.097204999999999
 20
-3.853441
 10
-1.995818999999999
 20
-3.614555
  0
LWPOLYLINE
  5
104
330
1E
100
AcDbEntity
  8
LAYER_1
  6
Continuous
 62
     7
100
AcDbPolyline
 90
        2
 70
     0
 43
0.0
 10
-2.077302999999999
 20
-3.900345999999999
 10
-1.975913
 20
-3.661456999999999
  0
LWPOLYLINE
  5
108
330
1E
100
AcDbEntity
  8
LAYER_1
  6
Continuous
 62
     7
100
AcDbPolyline
 90
        2
 70
     0
 43
0.0
 10
-2.137011999999999
 20
-3.706885999999999
 10
-2.036248
 20
-3.947248
  0
LWPOLYLINE
  5
10C
330
1E
100
AcDbEntity
  8
LAYER_1
  6
Continuous
 62
     7
100
AcDbPolyline
 90
        2
 70
     0
 43
0.0
 10
-2.117109999999999
 20
-3.659983999999999
 10
-2.016345999999999
 20
-3.900345999999999
  0
LWPOLYLINE
  5
110
330
1E
100
AcDbEntity
  8
LAYER_1
  6
Continuous
 62
     7
100
AcDbPolyline
 90
        2
 70
     0
 43
0.0
 10
-2.096583
 20
-3.611609999999999
 10
-1.995818999999999
 20
-3.851983999999999
  0
LWPOLYLINE
  5
114
330
1E
100
AcDbEntity
  8
LAYER_1
  6
Continuous
 62
     7
100
AcDbPolyline
 90
        2
 70
     0
 43
0.0
 10
-2.076677
 20
-3.564719999999999
 10
-1.975913
 20
-3.805083
  0
LWPOLYLINE
  5
118
330
1E
100
AcDbEntity
  8
LAYER_1
  6
Continuous
 62
     7
100
AcDbPolyline
 90
        2
 70
     0
 43
0.0
 10
-2.05615
 20
-3.516345999999999
 10
-1.955402
 20
-3.756719999999999
  0
LWPOLYLINE
  5
11C
330
1E
100
AcDbEntity
  8
LAYER_1
  6
Continuous
 62
     7
100
AcDbPolyline
 90
        2
 70
     0
 43
0.0
 10
-2.056775999999999
 20
-3.948719999999999
 10
-1.955402
 20
-3.709819
  0
LWPOLYLINE
  5
120
330
1E
100
AcDbEntity
  8
LAYER_1
  6
Continuous
 62
     7
100
AcDbPolyline
 90
        4
 70
     0
 43
0.0
 10
-0.6169130000000001
 20
-0.488929
 10
-0.6191760000000001
 20
-0.4805560000000001
 10
-0.625123
 20
-0.474609
 10
-0.6334960000000001
 20
-0.4723460000000001
  0
LWPOLYLINE
  5
126
330
1E
100
AcDbEntity
  8
LAYER_1
  6
Continuous
 62
     7
100
AcDbPolyline
 90
        4
 70
     0
 43
0.0
 10
-0.6334960000000001
 20
-0.4723460000000001
 10
-0.6418650000000001
 20
-0.474609
 10
-0.647817
 20
-0.4805560000000001
 10
-0.650083
 20
-0.488929
  0
LWPOLYLINE
  5
12C
330
1E
100
AcDbEntity
  8
LAYER_1
  6
Continuous
 62
     7
100
AcDbPolyline
 90
        4
 70
     0
 43
0.0
 10
-0.650083
 20
-0.488929
 10
-0.647817
 20
-0.4972970000000001
 10
-0.6418650000000001
 20
-0.503247
 10
-0.6334960000000001
 20
-0.505512
  0
LWPOLYLINE
  5
132
330
1E
100
AcDbEntity
  8
LAYER_1
  6
Continuous
 62
     7
100
AcDbPolyline
 90
        4
 70
     0
 43
0.0
 10
-0.6334960000000001
 20
-0.505512
 10
-0.625123
 20
-0.503247
 10
-0.6191760000000001
 20
-0.4972970000000001
 10
-0.6169130000000001
 20
-0.488929
  0
LWPOLYLINE
  5
138
330
1E
100
AcDbEntity
  8
LAYER_1
  6
Continuous
100
AcDbPolyline
 90
       26
 70
     1
 43
0.0
 10
-3.837960999999999
 20
-4.480109999999999
 10
-3.836568
 20
-4.480793
 10
-3.826819999999999
 20
-4.485571
 10
-3.800362
 20
-4.498539
 10
-3.748425
 20
-4.522204
 10
-3.660607
 20
-4.552694999999999
 10
-3.526094
 20
-4.584551
 10
-3.389688999999999
 20
-4.606345
 10
-3.226118
 20
-4.625255999999999
 10
-3.040566999999999
 20
-4.640711
 10
-2.83822
 20
-4.652133999999999
 10
-2.696156
 20
-4.657264999999999
 10
-2.548068999999999
 20
-4.660403999999999
 10
-2.3931
 20
-4.661608999999999
 10
-2.230388999999999
 20
-4.660936
 10
-2.059076999999999
 20
-4.658441999999999
 10
-1.878302999999999
 20
-4.654185
 10
-1.68864
 20
-4.648305999999999
 10
-1.496395
 20
-4.64129
 10
-1.309311
 20
-4.633704999999999
 10
-1.135128
 20
-4.626119
 10
-0.981591
 20
-4.619102999999999
 10
-0.856441
 20
-4.613223999999999
 10
-0.703903
 20
-4.606021
 10
-0.6477050000000001
 20
-4.603366999999999
 10
-0.639677
 20
-4.602987999999999
  0
LWPOLYLINE
  5
154
330
1E
100
AcDbEntity
  8
LAYER_1
  6
Continuous
 62
     7
100
AcDbPolyline
 90
        4
 70
     0
 43
0.0
 10
-3.837960999999999
 20
-4.480109999999999
 10
-3.836568
 20
-4.480793
 10
-3.826819999999999
 20
-4.485571
 10
-3.800362
 20
-4.498539
  0
LWPOLYLINE
  5
15A
330
1E
100
AcDbEntity
  8
LAYER_1
  6
Continuous
 62
     7
100
AcDbPolyline
 90
        4
 70
     0
 43
0.0
 10
-3.800362
 20
-4.498539
 10
-3.748425
 20
-4.522204
 10
-3.660607
 20
-4.552694999999999
 10
-3.526094
 20
-4.584551
  0
LWPOLYLINE
  5
160
330
1E
100
AcDbEntity
  8
LAYER_1
  6
Continuous
 62
     7
100
AcDbPolyline
 90
        5
 70
     0
 43
0.0
 10
-3.526094
 20
-4.584551
 10
-3.389688999999999
 20
-4.606345
 10
-3.226118
 20
-4.625255999999999
 10
-3.040566999999999
 20
-4.640711
 10
-2.83822
 20
-4.652133999999999
  0
LWPOLYLINE
  5
167
330
1E
100
AcDbEntity
  8
LAYER_1
  6
Continuous
 62
     7
100
AcDbPolyline
 90
        7
 70
     0
 43
0.0
 10
-2.83822
 20
-4.652133999999999
 10
-2.696156
 20
-4.657264999999999
 10
-2.548068999999999
 20
-4.660403999999999
 10
-2.3931
 20
-4.661608999999999
 10
-2.230388999999999
 20
-4.660936
 10
-2.059076999999999
 20
-4.658441999999999
 10
-1.878302999999999
 20
-4.654185
  0
LWPOLYLINE
  5
170
330
1E
100
AcDbEntity
  8
LAYER_1
  6
Continuous
 62
     7
100
AcDbPolyline
 90
        7
 70
     0
 43
0.0
 10
-1.878302999999999
 20
-4.654185
 10
-1.68864
 20
-4.648305999999999
 10
-1.496395
 20
-4.64129
 10
-1.309311
 20
-4.633704999999999
 10
-1.135128
 20
-4.626119
 10
-0.981591
 20
-4.619102999999999
 10
-0.856441
 20
-4.613223999999999
  0
LWPOLYLINE
  5
179
330
1E
100
AcDbEntity
  8
LAYER_1
  6
Continuous
 62
     7
100
AcDbPolyline
 90
        4
 70
     0
 43
0.0
 10
-0.856441
 20
-4.613223999999999
 10
-0.703903
 20
-4.606021
 10
-0.6477050000000001
 20
-4.603366999999999
 10
-0.639677
 20
-4.602987999999999
  0
LWPOLYLINE
  5
17F
330
1E
100
AcDbEntity
  8
LAYER_1
  6
Continuous
 62
     7
100
AcDbPolyline
 90
        4
 70
     1
 43
0.0
 10
-0.5878740000000001
 20
-4.605819
 10
0.6413310000000001
 20
-4.605819
 10
0.6413310000000001
 20
-4.575591
 10
-0.5878740000000001
 20
-4.575591
  0
TEXT
  5
185
330
1E
100
AcDbEntity
  8
LAYER_1
 62
     7
100
AcDbText
 10
-0.5246770000000001
 20
-0.286303
 30
0.0
 40
0.112131
  1
18mm horn
 41
0.6660715201416203
  7
SN0
 72
     5
 11
0.158178
 21
-0.286303
 31
0.0
100
AcDbText
  0
TEXT
  5
186
330
1E
100
AcDbEntity
  8
LAYER_1
 62
     7
100
AcDbText
 10
-3.031401999999999
 20
-0.507484
 30
0.0
 40
0.112131
  1
13mm servo horn
 41
0.6627374601262288
  7
SN0
 72
     5
 11
-1.980397999999999
 21
-0.507484
 31
0.0
100
AcDbText
  0
LWPOLYLINE
  5
187
330
1E
100
AcDbEntity
  8
LAYER_1
  6
Continuous
 62
     7
100
AcDbPolyline
 90
        4
 70
     0
 43
0.0
 10
-1.519912999999999
 20
-0.6251770000000001
 10
-1.518585
 20
-0.625075
 10
-1.509284
 20
-0.624363
 10
-1.484038999999999
 20
-0.622429
  0
LWPOLYLINE
  5
18D
330
1E
100
AcDbEntity
  8
LAYER_1
  6
Continuous
 62
     7
100
AcDbPolyline
 90
        4
 70
     0
 43
0.0
 10
-1.484038999999999
 20
-0.622429
 10
-1.437586
 20
-0.618821
 10
-1.375417
 20
-0.6138180000000001
 10
-1.305731999999999
 20
-0.6078580000000001
  0
LWPOLYLINE
  5
193
330
1E
100
AcDbEntity
  8
LAYER_1
  6
Continuous
 62
     7
100
AcDbPolyline
 90
        4
 70
     0
 43
0.0
 10
-1.305731999999999
 20
-0.6078580000000001
 10
-1.233748999999999
 20
-0.600981
 10
-1.152751999999999
 20
-0.591683
 10
-1.053054999999999
 20
-0.578055
  0
LWPOLYLINE
  5
199
330
1E
100
AcDbEntity
  8
LAYER_1
  6
Continuous
 62
     7
100
AcDbPolyline
 90
        4
 70
     0
 43
0.0
 10
-1.053054999999999
 20
-0.578055
 10
-0.9310299999999999
 20
-0.559338
 10
-0.8072899999999998
 20
-0.5393220000000002
 10
-0.7084960000000001
 20
-0.522957
  0
LWPOLYLINE
  5
19F
330
1E
100
AcDbEntity
  8
LAYER_1
  6
Continuous
 62
     7
100
AcDbPolyline
 90
        4
 70
     0
 43
0.0
 10
-0.7084960000000001
 20
-0.522957
 10
-0.6540090000000001
 20
-0.513878
 10
-0.6339350000000001
 20
-0.5105330000000001
 10
-0.631067
 20
-0.5100550000000001
  0
LWPOLYLINE
  5
1A5
330
1E
100
AcDbEntity
  8
LAYER_1
  6
Continuous
 62
     7
100
AcDbPolyline
 90
        4
 70
     0
 43
0.0
 10
-1.52422
 20
-0.5913460000000001
 10
-1.522891999999999
 20
-0.591245
 10
-1.513595
 20
-0.590531
 10
-1.488358
 20
-0.588594
  0
LWPOLYLINE
  5
1AB
330
1E
100
AcDbEntity
  8
LAYER_1
  6
Continuous
 62
     7
100
AcDbPolyline
 90
        4
 70
     0
 43
0.0
 10
-1.488358
 20
-0.588594
 10
-1.441899999999999
 20
-0.5849880000000001
 10
-1.379731
 20
-0.579986
 10
-1.310038999999999
 20
-0.5740280000000001
  0
LWPOLYLINE
  5
1B1
330
1E
100
AcDbEntity
  8
LAYER_1
  6
Continuous
 62
     7
100
AcDbPolyline
 90
        4
 70
     0
 43
0.0
 10
-1.310038999999999
 20
-0.5740280000000001
 10
-1.238053999999999
 20
-0.5671530000000001
 10
-1.157057
 20
-0.557851
 10
-1.057358
 20
-0.5442200000000001
  0
LWPOLYLINE
  5
1B7
330
1E
100
AcDbEntity
  8
LAYER_1
  6
Continuous
 62
     7
100
AcDbPolyline
 90
        4
 70
     0
 43
0.0
 10
-1.057358
 20
-0.5442200000000001
 10
-0.935336
 20
-0.525503
 10
-0.8115999999999999
 20
-0.5054870000000001
 10
-0.712819
 20
-0.489122
  0
LWPOLYLINE
  5
1BD
330
1E
100
AcDbEntity
  8
LAYER_1
  6
Continuous
 62
     7
100
AcDbPolyline
 90
        4
 70
     0
 43
0.0
 10
-0.712819
 20
-0.489122
 10
-0.658329
 20
-0.4800430000000001
 10
-0.638254
 20
-0.476698
 10
-0.635386
 20
-0.47622
  0
LWPOLYLINE
  5
1C3
330
1E
100
AcDbEntity
  8
LAYER_1
  6
Continuous
100
AcDbPolyline
 90
       10
 70
     1
 43
0.0
 10
-3.915637999999999
 20
-0.702858
 10
-3.222554999999999
 20
-0.692929
 10
-2.541358
 20
-0.67611
 10
-1.856902
 20
-0.6564130000000001
 10
-1.223830999999999
 20
-0.6212760000000001
 10
-1.231969
 20
-0.553067
 10
-1.861983999999999
 20
-0.5884020000000002
 10
-2.543555
 20
-0.6113460000000001
 10
-3.21824
 20
-0.6224020000000001
 10
-3.907885999999999
 20
-0.6263860000000001
  0
LWPOLYLINE
  5
1CF
330
1E
100
AcDbEntity
  8
LAYER_1
  6
Continuous
 62
     7
100
AcDbPolyline
 90
       10
 70
     0
 43
0.0
 10
-3.915637999999999
 20
-0.702858
 10
-3.222554999999999
 20
-0.692929
 10
-2.541358
 20
-0.67611
 10
-1.856902
 20
-0.6564130000000001
 10
-1.223830999999999
 20
-0.6212760000000001
 10
-1.231969
 20
-0.553067
 10
-1.861983999999999
 20
-0.5884020000000002
 10
-2.543555
 20
-0.6113460000000001
 10
-3.21824
 20
-0.6224020000000001
 10
-3.907885999999999
 20
-0.6263860000000001
  0
LWPOLYLINE
  5
1DB
330
1E
100
AcDbEntity
  8
LAYER_1
  6
Continuous
 62
     7
100
AcDbPolyline
 90
        2
 70
     0
 43
0.0
 10
-3.899614
 20
-3.497083
 10
-3.848929
 20
-3.497083
  0
LWPOLYLINE
  5
1DF
330
1E
100
AcDbEntity
  8
LAYER_1
  6
Continuous
 62
     7
100
AcDbPolyline
 90
        2
 70
     0
 43
0.0
 10
-3.899614
 20
0.50261
 10
-3.848929
 20
0.50261
  0
LWPOLYLINE
  5
1E3
330
1E
100
AcDbEntity
  8
LAYER_1
  6
Continuous
 62
     7
100
AcDbPolyline
 90
        2
 70
     0
 43
0.0
 10
-3.899614
 20
1.497912999999999
 10
-3.848929
 20
1.497912999999999
  0
LWPOLYLINE
  5
1E7
330
1E
100
AcDbEntity
  8
LAYER_1
  6
Continuous
 62
     7
100
AcDbPolyline
 90
        2
 70
     0
 43
0.0
 10
-3.899614
 20
2.499373999999999
 10
-3.848929
 20
2.499373999999999
  0
LWPOLYLINE
  5
1EB
330
1E
100
AcDbEntity
  8
LAYER_1
  6
Continuous
 62
     7
100
AcDbPolyline
 90
        2
 70
     0
 43
0.0
 10
-3.899614
 20
3.500830999999999
 10
-3.848929
 20
3.500830999999999
  0
LWPOLYLINE
  5
1EF
330
1E
100
AcDbEntity
  8
LAYER_1
  6
Continuous
 62
     7
100
AcDbPolyline
 90
        2
 70
     0
 43
0.0
 10
-3.899614
 20
4.502291
 10
-3.848929
 20
4.502291
  0
LWPOLYLINE
  5
1F3
330
1E
100
AcDbEntity
  8
LAYER_1
  6
Continuous
 62
     7
100
AcDbPolyline
 90
        2
 70
     0
 43
0.0
 10
-3.899614
 20
5.497609999999999
 10
-3.848929
 20
5.497609999999999
  0
LWPOLYLINE
  5
1F7
330
1E
100
AcDbEntity
  8
LAYER_1
  6
Continuous
 62
     7
100
AcDbPolyline
 90
        2
 70
     0
 43
0.0
 10
-3.899614
 20
6.499067
 10
-3.848929
 20
6.499067
  0
LWPOLYLINE
  5
1FB
330
1E
100
AcDbEntity
  8
LAYER_1
  6
Continuous
 62
     7
100
AcDbPolyline
 90
        2
 70
     0
 43
0.0
 10
-2.300263999999999
 20
5.503748
 10
-2.232677
 20
5.485319
  0
LWPOLYLINE
  5
1FF
330
1E
100
AcDbEntity
  8
LAYER_1
  6
Continuous
 62
     7
100
AcDbPolyline
 90
        2
 70
     0
 43
0.0
 10
-1.833331
 20
6.634232
 10
-1.821038999999999
 20
6.628083
  0
TEXT
  5
203
330
1E
100
AcDbEntity
  8
LAYER_1
 62
     7
100
AcDbText
 10
0.360039
 20
3.478719999999999
 30
0.0
 40
0.141525
  1
MD  14 May 04
 41
0.6474480031915593
  7
SN1
 72
     5
 11
1.52505
 21
3.478719999999999
 31
0.0
100
AcDbText
  0
TEXT
  5
204
330
1E
100
AcDbEntity
  8
LAYER_1
 62
     7
100
AcDbText
 10
0.126571
 20
3.703858
 30
0.0
 40
0.141525
  1
Supra F3J/TD  Fin
 41
0.6624856949279881
  7
SN2
 72
     5
 11
1.537409999999999
 21
3.703858
 31
0.0
100
AcDbText
  0
TEXT
  5
205
330
1E
100
AcDbEntity
  8
LAYER_1
 62
     7
100
AcDbText
 10
-1.900913
 20
-3.936223999999999
 30
0.0
 40
0.112131
  1
1.0oz Kevlar,
 41
0.6900944131017654
  7
SN0
 72
     5
 11
-1.112363999999999
 21
-3.936223999999999
 31
0.0
100
AcDbText
  0
TEXT
  5
206
330
1E
100
AcDbEntity
  8
LAYER_1
 62
     7
100
AcDbText
 10
-1.900913
 20
-4.07139
 30
0.0
 40
0.112131
  1
highly sheared
 41
0.68778928217888
  7
SN0
 72
     5
 11
-1.026858
 21
-4.07139
 31
0.0
100
AcDbText
  0
TEXT
  5
207
330
1E
100
AcDbEntity
  8
LAYER_1
 62
     7
100
AcDbText
 10
-1.188217
 20
-3.387523999999999
 30
0.0
 40
0.112131
  1
Hi-Load 60 foam core
 41
0.6314140684475384
  7
SN0
 72
     5
 11
0.109803
 21
-3.387523999999999
 31
0.0
100
AcDbText
  0
TEXT
  5
208
330
1E
100
AcDbEntity
  8
LAYER_1
 62
     7
100
AcDbText
 10
0.065138
 20
-4.18198
 30
0.0
 40
0.112131
  1
1.0oz Kevlar skin
 41
0.6664609631239835
  7
SN0
 72
     5
 11
1.093578
 21
-4.18198
 31
0.0
100
AcDbText
  0
LWPOLYLINE
  5
209
330
1E
100
AcDbEntity
  8
LAYER_1
  6
Continuous
 62
     7
100
AcDbPolyline
 90
        2
 70
     0
 43
0.0
 10
-7.506054999999999
 20
-0.6897050000000001
 10
-0.760094
 20
-0.71915
  0
LWPOLYLINE
  5
20D
330
1E
100
AcDbEntity
  8
LAYER_1
  6
Continuous
 62
     7
100
AcDbPolyline
 90
        2
 70
     0
 43
0.0
 10
-7.506054999999999
 20
-1.314732
 10
-0.760094
 20
-1.285290999999999
  0
LWPOLYLINE
  5
211
330
1E
100
AcDbEntity
  8
LAYER_1
  6
Continuous
 62
     7
100
AcDbPolyline
 90
        2
 70
     0
 43
0.0
 10
-1.225082999999999
 20
-0.6170550000000001
 10
-1.077621999999999
 20
-0.7215
  0
LWPOLYLINE
  5
215
330
1E
100
AcDbEntity
  8
LAYER_1
  6
DASHED
 62
     7
100
AcDbPolyline
 90
        2
 70
     0
 43
0.0
 10
3.862083
 20
-5.008483999999999
 10
4.353594
 20
-5.008483999999999
  0
LWPOLYLINE
  5
219
330
1E
100
AcDbEntity
  8
LAYER_1
  6
DASHED
 62
     7
100
AcDbPolyline
 90
        2
 70
     0
 43
0.0
 10
-4.125008
 20
-5.008483999999999
 10
-3.633491999999999
 20
-5.008483999999999
  0
LWPOLYLINE
  5
21D
330
1E
100
AcDbEntity
  8
LAYER_1
  6
DASHED
 62
     7
100
AcDbPolyline
 90
        2
 70
     0
 43
0.0
 10
-4.129248
 20
5.006094
 10
-3.637732
 20
5.006094
  0
LWPOLYLINE
  5
221
330
1E
100
AcDbEntity
  8
LAYER_1
  6
DASHED
 62
     7
100
AcDbPolyline
 90
        2
 70
     0
 43
0.0
 10
3.862083
 20
4.993802999999999
 10
4.353594
 20
4.993802999999999
  0
TEXT
  5
225
330
1E
100
AcDbEntity
  8
LAYER_1
 62
     7
100
AcDbText
 10
0.8515549999999999
 20
-4.822508
 30
0.0
 40
0.112131
  1
HT13  (6.5%)   8.0" chord
 41
0.6160524225553007
  7
SN3
 72
     5
 11
2.381152
 21
-4.822508
 31
0.0
100
AcDbText
  0
LWPOLYLINE
  5
226
330
1E
100
AcDbEntity
  8
LAYER_1
  6
Continuous
 62
     7
100
AcDbPolyline
 90
        2
 70
     0
 43
0.0
 10
-3.871201
 20
8.495830999999999
 10
-2.126330999999999
 20
8.495830999999999
  0
LWPOLYLINE
  5
22A
330
1E
100
AcDbEntity
  8
LAYER_1
  6
Continuous
 62
     7
100
AcDbPolyline
 90
        3
 70
     0
 43
0.0
 10
-2.236912999999999
 20
8.526527999999998
 10
-2.126330999999999
 20
8.495830999999999
 10
-2.236912999999999
 20
8.465137999999999
  0
LWPOLYLINE
  5
22F
330
1E
100
AcDbEntity
  8
LAYER_1
  6
Continuous
 62
     7
100
AcDbPolyline
 90
        2
 70
     0
 43
0.0
 10
-3.871201
 20
6.001401999999999
 10
-0.6272050000000001
 20
6.001401999999999
  0
LWPOLYLINE
  5
233
330
1E
100
AcDbEntity
  8
LAYER_1
  6
Continuous
 62
     7
100
AcDbPolyline
 90
        3
 70
     0
 43
0.0
 10
-0.737803
 20
6.032122
 10
-0.6272050000000001
 20
6.001412999999999
 10
-0.737803
 20
5.970692999999999
  0
LWPOLYLINE
  5
238
330
1E
100
AcDbEntity
  8
LAYER_1
  6
Continuous
 62
     7
100
AcDbPolyline
 90
        2
 70
     0
 43
0.0
 10
-0.6272050000000001
 20
8.495830999999999
 10
-0.6272050000000001
 20
-4.996197
  0
LWPOLYLINE
  5
23C
330
1E
100
AcDbEntity
  8
LAYER_1
  6
Continuous
 62
     7
100
AcDbPolyline
 90
        2
 70
     0
 43
0.0
 10
-3.899614
 20
7.49761
 10
-3.848929
 20
7.49761
  0
LWPOLYLINE
  5
240
330
1E
100
AcDbEntity
  8
LAYER_1
  6
Continuous
 62
     7
100
AcDbPolyline
 90
        2
 70
     0
 43
0.0
 10
-3.899614
 20
8.499027999999999
 10
-3.848929
 20
8.499027999999999
  0
LWPOLYLINE
  5
244
330
1E
100
AcDbEntity
  8
LAYER_1
  6
Continuous
 62
     7
100
AcDbPolyline
 90
        9
 70
     0
 43
0.0
 10
-3.871201
 20
-4.504685
 10
-3.870865
 20
-4.502152999999999
 10
-3.868512999999999
 20
-4.484429
 10
-3.862128999999999
 20
-4.436322
 10
-3.849696999999999
 20
-4.342639
 10
-3.829201
 20
-4.188189
 10
-3.798624999999999
 20
-3.957780999999999
 10
-3.755952999999999
 20
-3.636220999999999
 10
-3.699169
 20
-3.208318999999999
  0
LWPOLYLINE
  5
24F
330
1E
100
AcDbEntity
  8
LAYER_1
  6
Continuous
 62
     7
100
AcDbPolyline
 90
       42
 70
     0
 43
0.0
 10
-3.699169
 20
-3.208318999999999
 10
-3.686279
 20
-3.111181
 10
-3.6728
 20
-3.009606
 10
-3.658757
 20
-2.903785
 10
-3.644176
 20
-2.793906
 10
-3.629080999999999
 20
-2.680159999999999
 10
-3.613497
 20
-2.562737999999999
 10
-3.597451
 20
-2.441827999999999
 10
-3.580966
 20
-2.317622
 10
-3.564069
 20
-2.190309999999999
 10
-3.546783999999999
 20
-2.06008
 10
-3.529136
 20
-1.927124
 10
-3.51115
 20
-1.791631999999999
 10
-3.492852999999999
 20
-1.653793
 10
-3.474266999999999
 20
-1.513797999999999
 10
-3.455419999999999
 20
-1.371836
 10
-3.436336
 20
-1.228097999999999
 10
-3.41704
 20
-1.082773999999999
 10
-3.397558
 20
-0.936053
 10
-3.377914
 20
-0.7881270000000001
 10
-3.358133
 20
-0.6391840000000001
 10
-3.338241999999999
 20
-0.489416
 10
-3.318264
 20
-0.339011
 10
-3.298224999999999
 20
-0.188161
 10
-3.27815
 20
-0.037054
 10
-3.258065
 20
0.114118
 10
-3.237994
 20
0.265166
 10
-3.217961999999999
 20
0.415899
 10
-3.197995999999999
 20
0.566128
 10
-3.178118999999999
 20
0.7156630000000001
 10
-3.158357
 20
0.8643129999999999
 10
-3.138735
 20
1.011889
 10
-3.119279
 20
1.158199999999999
 10
-3.100013
 20
1.303055999999999
 10
-3.080961999999999
 20
1.446268
 10
-3.062152999999999
 20
1.587645
 10
-3.043609
 20
1.726997
 10
-3.025355999999999
 20
1.864133999999999
 10
-3.007419
 20
1.998865999999999
 10
-2.989822999999999
 20
2.131002999999999
 10
-2.972593999999999
 20
2.260355
 10
-2.955756
 20
2.386731999999999
  0
LWPOLYLINE
  5
27B
330
1E
100
AcDbEntity
  8
LAYER_1
  6
Continuous
 62
     7
100
AcDbPolyline
 90
       24
 70
     0
 43
0.0
 10
-2.955756
 20
2.386731999999999
 10
-2.926756999999999
 20
2.604279
 10
-2.899022
 20
2.81212
 10
-2.872491999999999
 20
3.010608
 10
-2.847108
 20
3.200095
 10
-2.822808999999999
 20
3.380935
 10
-2.799536999999999
 20
3.553479
 10
-2.777231
 20
3.71808
 10
-2.755831999999999
 20
3.87509
 10
-2.735279999999999
 20
4.024862
 10
-2.715516
 20
4.167748999999999
 10
-2.696479999999999
 20
4.304101999999999
 10
-2.678113
 20
4.434273999999999
 10
-2.660353999999999
 20
4.558618
 10
-2.643145
 20
4.677486
 10
-2.626425999999999
 20
4.791230999999999
 10
-2.610136999999999
 20
4.900204
 10
-2.594218
 20
5.00476
 10
-2.578609999999999
 20
5.105248999999999
 10
-2.563254
 20
5.202023999999999
 10
-2.548089
 20
5.295437999999999
 10
-2.533056999999999
 20
5.385844
 10
-2.518097
 20
5.473594
 10
-2.50315
 20
5.559039
  0
LWPOLYLINE
  5
295
330
1E
100
AcDbEntity
  8
LAYER_1
  6
Continuous
 62
     7
100
AcDbPolyline
 90
       11
 70
     0
 43
0.0
 10
-2.50315
 20
5.559039
 10
-2.468606
 20
5.748098999999999
 10
-2.433717999999999
 20
5.927279
 10
-2.398388
 20
6.097024
 10
-2.362518
 20
6.257773999999999
 10
-2.326008
 20
6.409971999999999
 10
-2.288761
 20
6.554060999999999
 10
-2.250677
 20
6.690482
 10
-2.211659999999999
 20
6.819677999999999
 10
-2.171609999999999
 20
6.942091999999999
 10
-2.130428999999999
 20
7.058164999999999
  0
LWPOLYLINE
  5
2A2
330
1E
100
AcDbEntity
  8
LAYER_1
  6
Continuous
 62
     7
100
AcDbPolyline
 90
        7
 70
     0
 43
0.0
 10
-2.130428999999999
 20
7.058164999999999
 10
-2.059042999999999
 20
7.238535
 10
-1.983958
 20
7.403433999999999
 10
-1.90489
 20
7.553768999999999
 10
-1.821556999999999
 20
7.690452
 10
-1.733674
 20
7.814392999999999
 10
-1.640957
 20
7.926499999999999
  0
LWPOLYLINE
  5
2AB
330
1E
100
AcDbEntity
  8
LAYER_1
  6
Continuous
 62
     7
100
AcDbPolyline
 90
        5
 70
     0
 43
0.0
 10
-1.640957
 20
7.926499999999999
 10
-1.493439999999999
 20
8.074016
 10
-1.340932
 20
8.197341999999999
 10
-1.189961
 20
8.296860999999999
 10
-1.047054999999999
 20
8.372957000000001
  0
LWPOLYLINE
  5
2B2
330
1E
100
AcDbEntity
  8
LAYER_1
  6
Continuous
 62
     7
100
AcDbPolyline
 90
        4
 70
     0
 43
0.0
 10
-1.047054999999999
 20
8.372957000000001
 10
-0.8753969999999998
 20
8.440274
 10
-0.715576
 20
8.477052999999999
 10
-0.553484
 20
8.493748
  0
LWPOLYLINE
  5
2B8
330
1E
100
AcDbEntity
  8
LAYER_1
  6
Continuous
 62
     7
100
AcDbPolyline
 90
        4
 70
     0
 43
0.0
 10
-0.553484
 20
8.493748
 10
-0.37956
 20
8.499859999999999
 10
-0.202447
 20
8.500045
 10
-0.035346
 20
8.497913
  0
LWPOLYLINE
  5
2BE
330
1E
100
AcDbEntity
  8
LAYER_1
  6
Continuous
 62
     7
100
AcDbPolyline
 90
        4
 70
     0
 43
0.0
 10
-0.035346
 20
8.497913
 10
0.115974
 20
8.496447999999999
 10
0.275486
 20
8.495908
 10
0.474594
 20
8.495830999999999
  0
LWPOLYLINE
  5
2C4
330
1E
100
AcDbEntity
  8
LAYER_1
  6
Continuous
 62
     7
100
AcDbPolyline
 90
        5
 70
     0
 43
0.0
 10
0.474594
 20
8.495830999999999
 10
0.662592
 20
8.494455
 10
0.866525
 20
8.484823999999999
 10
1.062394999999999
 20
8.458682000000001
 10
1.226204999999999
 20
8.407776
  0
LWPOLYLINE
  5
2CB
330
1E
100
AcDbEntity
  8
LAYER_1
  6
Continuous
 62
     7
100
AcDbPolyline
 90
        5
 70
     0
 43
0.0
 10
1.226204999999999
 20
8.407776
 10
1.340856999999999
 20
8.324061
 10
1.41692
 20
8.200413000000001
 10
1.471865
 20
8.029918999999999
 10
1.523164999999999
 20
7.805664999999999
  0
LWPOLYLINE
  5
2D2
330
1E
100
AcDbEntity
  8
LAYER_1
  6
Continuous
 62
     7
100
AcDbPolyline
 90
       12
 70
     0
 43
0.0
 10
1.523164999999999
 20
7.805664999999999
 10
1.544191
 20
7.709447999999999
 10
1.567081999999999
 20
7.604902
 10
1.591873999999999
 20
7.491724
 10
1.618604999999999
 20
7.369608
 10
1.647313
 20
7.238250999999999
 10
1.678033
 20
7.097347
 10
1.710802999999999
 20
6.946591999999999
 10
1.745659999999999
 20
6.785680999999999
 10
1.782640999999999
 20
6.61431
 10
1.821781999999999
 20
6.432173999999999
 10
1.863122
 20
6.238968999999999
  0
LWPOLYLINE
  5
2E0
330
1E
100
AcDbEntity
  8
LAYER_1
  6
Continuous
 62
     7
100
AcDbPolyline
 90
       21
 70
     0
 43
0.0
 10
1.863122
 20
6.238968999999999
 10
1.886804999999999
 20
6.127893
 10
1.911158
 20
6.013422
 10
1.936175
 20
5.895599999999999
 10
1.961849
 20
5.774469999999999
 10
1.988174
 20
5.650078999999999
 10
2.015144999999999
 20
5.522469999999999
 10
2.042755
 20
5.391687
 10
2.070997
 20
5.257775999999999
 10
2.099866
 20
5.120779999999999
 10
2.129356
 20
4.980744999999999
 10
2.159459999999999
 20
4.837715
 10
2.190172
 20
4.691733999999999
 10
2.221486
 20
4.542847
 10
2.253397
 20
4.391098999999999
 10
2.285897
 20
4.236533999999999
 10
2.318979999999999
 20
4.079195999999999
 10
2.352641
 20
3.919130999999999
 10
2.386874
 20
3.756381999999999
 10
2.421670999999999
 20
3.590994
 10
2.457027999999999
 20
3.423012
  0
LWPOLYLINE
  5
2F7
330
1E
100
AcDbEntity
  8
LAYER_1
  6
Continuous
 62
     7
100
AcDbPolyline
 90
       27
 70
     0
 43
0.0
 10
2.457027999999999
 20
3.423012
 10
2.484599
 20
3.292072
 10
2.512474
 20
3.159729
 10
2.540631
 20
3.026089999999999
 10
2.569045
 20
2.891261999999999
 10
2.597694999999999
 20
2.755349
 10
2.626556
 20
2.618459
 10
2.655606
 20
2.480697999999999
 10
2.684822
 20
2.342172999999999
 10
2.714179999999999
 20
2.202987999999999
 10
2.743658
 20
2.063250999999999
 10
2.773232
 20
1.923067999999999
 10
2.80288
 20
1.782545999999999
 10
2.832577999999999
 20
1.641788999999999
 10
2.862303999999999
 20
1.500905999999999
 10
2.892032999999999
 20
1.360001
 10
2.921743999999999
 20
1.219181999999999
 10
2.951411999999999
 20
1.078554
 10
2.981015999999999
 20
0.9382249999999999
 10
3.010531
 20
0.798299
 10
3.039934999999999
 20
0.658883
 10
3.069204999999999
 20
0.520084
 10
3.098316999999999
 20
0.382008
 10
3.127248999999999
 20
0.244762
 10
3.155977999999999
 20
0.10845
 10
3.184479999999999
 20
-0.026819
 10
3.212731999999999
 20
-0.160941
  0
LWPOLYLINE
  5
314
330
1E
100
AcDbEntity
  8
LAYER_1
  6
Continuous
 62
     7
100
AcDbPolyline
 90
       21
 70
     0
 43
0.0
 10
3.212731999999999
 20
-0.160941
 10
3.249049999999999
 20
-0.333413
 10
3.284859999999999
 20
-0.5035689999999999
 10
3.320112999999999
 20
-0.6712120000000001
 10
3.354762999999999
 20
-0.8361459999999999
 10
3.388762
 20
-0.998174
 10
3.422062
 20
-1.157098999999999
 10
3.454614999999999
 20
-1.312724999999999
 10
3.486373999999999
 20
-1.464855
 10
3.517291999999999
 20
-1.613291999999999
 10
3.547319999999999
 20
-1.757840999999999
 10
3.576412
 20
-1.898303999999999
 10
3.604519
 20
-2.034484999999999
 10
3.631594
 20
-2.166186999999999
 10
3.657588999999999
 20
-2.293213
 10
3.682456999999999
 20
-2.415366999999999
 10
3.70615
 20
-2.532452999999999
 10
3.728619999999999
 20
-2.644273
 10
3.749820999999999
 20
-2.750631999999999
 10
3.769702999999999
 20
-2.851331999999999
 10
3.788219999999999
 20
-2.946177
  0
LWPOLYLINE
  5
32B
330
1E
100
AcDbEntity
  8
LAYER_1
  6
Continuous
 62
     7
100
AcDbPolyline
 90
        7
 70
     0
 43
0.0
 10
3.788219999999999
 20
-2.946177
 10
3.839655
 20
-3.220314
 10
3.874762
 20
-3.436707
 10
3.892916999999999
 20
-3.604858999999999
 10
3.893494
 20
-3.734269999999999
 10
3.875868
 20
-3.834441
 10
3.839412999999999
 20
-3.914873999999999
  0
LWPOLYLINE
  5
334
330
1E
100
AcDbEntity
  8
LAYER_1
  6
Continuous
 62
     7
100
AcDbPolyline
 90
        5
 70
     0
 43
0.0
 10
3.839412999999999
 20
-3.914873999999999
 10
3.748178999999999
 20
-4.014648999999999
 10
3.611829
 20
-4.095606
 10
3.429018
 20
-4.161971
 10
3.198402
 20
-4.217969
  0
LWPOLYLINE
  5
33B
330
1E
100
AcDbEntity
  8
LAYER_1
  6
Continuous
 62
     7
100
AcDbPolyline
 90
        9
 70
     0
 43
0.0
 10
3.198402
 20
-4.217969
 10
3.065065
 20
-4.243369
 10
2.921217
 20
-4.267568999999999
 10
2.768634
 20
-4.290905
 10
2.609093
 20
-4.313712999999999
 10
2.444366999999999
 20
-4.336327999999999
 10
2.276234
 20
-4.359087999999999
 10
2.106468
 20
-4.382329
 10
1.936845999999999
 20
-4.406386
  0
LWPOLYLINE
  5
346
330
1E
100
AcDbEntity
  8
LAYER_1
  6
Continuous
 62
     7
100
AcDbPolyline
 90
        9
 70
     0
 43
0.0
 10
1.936845999999999
 20
-4.406386
 10
1.768827999999999
 20
-4.431432
 10
1.602611
 20
-4.457005999999999
 10
1.438072999999999
 20
-4.482484999999999
 10
1.275096
 20
-4.507244
 10
1.113558999999999
 20
-4.530658999999999
 10
0.9533409999999999
 20
-4.552106
 10
0.7943240000000001
 20
-4.570962
 10
0.636386
 20
-4.586602
  0
LWPOLYLINE
  5
351
330
1E
100
AcDbEntity
  8
LAYER_1
  6
Continuous
 62
     7
100
AcDbPolyline
 90
        7
 70
     0
 43
0.0
 10
0.636386
 20
-4.586602
 10
0.428224
 20
-4.601821
 10
0.227173
 20
-4.611406999999999
 10
0.038636
 20
-4.616554999999999
 10
-0.131983
 20
-4.618460999999999
 10
-0.279278
 20
-4.618318
 10
-0.397846
 20
-4.617323
  0
LWPOLYLINE
  5
35A
330
1E
100
AcDbEntity
  8
LAYER_1
  6
Continuous
 62
     7
100
AcDbPolyline
 90
        4
 70
     0
 43
0.0
 10
-0.397846
 20
-4.617323
 10
-0.541959
 20
-4.615882
 10
-0.595053
 20
-4.615351
 10
-0.602638
 20
-4.615276
  0
TEXT
  5
360
330
1E
100
AcDbEntity
  8
LAYER_1
 62
     7
100
AcDbText
 10
0.396913
 20
3.007248
 30
0.0
 40
0.112131
  1
Weights
 41
0.7784364353497551
  7
SN0
 72
     5
 11
0.887382
 21
3.007248
 31
0.0
100
AcDbText
  0
TEXT
  5
361
330
1E
100
AcDbEntity
  8
LAYER_1
 62
     7
100
AcDbText
 10
0.396913
 20
2.872083
 30
0.0
 40
0.112131
  1
----------------
 41
0.3414784330989482
  7
SN0
 72
     5
 11
1.118959
 21
2.872083
 31
0.0
100
AcDbText
  0
TEXT
  5
362
330
1E
100
AcDbEntity
  8
LAYER_1
 62
     7
100
AcDbText
 10
0.396913
 20
2.736912999999999
 30
0.0
 40
0.112131
  1
Foam    10.9 g
 41
0.5838269524038848
  7
SN0
 72
     5
 11
1.269781
 21
2.736912999999999
 31
0.0
100
AcDbText
  0
TEXT
  5
363
330
1E
100
AcDbEntity
  8
LAYER_1
 62
     7
100
AcDbText
 10
0.396913
 20
2.601748
 30
0.0
 40
0.112131
  1
LE strip 0.4 g
 41
0.6296930726030321
  7
SN0
 72
     5
 11
1.193775999999999
 21
2.601748
 31
0.0
100
AcDbText
  0
TEXT
  5
364
330
1E
100
AcDbEntity
  8
LAYER_1
 62
     7
100
AcDbText
 10
0.396913
 20
2.466579
 30
0.0
 40
0.112131
  1
Facings  0.6 g
 41
0.6310453844164418
  7
SN0
 72
     5
 11
1.246029999999999
 21
2.466579
 31
0.0
100
AcDbText
  0
TEXT
  5
365
330
1E
100
AcDbEntity
  8
LAYER_1
 62
     7
100
AcDbText
 10
0.396913
 20
2.331412999999999
 30
0.0
 40
0.112131
  1
Paint    1.0 g
 41
0.5648512305547381
  7
SN0
 72
     5
 11
1.156961
 21
2.331412999999999
 31
0.0
100
AcDbText
  0
TEXT
  5
366
330
1E
100
AcDbEntity
  8
LAYER_1
 62
     7
100
AcDbText
 10
0.396913
 20
2.196244
 30
0.0
 40
0.112131
  1
Skin    10.3 g
 41
0.5688572363506146
  7
SN0
 72
     5
 11
1.186651
 21
2.196244
 31
0.0
100
AcDbText
  0
TEXT
  5
367
330
1E
100
AcDbEntity
  8
LAYER_1
 62
     7
100
AcDbText
 10
0.396913
 20
2.061078999999999
 30
0.0
 40
0.112131
  1
Horn     0.3 g
 41
0.5468967067703458
  7
SN0
 72
     5
 11
1.179524999999999
 21
2.061078999999999
 31
0.0
100
AcDbText
  0
TEXT
  5
368
330
1E
100
AcDbEntity
  8
LAYER_1
 62
     7
100
AcDbText
 10
0.396913
 20
1.925909
 30
0.0
 40
0.112131
  1
TOTAL   23.5 g 
 41
0.6264424590627266
  7
SN0
 72
     5
 11
1.363599
 21
1.925909
 31
0.0
100
AcDbText
  0
LWPOLYLINE
  5
369
330
1E
100
AcDbEntity
  8
LAYER_1
  6
Continuous
 62
     7
100
AcDbPolyline
 90
        7
 70
     0
 43
0.0
 10
-0.318693
 20
-0.9252909999999999
 10
1.002054999999999
 20
-1.758775999999999
 10
2.088
 20
-2.446038999999999
 10
3.568676999999999
 20
-3.389594
 10
1.99972
 20
-2.586638
 10
0.850528
 20
-1.990538999999999
 10
-0.6145550000000001
 20
-1.222704999999999
  0
LWPOLYLINE
  5
372
330
1E
100
AcDbEntity
  8
LAYER_1
  6
Continuous
 62
     7
100
AcDbPolyline
 90
        7
 70
     0
 43
0.0
 10
-0.718039
 20
-0.8024289999999998
 10
0.6641650000000001
 20
-0.075346
 10
1.802318999999999
 20
0.521457
 10
3.359791
 20
1.332
 10
1.879929
 20
0.37472
 10
0.789094
 20
-0.322469
 10
-0.608402
 20
-1.207357999999999
  0
LWPOLYLINE
  5
37B
330
1E
100
AcDbEntity
  8
LAYER_1
  6
Continuous
 62
     7
100
AcDbPolyline
 90
        4
 70
     0
 43
0.0
 10
-0.381457
 20
-1.203791
 10
-0.3836
 20
-1.199734
 10
-0.398601
 20
-1.171329
 10
-0.439319
 20
-1.094231999999999
  0
LWPOLYLINE
  5
381
330
1E
100
AcDbEntity
  8
LAYER_1
  6
Continuous
 62
     7
100
AcDbPolyline
 90
        4
 70
     0
 43
0.0
 10
-0.439319
 20
-1.094231999999999
 10
-0.5122460000000001
 20
-0.9559549999999997
 10
-0.5984920000000001
 20
-0.7915100000000001
 10
-0.6727910000000001
 20
-0.647776
  0
LWPOLYLINE
  5
387
330
1E
100
AcDbEntity
  8
LAYER_1
  6
Continuous
 62
     7
100
AcDbPolyline
 90
        4
 70
     0
 43
0.0
 10
-0.6727910000000001
 20
-0.647776
 10
-0.7160790000000001
 20
-0.560053
 10
-0.734107
 20
-0.517388
 10
-0.7388310000000001
 20
-0.497248
  0
LWPOLYLINE
  5
38D
330
1E
100
AcDbEntity
  8
LAYER_1
  6
Continuous
 62
     7
100
AcDbPolyline
 90
        4
 70
     0
 43
0.0
 10
-0.7388310000000001
 20
-0.497248
 10
-0.7401170000000001
 20
-0.480938
 10
-0.739584
 20
-0.4650890000000001
 10
-0.736776
 20
-0.45015
  0
LWPOLYLINE
  5
393
330
1E
100
AcDbEntity
  8
LAYER_1
  6
Continuous
 62
     7
100
AcDbPolyline
 90
        4
 70
     0
 43
0.0
 10
-0.736776
 20
-0.45015
 10
-0.731475
 20
-0.436488
 10
-0.7243470000000001
 20
-0.4241970000000001
 10
-0.716303
 20
-0.4132760000000001
  0
LWPOLYLINE
  5
399
330
1E
100
AcDbEntity
  8
LAYER_1
  6
Continuous
 62
     7
100
AcDbPolyline
 90
        4
 70
     0
 43
0.0
 10
-0.716303
 20
-0.4132760000000001
 10
-0.7080370000000001
 20
-0.403721
 10
-0.699316
 20
-0.39553
 10
-0.6896770000000001
 20
-0.388705
  0
LWPOLYLINE
  5
39F
330
1E
100
AcDbEntity
  8
LAYER_1
  6
Continuous
 62
     7
100
AcDbPolyline
 90
        4
 70
     0
 43
0.0
 10
-0.6896770000000001
 20
-0.388705
 10
-0.678832
 20
-0.383247
 10
-0.6670729999999999
 20
-0.379149
 10
-0.654858
 20
-0.376413
  0
LWPOLYLINE
  5
3A5
330
1E
100
AcDbEntity
  8
LAYER_1
  6
Continuous
 62
     7
100
AcDbPolyline
 90
        4
 70
     0
 43
0.0
 10
-0.654858
 20
-0.376413
 10
-0.642502
 20
-0.375054
 10
-0.6296850000000001
 20
-0.375054
 10
-0.615957
 20
-0.376413
  0
LWPOLYLINE
  5
3AB
330
1E
100
AcDbEntity
  8
LAYER_1
  6
Continuous
 62
     7
100
AcDbPolyline
 90
        4
 70
     0
 43
0.0
 10
-0.615957
 20
-0.376413
 10
-0.6011600000000001
 20
-0.379149
 10
-0.5863680000000001
 20
-0.383247
 10
-0.5729410000000001
 20
-0.388705
  0
LWPOLYLINE
  5
3B1
330
1E
100
AcDbEntity
  8
LAYER_1
  6
Continuous
 62
     7
100
AcDbPolyline
 90
        4
 70
     0
 43
0.0
 10
-0.5729410000000001
 20
-0.388705
 10
-0.557892
 20
-0.397995
 10
-0.5207609999999999
 20
-0.4234410000000001
 10
-0.436748
 20
-0.4798310000000001
  0
LWPOLYLINE
  5
3B7
330
1E
100
AcDbEntity
  8
LAYER_1
  6
Continuous
 62
     7
100
AcDbPolyline
 90
        4
 70
     0
 43
0.0
 10
-0.436748
 20
-0.4798310000000001
 10
-0.290436
 20
-0.5762229999999999
 10
-0.103849
 20
-0.6986670000000001
 10
0.09161
 20
-0.8274839999999999
  0
LWPOLYLINE
  5
3BD
330
1E
100
AcDbEntity
  8
LAYER_1
  6
Continuous
 62
     7
100
AcDbPolyline
 90
        4
 70
     0
 43
0.0
 10
0.09161
 20
-0.8274839999999999
 10
0.268159
 20
-0.945054
 10
0.412393
 20
-1.042024999999999
 10
0.514528
 20
-1.111121999999999
  0
LWPOLYLINE
  5
3C3
330
1E
100
AcDbEntity
  8
LAYER_1
  6
Continuous
 62
     7
100
AcDbPolyline
 90
        4
 70
     0
 43
0.0
 10
0.514528
 20
-1.111121999999999
 10
0.5692890000000001
 20
-1.148233
 10
0.589464
 20
-1.161904999999999
 10
0.5923460000000001
 20
-1.163858
  0
TEXT
  5
3C9
330
1E
100
AcDbEntity
  8
LAYER_1
 62
     7
100
AcDbText
 10
2.811468999999999
 20
-0.052846
 30
0.0
 40
0.112131
  1
+/-30 throw
 41
0.5809061636933222
  7
SN0
 72
     5
 11
3.490761
 21
-0.052846
 31
0.0
100
AcDbText
  0
LWPOLYLINE
  5
3CA
330
1E
100
AcDbEntity
  8
LAYER_1
  6
Continuous
 62
     7
100
AcDbPolyline
 90
        4
 70
     0
 43
0.0
 10
-0.7362760000000001
 20
-0.801374
 10
-0.6364290000000001
 20
-1.216083
 10
-0.611858
 20
-1.213011999999999
 10
-0.4889840000000001
 20
-0.809055
  0
LWPOLYLINE
  5
3D0
330
1E
100
AcDbEntity
  8
LAYER_1
  6
Continuous
 62
     7
100
AcDbPolyline
 90
        2
 70
     0
 43
0.0
 10
-3.902862
 20
-2.500318999999999
 10
-3.852176999999999
 20
-2.500318999999999
  0
LWPOLYLINE
  5
3D4
330
1E
100
AcDbEntity
  8
LAYER_1
  6
Continuous
 62
     7
100
AcDbPolyline
 90
        2
 70
     0
 43
0.0
 10
-3.875219999999999
 20
-4.498539
 10
-3.875219999999999
 20
-1.749138
  0
LWPOLYLINE
  5
3D8
330
1E
100
AcDbEntity
  8
LAYER_1
  6
Continuous
 62
     7
100
AcDbPolyline
 90
        2
 70
     0
 43
0.0
 10
-3.875219999999999
 20
-0.246957
 10
-3.875219999999999
 20
8.48972
  0
LWPOLYLINE
  5
3DC
330
1E
100
AcDbEntity
  8
LAYER_1
  6
Continuous
 62
     7
100
AcDbPolyline
 90
        7
 70
     0
 43
0.0
 10
4.10311
 20
-11.002358
 10
4.098499999999999
 20
-11.002157
 10
4.06623
 20
-11.000747
 10
3.97864
 20
-10.996919
 10
3.808069
 20
-10.989466
 10
3.526858
 20
-10.977178
 10
3.107345999999999
 20
-10.958846
  0
LWPOLYLINE
  5
3E5
330
1E
100
AcDbEntity
  8
LAYER_1
  6
Continuous
 62
     7
100
AcDbPolyline
 90
       32
 70
     0
 43
0.0
 10
3.107345999999999
 20
-10.958846
 10
3.007932999999999
 20
-10.95450099999999
 10
2.902649
 20
-10.949902
 10
2.791843
 20
-10.945065
 10
2.675861999999999
 20
-10.94000899999999
 10
2.555053
 20
-10.93474999999999
 10
2.429762999999999
 20
-10.929307
 10
2.300339
 20
-10.923696
 10
2.167129999999999
 20
-10.917935
 10
2.030480999999999
 20
-10.912041
 10
1.890741
 20
-10.906032
 10
1.748256
 20
-10.899924
 10
1.603374
 20
-10.893736
 10
1.456442
 20
-10.887485
 10
1.307806999999999
 20
-10.88118699999999
 10
1.157817
 20
-10.874861
 10
1.006819
 20
-10.868524
 10
0.85516
 20
-10.86219299999999
 10
0.703187
 20
-10.855885
 10
0.551248
 20
-10.849618
 10
0.399689
 20
-10.84340899999999
 10
0.248859
 20
-10.83727499999999
 10
0.099104
 20
-10.831235
 10
-0.049228
 20
-10.825304
 10
-0.19579
 20
-10.819502
 10
-0.340235
 20
-10.81384399999999
 10
-0.4822160000000001
 20
-10.80834799999999
 10
-0.6213850000000001
 20
-10.803033
 10
-0.7573949999999999
 20
-10.797914
 10
-0.8899
 20
-10.793009
 10
-1.01855
 20
-10.788337
 10
-1.143
 20
-10.783913
  0
LWPOLYLINE
  5
407
330
1E
100
AcDbEntity
  8
LAYER_1
  6
Continuous
 62
     7
100
AcDbPolyline
 90
       16
 70
     0
 43
0.0
 10
-1.143
 20
-10.783913
 10
-1.386072999999999
 20
-10.77561199999999
 10
-1.610716999999999
 20
-10.76845499999999
 10
-1.817929
 20
-10.762448
 10
-2.008706
 20
-10.757597
 10
-2.184042999999999
 20
-10.753909
 10
-2.344936999999999
 20
-10.751388
 10
-2.492383999999999
 20
-10.750042
 10
-2.62738
 20
-10.74987499999999
 10
-2.750922999999999
 20
-10.750895
 10
-2.864006999999999
 20
-10.75310599999999
 10
-2.967629999999999
 20
-10.75651499999999
 10
-3.062788
 20
-10.76112799999999
 10
-3.150476999999999
 20
-10.76694999999999
 10
-3.231692999999999
 20
-10.773988
 10
-3.307433
 20
-10.78224799999999
  0
LWPOLYLINE
  5
419
330
1E
100
AcDbEntity
  8
LAYER_1
  6
Continuous
 62
     7
100
AcDbPolyline
 90
        5
 70
     0
 43
0.0
 10
-3.307433
 20
-10.78224799999999
 10
-3.550448
 20
-10.82344399999999
 10
-3.727589
 20
-10.87766199999999
 10
-3.835981999999999
 20
-10.94066699999999
 10
-3.872751999999999
 20
-11.00821999999999
  0
LWPOLYLINE
  5
420
330
1E
100
AcDbEntity
  8
LAYER_1
  6
Continuous
 62
     7
100
AcDbPolyline
 90
        5
 70
     0
 43
0.0
 10
-3.872751999999999
 20
-11.00821999999999
 10
-3.835981999999999
 20
-11.076069
 10
-3.727589
 20
-11.139835
 10
-3.550448
 20
-11.195127
 10
-3.307433
 20
-11.237555
  0
LWPOLYLINE
  5
427
330
1E
100
AcDbEntity
  8
LAYER_1
  6
Continuous
 62
     7
100
AcDbPolyline
 90
       16
 70
     0
 43
0.0
 10
-3.307433
 20
-11.237555
 10
-3.231692999999999
 20
-11.246147
 10
-3.150476999999999
 20
-11.25350899999999
 10
-3.062788
 20
-11.259642
 10
-2.967629999999999
 20
-11.264542
 10
-2.864006999999999
 20
-11.268209
 10
-2.750922999999999
 20
-11.27064099999999
 10
-2.62738
 20
-11.271836
 10
-2.492383999999999
 20
-11.27179299999999
 10
-2.344936999999999
 20
-11.270511
 10
-2.184042999999999
 20
-11.267988
 10
-2.008706
 20
-11.26422299999999
 10
-1.817929
 20
-11.259213
 10
-1.610716999999999
 20
-11.25295799999999
 10
-1.386072999999999
 20
-11.245456
 10
-1.143
 20
-11.236705
  0
LWPOLYLINE
  5
439
330
1E
100
AcDbEntity
  8
LAYER_1
  6
Continuous
 62
     7
100
AcDbPolyline
 90
       32
 70
     0
 43
0.0
 10
-1.143
 20
-11.236705
 10
-1.01855
 20
-11.232025
 10
-0.8899
 20
-11.22707299999999
 10
-0.7573949999999999
 20
-11.22186499999999
 10
-0.6213850000000001
 20
-11.216421
 10
-0.4822160000000001
 20
-11.210761
 10
-0.340235
 20
-11.204902
 10
-0.19579
 20
-11.198864
 10
-0.049228
 20
-11.192666
 10
0.099104
 20
-11.18632599999999
 10
0.248859
 20
-11.179863
 10
0.399689
 20
-11.17329699999999
 10
0.551248
 20
-11.166646
 10
0.703187
 20
-11.159928
 10
0.85516
 20
-11.15316399999999
 10
1.006819
 20
-11.146371
 10
1.157817
 20
-11.139569
 10
1.307806999999999
 20
-11.13277599999999
 10
1.456442
 20
-11.126011
 10
1.603374
 20
-11.11929399999999
 10
1.748256
 20
-11.11264299999999
 10
1.890741
 20
-11.106076
 10
2.030480999999999
 20
-11.099614
 10
2.167129999999999
 20
-11.093273
 10
2.300339
 20
-11.087075
 10
2.429762999999999
 20
-11.081037
 10
2.555053
 20
-11.07517799999999
 10
2.675861999999999
 20
-11.06951699999999
 10
2.791843
 20
-11.06407299999999
 10
2.902649
 20
-11.05886499999999
 10
3.007932999999999
 20
-11.053912
 10
3.107345999999999
 20
-11.04923199999999
  0
LWPOLYLINE
  5
45B
330
1E
100
AcDbEntity
  8
LAYER_1
  6
Continuous
 62
     7
100
AcDbPolyline
 90
        7
 70
     0
 43
0.0
 10
3.107345999999999
 20
-11.04923199999999
 10
3.526858
 20
-11.029484
 10
3.808069
 20
-11.016247
 10
3.97864
 20
-11.008218
 10
4.06623
 20
-11.00409399999999
 10
4.098499999999999
 20
-11.002575
 10
4.10311
 20
-11.002358
  0
LWPOLYLINE
  5
464
330
1E
100
AcDbEntity
  8
LAYER_1
  6
DASHED
 62
     7
100
AcDbPolyline
 90
        5
 70
     0
 43
0.0
 10
-3.871201
 20
-14.50467699999999
 10
-2.126330999999999
 20
-1.50415
 10
1.375704999999999
 20
-1.50415
 10
4.128176999999999
 20
-14.50467699999999
 10
-0.381457
 20
-14.63984599999999
  0
LWPOLYLINE
  5
46B
330
1E
100
AcDbEntity
  8
LAYER_1
  6
Continuous
 62
     7
100
AcDbPolyline
 90
        2
 70
     0
 43
0.0
 10
-7.377038999999999
 20
-14.442193
 10
-0.631083
 20
-14.471622
  0
LWPOLYLINE
  5
46F
330
1E
100
AcDbEntity
  8
LAYER_1
  6
Continuous
 62
     7
100
AcDbPolyline
 90
        2
 70
     0
 43
0.0
 10
-7.377038999999999
 20
-15.067193
 10
-0.631083
 20
-15.037764
  0
LWPOLYLINE
  5
473
330
1E
100
AcDbEntity
  8
LAYER_1
  6
Continuous
 62
     7
100
AcDbPolyline
 90
        2
 70
     0
 43
0.0
 10
-0.221996
 20
-13.90422
 10
-0.044969
 20
-13.72717699999999
  0
LWPOLYLINE
  5
477
330
1E
100
AcDbEntity
  8
LAYER_1
  6
Continuous
 62
     7
100
AcDbPolyline
 90
        2
 70
     0
 43
0.0
 10
-0.186165
 20
-13.940055
 10
-0.009122
 20
-13.763028
  0
LWPOLYLINE
  5
47B
330
1E
100
AcDbEntity
  8
LAYER_1
  6
Continuous
 62
     7
100
AcDbPolyline
 90
        2
 70
     0
 43
0.0
 10
-0.150319
 20
-13.97590199999999
 10
0.026705
 20
-13.798858
  0
LWPOLYLINE
  5
47F
330
1E
100
AcDbEntity
  8
LAYER_1
  6
Continuous
 62
     7
100
AcDbPolyline
 90
        2
 70
     0
 43
0.0
 10
-0.115567
 20
-14.01065
 10
0.061469
 20
-13.833622
  0
LWPOLYLINE
  5
483
330
1E
100
AcDbEntity
  8
LAYER_1
  6
Continuous
 62
     7
100
AcDbPolyline
 90
        2
 70
     0
 43
0.0
 10
-0.219831
 20
-13.867291
 10
-0.043874
 20
-14.045402
  0
LWPOLYLINE
  5
487
330
1E
100
AcDbEntity
  8
LAYER_1
  6
Continuous
 62
     7
100
AcDbPolyline
 90
        2
 70
     0
 43
0.0
 10
-0.185067
 20
-13.832528
 10
-0.009122
 20
-14.01065
  0
LWPOLYLINE
  5
48B
330
1E
100
AcDbEntity
  8
LAYER_1
  6
Continuous
 62
     7
100
AcDbPolyline
 90
        2
 70
     0
 43
0.0
 10
-0.149232
 20
-13.79669299999999
 10
0.026705
 20
-13.97480299999999
  0
LWPOLYLINE
  5
48F
330
1E
100
AcDbEntity
  8
LAYER_1
  6
Continuous
 62
     7
100
AcDbPolyline
 90
        2
 70
     0
 43
0.0
 10
-0.114484
 20
-13.761929
 10
0.061469
 20
-13.940055
  0
LWPOLYLINE
  5
493
330
1E
100
AcDbEntity
  8
LAYER_1
  6
Continuous
 62
     7
100
AcDbPolyline
 90
        2
 70
     0
 43
0.0
 10
-0.078638
 20
-13.72609399999999
 10
0.097303
 20
-13.90422
  0
LWPOLYLINE
  5
497
330
1E
100
AcDbEntity
  8
LAYER_1
  6
Continuous
 62
     7
100
AcDbPolyline
 90
        2
 70
     0
 43
0.0
 10
-0.07972
 20
-14.0465
 10
0.097303
 20
-13.869457
  0
LWPOLYLINE
  5
49B
330
1E
100
AcDbEntity
  8
LAYER_1
  6
Continuous
 62
     7
100
AcDbPolyline
 90
        2
 70
     0
 43
0.0
 10
-2.138263999999999
 20
-13.756677
 10
-2.036874
 20
-13.517776
  0
LWPOLYLINE
  5
49F
330
1E
100
AcDbEntity
  8
LAYER_1
  6
Continuous
 62
     7
100
AcDbPolyline
 90
        2
 70
     0
 43
0.0
 10
-2.117732
 20
-13.805039
 10
-2.016345999999999
 20
-13.566138
  0
LWPOLYLINE
  5
4A3
330
1E
100
AcDbEntity
  8
LAYER_1
  6
Continuous
 62
     7
100
AcDbPolyline
 90
        2
 70
     0
 43
0.0
 10
-2.097204999999999
 20
-13.85340199999999
 10
-1.995818999999999
 20
-13.614512
  0
LWPOLYLINE
  5
4A7
330
1E
100
AcDbEntity
  8
LAYER_1
  6
Continuous
 62
     7
100
AcDbPolyline
 90
        2
 70
     0
 43
0.0
 10
-2.077302999999999
 20
-13.900303
 10
-1.975913
 20
-13.661402
  0
LWPOLYLINE
  5
4AB
330
1E
100
AcDbEntity
  8
LAYER_1
  6
Continuous
 62
     7
100
AcDbPolyline
 90
        2
 70
     0
 43
0.0
 10
-2.137011999999999
 20
-13.70684599999999
 10
-2.036248
 20
-13.947205
  0
LWPOLYLINE
  5
4AF
330
1E
100
AcDbEntity
  8
LAYER_1
  6
Continuous
 62
     7
100
AcDbPolyline
 90
        2
 70
     0
 43
0.0
 10
-2.117109999999999
 20
-13.65994099999999
 10
-2.016345999999999
 20
-13.900303
  0
LWPOLYLINE
  5
4B3
330
1E
100
AcDbEntity
  8
LAYER_1
  6
Continuous
 62
     7
100
AcDbPolyline
 90
        2
 70
     0
 43
0.0
 10
-2.096583
 20
-13.611567
 10
-1.995818999999999
 20
-13.851941
  0
LWPOLYLINE
  5
4B7
330
1E
100
AcDbEntity
  8
LAYER_1
  6
Continuous
 62
     7
100
AcDbPolyline
 90
        2
 70
     0
 43
0.0
 10
-2.076677
 20
-13.564677
 10
-1.975913
 20
-13.805039
  0
LWPOLYLINE
  5
4BB
330
1E
100
AcDbEntity
  8
LAYER_1
  6
Continuous
 62
     7
100
AcDbPolyline
 90
        2
 70
     0
 43
0.0
 10
-2.05615
 20
-13.516303
 10
-1.955402
 20
-13.756665
  0
LWPOLYLINE
  5
4BF
330
1E
100
AcDbEntity
  8
LAYER_1
  6
Continuous
 62
     7
100
AcDbPolyline
 90
        2
 70
     0
 43
0.0
 10
-2.056775999999999
 20
-13.94867699999999
 10
-1.955402
 20
-13.709776
  0
LWPOLYLINE
  5
4C3
330
1E
100
AcDbEntity
  8
LAYER_1
  6
Continuous
 62
     7
100
AcDbPolyline
 90
        4
 70
     0
 43
0.0
 10
-0.6169130000000001
 20
-10.48891299999999
 10
-0.6191760000000001
 20
-10.48054799999999
 10
-0.625123
 20
-10.47459699999999
 10
-0.6334960000000001
 20
-10.472331
  0
LWPOLYLINE
  5
4C9
330
1E
100
AcDbEntity
  8
LAYER_1
  6
Continuous
 62
     7
100
AcDbPolyline
 90
        4
 70
     0
 43
0.0
 10
-0.6334960000000001
 20
-10.472331
 10
-0.6418650000000001
 20
-10.47459699999999
 10
-0.647817
 20
-10.48054799999999
 10
-0.650083
 20
-10.48891299999999
  0
LWPOLYLINE
  5
4CF
330
1E
100
AcDbEntity
  8
LAYER_1
  6
Continuous
 62
     7
100
AcDbPolyline
 90
        4
 70
     0
 43
0.0
 10
-0.650083
 20
-10.48891299999999
 10
-0.647817
 20
-10.497289
 10
-0.6418650000000001
 20
-10.503237
 10
-0.6334960000000001
 20
-10.5055
  0
LWPOLYLINE
  5
4D5
330
1E
100
AcDbEntity
  8
LAYER_1
  6
Continuous
 62
     7
100
AcDbPolyline
 90
        4
 70
     0
 43
0.0
 10
-0.6334960000000001
 20
-10.5055
 10
-0.625123
 20
-10.503237
 10
-0.6191760000000001
 20
-10.497289
 10
-0.6169130000000001
 20
-10.48891299999999
  0
LWPOLYLINE
  5
4DB
330
1E
100
AcDbEntity
  8
LAYER_1
  6
Continuous
 62
     7
100
AcDbPolyline
 90
        4
 70
     0
 43
0.0
 10
-3.837960999999999
 20
-14.48011
 10
-3.836568
 20
-14.48079299999999
 10
-3.826819999999999
 20
-14.48557099999999
 10
-3.800362
 20
-14.498539
  0
LWPOLYLINE
  5
4E1
330
1E
100
AcDbEntity
  8
LAYER_1
  6
Continuous
 62
     7
100
AcDbPolyline
 90
        4
 70
     0
 43
0.0
 10
-3.800362
 20
-14.498539
 10
-3.748425
 20
-14.522203
 10
-3.660607
 20
-14.552695
 10
-3.526094
 20
-14.58455499999999
  0
LWPOLYLINE
  5
4E7
330
1E
100
AcDbEntity
  8
LAYER_1
  6
Continuous
 62
     7
100
AcDbPolyline
 90
        5
 70
     0
 43
0.0
 10
-3.526094
 20
-14.58455499999999
 10
-3.389688999999999
 20
-14.60634699999999
 10
-3.226118
 20
-14.625257
 10
-3.040566999999999
 20
-14.640713
 10
-2.83822
 20
-14.652138
  0
LWPOLYLINE
  5
4EE
330
1E
100
AcDbEntity
  8
LAYER_1
  6
Continuous
 62
     7
100
AcDbPolyline
 90
        7
 70
     0
 43
0.0
 10
-2.83822
 20
-14.652138
 10
-2.696156
 20
-14.65726899999999
 10
-2.548068999999999
 20
-14.660408
 10
-2.3931
 20
-14.661613
 10
-2.230388999999999
 20
-14.660941
 10
-2.059076999999999
 20
-14.658448
 10
-1.878302999999999
 20
-14.65419299999999
  0
LWPOLYLINE
  5
4F7
330
1E
100
AcDbEntity
  8
LAYER_1
  6
Continuous
 62
     7
100
AcDbPolyline
 90
        7
 70
     0
 43
0.0
 10
-1.878302999999999
 20
-14.65419299999999
 10
-1.68864
 20
-14.64830899999999
 10
-1.496395
 20
-14.641289
 10
-1.309311
 20
-14.633701
 10
-1.135128
 20
-14.626114
 10
-0.981591
 20
-14.619098
 10
-0.856441
 20
-14.61322
  0
LWPOLYLINE
  5
500
330
1E
100
AcDbEntity
  8
LAYER_1
  6
Continuous
 62
     7
100
AcDbPolyline
 90
        4
 70
     0
 43
0.0
 10
-0.856441
 20
-14.61322
 10
-0.703903
 20
-14.606017
 10
-0.6477050000000001
 20
-14.60336299999999
 10
-0.639677
 20
-14.602984
  0
LWPOLYLINE
  5
506
330
1E
100
AcDbEntity
  8
LAYER_1
  6
Continuous
 62
     7
100
AcDbPolyline
 90
        4
 70
     0
 43
0.0
 10
-1.519912999999999
 20
-10.62519299999999
 10
-1.518585
 20
-10.625091
 10
-1.509284
 20
-10.624374
 10
-1.484038999999999
 20
-10.62242899999999
  0
LWPOLYLINE
  5
50C
330
1E
100
AcDbEntity
  8
LAYER_1
  6
Continuous
 62
     7
100
AcDbPolyline
 90
        4
 70
     0
 43
0.0
 10
-1.484038999999999
 20
-10.62242899999999
 10
-1.437586
 20
-10.618821
 10
-1.375417
 20
-10.61381799999999
 10
-1.305731999999999
 20
-10.607858
  0
LWPOLYLINE
  5
512
330
1E
100
AcDbEntity
  8
LAYER_1
  6
Continuous
 62
     7
100
AcDbPolyline
 90
        4
 70
     0
 43
0.0
 10
-1.305731999999999
 20
-10.607858
 10
-1.233748999999999
 20
-10.60098999999999
 10
-1.152751999999999
 20
-10.591696
 10
-1.053054999999999
 20
-10.57806699999999
  0
LWPOLYLINE
  5
518
330
1E
100
AcDbEntity
  8
LAYER_1
  6
Continuous
 62
     7
100
AcDbPolyline
 90
        4
 70
     0
 43
0.0
 10
-1.053054999999999
 20
-10.57806699999999
 10
-0.9310299999999999
 20
-10.559342
 10
-0.8072899999999998
 20
-10.53932199999999
 10
-0.7084960000000001
 20
-10.52295699999999
  0
LWPOLYLINE
  5
51E
330
1E
100
AcDbEntity
  8
LAYER_1
  6
Continuous
 62
     7
100
AcDbPolyline
 90
        4
 70
     0
 43
0.0
 10
-0.7084960000000001
 20
-10.52295699999999
 10
-0.6540090000000001
 20
-10.51388599999999
 10
-0.6339350000000001
 20
-10.51054399999999
 10
-0.631067
 20
-10.510067
  0
LWPOLYLINE
  5
524
330
1E
100
AcDbEntity
  8
LAYER_1
  6
Continuous
 62
     7
100
AcDbPolyline
 90
        4
 70
     0
 43
0.0
 10
-1.52422
 20
-10.59135799999999
 10
-1.522891999999999
 20
-10.591256
 10
-1.513595
 20
-10.590539
 10
-1.488358
 20
-10.588594
  0
LWPOLYLINE
  5
52A
330
1E
100
AcDbEntity
  8
LAYER_1
  6
Continuous
 62
     7
100
AcDbPolyline
 90
        4
 70
     0
 43
0.0
 10
-1.488358
 20
-10.588594
 10
-1.441899999999999
 20
-10.584988
 10
-1.379731
 20
-10.579986
 10
-1.310038999999999
 20
-10.57402799999999
  0
LWPOLYLINE
  5
530
330
1E
100
AcDbEntity
  8
LAYER_1
  6
Continuous
 62
     7
100
AcDbPolyline
 90
        4
 70
     0
 43
0.0
 10
-1.310038999999999
 20
-10.57402799999999
 10
-1.238053999999999
 20
-10.567157
 10
-1.157057
 20
-10.557862
 10
-1.057358
 20
-10.544232
  0
LWPOLYLINE
  5
536
330
1E
100
AcDbEntity
  8
LAYER_1
  6
Continuous
 62
     7
100
AcDbPolyline
 90
        4
 70
     0
 43
0.0
 10
-1.057358
 20
-10.544232
 10
-0.935336
 20
-10.525507
 10
-0.8115999999999999
 20
-10.505488
 10
-0.712819
 20
-10.48912199999999
  0
LWPOLYLINE
  5
53C
330
1E
100
AcDbEntity
  8
LAYER_1
  6
Continuous
 62
     7
100
AcDbPolyline
 90
        4
 70
     0
 43
0.0
 10
-0.712819
 20
-10.48912199999999
 10
-0.658329
 20
-10.48005099999999
 10
-0.638254
 20
-10.47671
 10
-0.635386
 20
-10.476232
  0
LWPOLYLINE
  5
542
330
1E
100
AcDbEntity
  8
LAYER_1
  6
Continuous
 62
     7
100
AcDbPolyline
 90
       10
 70
     0
 43
0.0
 10
-3.915637999999999
 20
-10.702858
 10
-3.222554999999999
 20
-10.69292899999999
 10
-2.541358
 20
-10.67611
 10
-1.856902
 20
-10.656413
 10
-1.223830999999999
 20
-10.62127599999999
 10
-1.231969
 20
-10.553067
 10
-1.861983999999999
 20
-10.588413
 10
-2.543555
 20
-10.611346
 10
-3.21824
 20
-10.62241299999999
 10
-3.907885999999999
 20
-10.626402
  0
LWPOLYLINE
  5
54E
330
1E
100
AcDbEntity
  8
LAYER_1
  6
Continuous
 62
     7
100
AcDbPolyline
 90
        2
 70
     0
 43
0.0
 10
-3.899614
 20
-13.49708299999999
 10
-3.848929
 20
-13.49708299999999
  0
LWPOLYLINE
  5
552
330
1E
100
AcDbEntity
  8
LAYER_1
  6
Continuous
 62
     7
100
AcDbPolyline
 90
        2
 70
     0
 43
0.0
 10
-3.899614
 20
-9.497386
 10
-3.848929
 20
-9.497386
  0
LWPOLYLINE
  5
556
330
1E
100
AcDbEntity
  8
LAYER_1
  6
Continuous
 62
     7
100
AcDbPolyline
 90
        2
 70
     0
 43
0.0
 10
-3.899614
 20
-8.502083
 10
-3.848929
 20
-8.502083
  0
LWPOLYLINE
  5
55A
330
1E
100
AcDbEntity
  8
LAYER_1
  6
Continuous
 62
     7
100
AcDbPolyline
 90
        2
 70
     0
 43
0.0
 10
-3.899614
 20
-7.500621999999999
 10
-3.848929
 20
-7.500621999999999
  0
LWPOLYLINE
  5
55E
330
1E
100
AcDbEntity
  8
LAYER_1
  6
Continuous
 62
     7
100
AcDbPolyline
 90
        2
 70
     0
 43
0.0
 10
-3.899614
 20
-6.499157
 10
-3.848929
 20
-6.499157
  0
LWPOLYLINE
  5
562
330
1E
100
AcDbEntity
  8
LAYER_1
  6
Continuous
 62
     7
100
AcDbPolyline
 90
        2
 70
     0
 43
0.0
 10
-3.899614
 20
-5.497697
 10
-3.848929
 20
-5.497697
  0
LWPOLYLINE
  5
566
330
1E
100
AcDbEntity
  8
LAYER_1
  6
Continuous
 62
     7
100
AcDbPolyline
 90
        2
 70
     0
 43
0.0
 10
-3.899614
 20
-4.502386
 10
-3.848929
 20
-4.502386
  0
LWPOLYLINE
  5
56A
330
1E
100
AcDbEntity
  8
LAYER_1
  6
Continuous
 62
     7
100
AcDbPolyline
 90
        2
 70
     0
 43
0.0
 10
-3.899614
 20
-3.500929
 10
-3.848929
 20
-3.500929
  0
LWPOLYLINE
  5
56E
330
1E
100
AcDbEntity
  8
LAYER_1
  6
Continuous
 62
     7
100
AcDbPolyline
 90
        2
 70
     0
 43
0.0
 10
-2.300263999999999
 20
-4.496248
 10
-2.232677
 20
-4.514685
  0
LWPOLYLINE
  5
572
330
1E
100
AcDbEntity
  8
LAYER_1
  6
Continuous
 62
     7
100
AcDbPolyline
 90
        2
 70
     0
 43
0.0
 10
-1.833331
 20
-3.365776
 10
-1.821038999999999
 20
-3.371912999999999
  0
LWPOLYLINE
  5
576
330
1E
100
AcDbEntity
  8
LAYER_1
  6
Continuous
 62
     7
100
AcDbPolyline
 90
        2
 70
     0
 43
0.0
 10
-7.506054999999999
 20
-10.689705
 10
-0.760094
 20
-10.71915
  0
LWPOLYLINE
  5
57A
330
1E
100
AcDbEntity
  8
LAYER_1
  6
Continuous
 62
     7
100
AcDbPolyline
 90
        2
 70
     0
 43
0.0
 10
-7.506054999999999
 20
-11.31472
 10
-0.760094
 20
-11.285291
  0
LWPOLYLINE
  5
57E
330
1E
100
AcDbEntity
  8
LAYER_1
  6
Continuous
 62
     7
100
AcDbPolyline
 90
        2
 70
     0
 43
0.0
 10
-1.225082999999999
 20
-10.617039
 10
-1.077621999999999
 20
-10.7215
  0
LWPOLYLINE
  5
582
330
1E
100
AcDbEntity
  8
LAYER_1
  6
DASHED
 62
     7
100
AcDbPolyline
 90
        2
 70
     0
 43
0.0
 10
3.862083
 20
-15.008457
 10
4.353594
 20
-15.008457
  0
LWPOLYLINE
  5
586
330
1E
100
AcDbEntity
  8
LAYER_1
  6
DASHED
 62
     7
100
AcDbPolyline
 90
        2
 70
     0
 43
0.0
 10
-4.125008
 20
-15.008457
 10
-3.633491999999999
 20
-15.008457
  0
LWPOLYLINE
  5
58A
330
1E
100
AcDbEntity
  8
LAYER_1
  6
DASHED
 62
     7
100
AcDbPolyline
 90
        2
 70
     0
 43
0.0
 10
-4.129248
 20
-4.993866
 10
-3.637732
 20
-4.993866
  0
LWPOLYLINE
  5
58E
330
1E
100
AcDbEntity
  8
LAYER_1
  6
DASHED
 62
     7
100
AcDbPolyline
 90
        2
 70
     0
 43
0.0
 10
3.862083
 20
-5.006156999999999
 10
4.353594
 20
-5.006156999999999
  0
TEXT
  5
592
330
1E
100
AcDbEntity
  8
LAYER_1
 62
     7
100
AcDbText
 10
-1.544566999999999
 20
-3.891941
 30
0.0
 40
0.112131
  1
3.25"
 41
0.6829298924000132
  7
SN0
 72
     5
 11
-1.234609999999999
 21
-3.891941
 31
0.0
100
AcDbText
  0
TEXT
  5
593
330
1E
100
AcDbEntity
  8
LAYER_1
 62
     7
100
AcDbText
 10
-3.416555
 20
-1.385264
 30
0.0
 40
0.112131
  1
1.75"
 41
0.6829298924000139
  7
SN0
 72
     5
 11
-3.106597999999999
 21
-1.385264
 31
0.0
100
AcDbText
  0
LWPOLYLINE
  5
594
330
1E
100
AcDbEntity
  8
LAYER_1
  6
Continuous
 62
     7
100
AcDbPolyline
 90
        2
 70
     0
 43
0.0
 10
-3.871201
 20
-1.50415
 10
-2.126330999999999
 20
-1.50415
  0
LWPOLYLINE
  5
598
330
1E
100
AcDbEntity
  8
LAYER_1
  6
Continuous
 62
     7
100
AcDbPolyline
 90
        3
 70
     0
 43
0.0
 10
-2.236912999999999
 20
-1.473441
 10
-2.126330999999999
 20
-1.504164999999999
 10
-2.236912999999999
 20
-1.534874
  0
LWPOLYLINE
  5
59D
330
1E
100
AcDbEntity
  8
LAYER_1
  6
Continuous
 62
     7
100
AcDbPolyline
 90
        2
 70
     0
 43
0.0
 10
-3.871201
 20
-3.998582999999999
 10
-0.6272050000000001
 20
-3.998582999999999
  0
LWPOLYLINE
  5
5A1
330
1E
100
AcDbEntity
  8
LAYER_1
  6
Continuous
 62
     7
100
AcDbPolyline
 90
        3
 70
     0
 43
0.0
 10
-0.737803
 20
-3.967873999999999
 10
-0.6272050000000001
 20
-3.998582999999999
 10
-0.737803
 20
-4.029302999999999
  0
LWPOLYLINE
  5
5A6
330
1E
100
AcDbEntity
  8
LAYER_1
  6
Continuous
 62
     7
100
AcDbPolyline
 90
        2
 70
     0
 43
0.0
 10
-0.6272050000000001
 20
-1.50415
 10
-0.6272050000000001
 20
-14.99619299999999
  0
TEXT
  5
5AA
330
1E
100
AcDbEntity
  8
LAYER_1
 62
     7
100
AcDbText
 10
-1.384819
 20
-1.342763999999999
 30
0.0
 40
0.112131
  1
HT12 (5.0%)   3.5" chord 
 41
0.6107982441113321
  7
SN3
 72
     5
 11
0.144778
 21
-1.342763999999999
 31
0.0
100
AcDbText
  0
LWPOLYLINE
  5
5AB
330
1E
100
AcDbEntity
  8
LAYER_1
  6
Continuous
 62
     7
100
AcDbPolyline
 90
        2
 70
     0
 43
0.0
 10
-3.899614
 20
-2.502385999999999
 10
-3.848929
 20
-2.502385999999999
  0
LWPOLYLINE
  5
5AF
330
1E
100
AcDbEntity
  8
LAYER_1
  6
Continuous
 62
     7
100
AcDbPolyline
 90
        2
 70
     0
 43
0.0
 10
-3.899614
 20
-1.500929
 10
-3.848929
 20
-1.500929
  0
TEXT
  5
5B3
330
1E
100
AcDbEntity
  8
LAYER_1
 62
     7
100
AcDbText
 10
1.650275999999999
 20
-1.545845999999999
 30
0.0
 40
0.112131
  1
13" height
 41
0.6443534794124731
  7
SN0
 72
     5
 11
2.252375999999999
 21
-1.545845999999999
 31
0.0
100
AcDbText
  0
LWPOLYLINE
  5
5B4
330
1E
100
AcDbEntity
  8
LAYER_1
  6
Continuous
 62
     7
100
AcDbPolyline
 90
        9
 70
     0
 43
0.0
 10
-3.871201
 20
-14.50467699999999
 10
-3.870865
 20
-14.502145
 10
-3.868512999999999
 20
-14.484422
 10
-3.862128999999999
 20
-14.43631499999999
 10
-3.849696999999999
 20
-14.342632
 10
-3.829201
 20
-14.18818299999999
 10
-3.798624999999999
 20
-13.957776
 10
-3.755952999999999
 20
-13.63621799999999
 10
-3.699169
 20
-13.20831899999999
  0
LWPOLYLINE
  5
5BF
330
1E
100
AcDbEntity
  8
LAYER_1
  6
Continuous
 62
     7
100
AcDbPolyline
 90
       42
 70
     0
 43
0.0
 10
-3.699169
 20
-13.20831899999999
 10
-3.686279
 20
-13.11118
 10
-3.6728
 20
-13.009604
 10
-3.658757
 20
-12.903782
 10
-3.644176
 20
-12.793902
 10
-3.629080999999999
 20
-12.680156
 10
-3.613497
 20
-12.562732
 10
-3.597451
 20
-12.441823
 10
-3.580966
 20
-12.317616
 10
-3.564069
 20
-12.190303
 10
-3.546783999999999
 20
-12.060073
 10
-3.529136
 20
-11.927117
 10
-3.51115
 20
-11.791624
 10
-3.492852999999999
 20
-11.653785
 10
-3.474266999999999
 20
-11.51378899999999
 10
-3.455419999999999
 20
-11.371827
 10
-3.436336
 20
-11.228089
 10
-3.41704
 20
-11.082764
 10
-3.397558
 20
-10.936044
 10
-3.377914
 20
-10.78811699999999
 10
-3.358133
 20
-10.639174
 10
-3.338241999999999
 20
-10.48940599999999
 10
-3.318264
 20
-10.339001
 10
-3.298224999999999
 20
-10.18815
 10
-3.27815
 20
-10.03704399999999
 10
-3.258065
 20
-9.885872
 10
-3.237994
 20
-9.734823999999999
 10
-3.217961999999999
 20
-9.584089999999999
 10
-3.197995999999999
 20
-9.433860000000001
 10
-3.178118999999999
 20
-9.284325
 10
-3.158357
 20
-9.135675
 10
-3.138735
 20
-8.988099
 10
-3.119279
 20
-8.841788000000001
 10
-3.100013
 20
-8.696930999999999
 10
-3.080961999999999
 20
-8.553717999999999
 10
-3.062152999999999
 20
-8.412340999999999
 10
-3.043609
 20
-8.272987999999999
 10
-3.025355999999999
 20
-8.135849999999999
 10
-3.007419
 20
-8.001117
 10
-2.989822999999999
 20
-7.868978999999999
 10
-2.972593999999999
 20
-7.739625999999999
 10
-2.955756
 20
-7.613247999999999
  0
LWPOLYLINE
  5
5EB
330
1E
100
AcDbEntity
  8
LAYER_1
  6
Continuous
 62
     7
100
AcDbPolyline
 90
       24
 70
     0
 43
0.0
 10
-2.955756
 20
-7.613247999999999
 10
-2.926756999999999
 20
-7.395703
 10
-2.899022
 20
-7.187863
 10
-2.872491999999999
 20
-6.989374999999999
 10
-2.847108
 20
-6.799889
 10
-2.822808999999999
 20
-6.619049999999999
 10
-2.799536999999999
 20
-6.446506999999999
 10
-2.777231
 20
-6.281905999999999
 10
-2.755831999999999
 20
-6.124896999999999
 10
-2.735279999999999
 20
-5.975125
 10
-2.715516
 20
-5.832238999999999
 10
-2.696479999999999
 20
-5.695886999999999
 10
-2.678113
 20
-5.565714999999999
 10
-2.660353999999999
 20
-5.441371
 10
-2.643145
 20
-5.322503
 10
-2.626425999999999
 20
-5.208758999999999
 10
-2.610136999999999
 20
-5.099784999999999
 10
-2.594218
 20
-4.99523
 10
-2.578609999999999
 20
-4.894741
 10
-2.563254
 20
-4.797965
 10
-2.548089
 20
-4.704551
 10
-2.533056999999999
 20
-4.614144999999999
 10
-2.518097
 20
-4.526394999999999
 10
-2.50315
 20
-4.440948999999999
  0
LWPOLYLINE
  5
605
330
1E
100
AcDbEntity
  8
LAYER_1
  6
Continuous
 62
     7
100
AcDbPolyline
 90
       11
 70
     0
 43
0.0
 10
-2.50315
 20
-4.440948999999999
 10
-2.468606
 20
-4.251889
 10
-2.433717999999999
 20
-4.072708
 10
-2.398388
 20
-3.902965
 10
-2.362518
 20
-3.742216
 10
-2.326008
 20
-3.590019
 10
-2.288761
 20
-3.445930999999999
 10
-2.250677
 20
-3.309512
 10
-2.211659999999999
 20
-3.180315999999999
 10
-2.171609999999999
 20
-3.057904
 10
-2.130428999999999
 20
-2.941831
  0
LWPOLYLINE
  5
612
330
1E
100
AcDbEntity
  8
LAYER_1
  6
Continuous
 62
     7
100
AcDbPolyline
 90
        7
 70
     0
 43
0.0
 10
-2.130428999999999
 20
-2.941831
 10
-2.059042999999999
 20
-2.761455999999999
 10
-1.983958
 20
-2.596556999999999
 10
-1.90489
 20
-2.446220999999999
 10
-1.821556999999999
 20
-2.309538
 10
-1.733674
 20
-2.185595999999999
 10
-1.640957
 20
-2.073484
  0
LWPOLYLINE
  5
61B
330
1E
100
AcDbEntity
  8
LAYER_1
  6
Continuous
 62
     7
100
AcDbPolyline
 90
        5
 70
     0
 43
0.0
 10
-1.640957
 20
-2.073484
 10
-1.493439999999999
 20
-1.925968999999999
 10
-1.340932
 20
-1.802646
 10
-1.189961
 20
-1.703127999999999
 10
-1.047054999999999
 20
-1.627028
  0
LWPOLYLINE
  5
622
330
1E
100
AcDbEntity
  8
LAYER_1
  6
Continuous
 62
     7
100
AcDbPolyline
 90
        4
 70
     0
 43
0.0
 10
-1.047054999999999
 20
-1.627028
 10
-0.8753969999999998
 20
-1.559755999999999
 10
-0.715576
 20
-1.522966999999999
 10
-0.553484
 20
-1.506205
  0
LWPOLYLINE
  5
628
330
1E
100
AcDbEntity
  8
LAYER_1
  6
Continuous
 62
     7
100
AcDbPolyline
 90
        4
 70
     0
 43
0.0
 10
-0.553484
 20
-1.506205
 10
-0.37956
 20
-1.500131999999999
 10
-0.202447
 20
-1.499981
 10
-0.035346
 20
-1.50211
  0
LWPOLYLINE
  5
62E
330
1E
100
AcDbEntity
  8
LAYER_1
  6
Continuous
 62
     7
100
AcDbPolyline
 90
        4
 70
     0
 43
0.0
 10
-0.035346
 20
-1.50211
 10
0.115974
 20
-1.503545
 10
0.275486
 20
-1.504073999999999
 10
0.474594
 20
-1.50415
  0
LWPOLYLINE
  5
634
330
1E
100
AcDbEntity
  8
LAYER_1
  6
Continuous
 62
     7
100
AcDbPolyline
 90
        5
 70
     0
 43
0.0
 10
0.474594
 20
-1.50415
 10
0.662592
 20
-1.505525999999999
 10
0.866525
 20
-1.515158
 10
1.062394999999999
 20
-1.541304999999999
 10
1.226204999999999
 20
-1.59222
  0
LWPOLYLINE
  5
63B
330
1E
100
AcDbEntity
  8
LAYER_1
  6
Continuous
 62
     7
100
AcDbPolyline
 90
        5
 70
     0
 43
0.0
 10
1.226204999999999
 20
-1.59222
 10
1.340856999999999
 20
-1.675926999999999
 10
1.41692
 20
-1.799570999999999
 10
1.471865
 20
-1.970065
 10
1.523164999999999
 20
-2.194318999999999
  0
LWPOLYLINE
  5
642
330
1E
100
AcDbEntity
  8
LAYER_1
  6
Continuous
 62
     7
100
AcDbPolyline
 90
       12
 70
     0
 43
0.0
 10
1.523164999999999
 20
-2.194318999999999
 10
1.544191
 20
-2.290538999999999
 10
1.567081999999999
 20
-2.395086999999999
 10
1.591873999999999
 20
-2.508268
 10
1.618604999999999
 20
-2.630384999999999
 10
1.647313
 20
-2.761743
 10
1.678033
 20
-2.902648
 10
1.710802999999999
 20
-3.053404
 10
1.745659999999999
 20
-3.214315
 10
1.782640999999999
 20
-3.385686
 10
1.821781999999999
 20
-3.567822
 10
1.863122
 20
-3.761028
  0
LWPOLYLINE
  5
650
330
1E
100
AcDbEntity
  8
LAYER_1
  6
Continuous
 62
     7
100
AcDbPolyline
 90
       21
 70
     0
 43
0.0
 10
1.863122
 20
-3.761028
 10
1.886804999999999
 20
-3.872101999999999
 10
1.911158
 20
-3.986572
 10
1.936175
 20
-4.104394
 10
1.961849
 20
-4.225521999999999
 10
1.988174
 20
-4.349912999999999
 10
2.015144999999999
 20
-4.477522
 10
2.042755
 20
-4.608305
 10
2.070997
 20
-4.742215999999999
 10
2.099866
 20
-4.879210999999999
 10
2.129356
 20
-5.019247
 10
2.159459999999999
 20
-5.162276999999999
 10
2.190172
 20
-5.308258
 10
2.221486
 20
-5.457144999999999
 10
2.253397
 20
-5.608894
 10
2.285897
 20
-5.763458999999999
 10
2.318979999999999
 20
-5.920798
 10
2.352641
 20
-6.080864
 10
2.386874
 20
-6.243612999999999
 10
2.421670999999999
 20
-6.409002
 10
2.457027999999999
 20
-6.576983999999999
  0
LWPOLYLINE
  5
667
330
1E
100
AcDbEntity
  8
LAYER_1
  6
Continuous
 62
     7
100
AcDbPolyline
 90
       27
 70
     0
 43
0.0
 10
2.457027999999999
 20
-6.576983999999999
 10
2.484599
 20
-6.707924
 10
2.512474
 20
-6.840266999999999
 10
2.540631
 20
-6.973905
 10
2.569045
 20
-7.108733999999999
 10
2.597694999999999
 20
-7.244646
 10
2.626556
 20
-7.381535
 10
2.655606
 20
-7.519296
 10
2.684822
 20
-7.657821
 10
2.714179999999999
 20
-7.797005
 10
2.743658
 20
-7.936741
 10
2.773232
 20
-8.076922999999998
 10
2.80288
 20
-8.217446
 10
2.832577999999999
 20
-8.358200999999999
 10
2.862303999999999
 20
-8.499083999999999
 10
2.892032999999999
 20
-8.639988
 10
2.921743999999999
 20
-8.780807000000001
 10
2.951411999999999
 20
-8.921433999999999
 10
2.981015999999999
 20
-9.061764
 10
3.010531
 20
-9.201689
 10
3.039934999999999
 20
-9.341103999999999
 10
3.069204999999999
 20
-9.479903
 10
3.098316999999999
 20
-9.617979
 10
3.127248999999999
 20
-9.755225999999998
 10
3.155977999999999
 20
-9.891536999999999
 10
3.184479999999999
 20
-10.026807
 10
3.212731999999999
 20
-10.160929
  0
LWPOLYLINE
  5
684
330
1E
100
AcDbEntity
  8
LAYER_1
  6
Continuous
 62
     7
100
AcDbPolyline
 90
       21
 70
     0
 43
0.0
 10
3.212731999999999
 20
-10.160929
 10
3.249049999999999
 20
-10.33340099999999
 10
3.284859999999999
 20
-10.50355799999999
 10
3.320112999999999
 20
-10.671201
 10
3.354762999999999
 20
-10.836135
 10
3.388762
 20
-10.99816399999999
 10
3.422062
 20
-11.15709
 10
3.454614999999999
 20
-11.312716
 10
3.486373999999999
 20
-11.464847
 10
3.517291999999999
 20
-11.613286
 10
3.547319999999999
 20
-11.757835
 10
3.576412
 20
-11.898299
 10
3.604519
 20
-12.034481
 10
3.631594
 20
-12.166183
 10
3.657588999999999
 20
-12.29321
 10
3.682456999999999
 20
-12.415365
 10
3.70615
 20
-12.532452
 10
3.728619999999999
 20
-12.644273
 10
3.749820999999999
 20
-12.750632
 10
3.769702999999999
 20
-12.851332
 10
3.788219999999999
 20
-12.946177
  0
LWPOLYLINE
  5
69B
330
1E
100
AcDbEntity
  8
LAYER_1
  6
Continuous
 62
     7
100
AcDbPolyline
 90
        7
 70
     0
 43
0.0
 10
3.788219999999999
 20
-12.946177
 10
3.839655
 20
-13.220308
 10
3.874762
 20
-13.4367
 10
3.892916999999999
 20
-13.604851
 10
3.893494
 20
-13.73426199999999
 10
3.875868
 20
-13.834431
 10
3.839412999999999
 20
-13.91485799999999
  0
LWPOLYLINE
  5
6A4
330
1E
100
AcDbEntity
  8
LAYER_1
  6
Continuous
 62
     7
100
AcDbPolyline
 90
        5
 70
     0
 43
0.0
 10
3.839412999999999
 20
-13.91485799999999
 10
3.748178999999999
 20
-14.014636
 10
3.611829
 20
-14.095595
 10
3.429018
 20
-14.16196099999999
 10
3.198402
 20
-14.217957
  0
LWPOLYLINE
  5
6AB
330
1E
100
AcDbEntity
  8
LAYER_1
  6
Continuous
 62
     7
100
AcDbPolyline
 90
        9
 70
     0
 43
0.0
 10
3.198402
 20
-14.217957
 10
3.065065
 20
-14.24335899999999
 10
2.921217
 20
-14.26756099999999
 10
2.768634
 20
-14.290898
 10
2.609093
 20
-14.313707
 10
2.444366999999999
 20
-14.336323
 10
2.276234
 20
-14.359082
 10
2.106468
 20
-14.382321
 10
1.936845999999999
 20
-14.40637399999999
  0
LWPOLYLINE
  5
6B6
330
1E
100
AcDbEntity
  8
LAYER_1
  6
Continuous
 62
     7
100
AcDbPolyline
 90
        9
 70
     0
 43
0.0
 10
1.936845999999999
 20
-14.40637399999999
 10
1.768827999999999
 20
-14.431423
 10
1.602611
 20
-14.456999
 10
1.438072999999999
 20
-14.482479
 10
1.275096
 20
-14.507238
 10
1.113558999999999
 20
-14.530653
 10
0.9533409999999999
 20
-14.5521
 10
0.7943240000000001
 20
-14.570955
 10
0.636386
 20
-14.586594
  0
LWPOLYLINE
  5
6C1
330
1E
100
AcDbEntity
  8
LAYER_1
  6
Continuous
 62
     7
100
AcDbPolyline
 90
        7
 70
     0
 43
0.0
 10
0.636386
 20
-14.586594
 10
0.428224
 20
-14.601812
 10
0.227173
 20
-14.6114
 10
0.038636
 20
-14.616551
 10
-0.131983
 20
-14.61845799999999
 10
-0.279278
 20
-14.618316
 10
-0.397846
 20
-14.617319
  0
LWPOLYLINE
  5
6CA
330
1E
100
AcDbEntity
  8
LAYER_1
  6
Continuous
 62
     7
100
AcDbPolyline
 90
        4
 70
     0
 43
0.0
 10
-0.397846
 20
-14.617319
 10
-0.541959
 20
-14.615881
 10
-0.595053
 20
-14.615351
 10
-0.602638
 20
-14.615276
  0
LWPOLYLINE
  5
6D0
330
1E
100
AcDbEntity
  8
LAYER_1
  6
Continuous
 62
     7
100
AcDbPolyline
 90
        7
 70
     0
 43
0.0
 10
-0.318693
 20
-10.92529099999999
 10
1.002054999999999
 20
-11.75877599999999
 10
2.088
 20
-12.446039
 10
3.568676999999999
 20
-13.389594
 10
1.99972
 20
-12.586638
 10
0.850528
 20
-11.990528
 10
-0.6145550000000001
 20
-11.22269299999999
  0
LWPOLYLINE
  5
6D9
330
1E
100
AcDbEntity
  8
LAYER_1
  6
Continuous
 62
     7
100
AcDbPolyline
 90
        7
 70
     0
 43
0.0
 10
-0.718039
 20
-10.80241299999999
 10
0.6641650000000001
 20
-10.075346
 10
1.802318999999999
 20
-9.478528
 10
3.359791
 20
-8.667999999999999
 10
1.879929
 20
-9.625263999999999
 10
0.789094
 20
-10.322457
 10
-0.608402
 20
-11.207346
  0
LWPOLYLINE
  5
6E2
330
1E
100
AcDbEntity
  8
LAYER_1
  6
Continuous
 62
     7
100
AcDbPolyline
 90
        4
 70
     0
 43
0.0
 10
-0.381457
 20
-11.203791
 10
-0.3836
 20
-11.199733
 10
-0.398601
 20
-11.17132599999999
 10
-0.439319
 20
-11.09422
  0
LWPOLYLINE
  5
6E8
330
1E
100
AcDbEntity
  8
LAYER_1
  6
Continuous
 62
     7
100
AcDbPolyline
 90
        4
 70
     0
 43
0.0
 10
-0.439319
 20
-11.09422
 10
-0.5122460000000001
 20
-10.95595099999999
 10
-0.5984920000000001
 20
-10.79150599999999
 10
-0.6727910000000001
 20
-10.647764
  0
LWPOLYLINE
  5
6EE
330
1E
100
AcDbEntity
  8
LAYER_1
  6
Continuous
 62
     7
100
AcDbPolyline
 90
        4
 70
     0
 43
0.0
 10
-0.6727910000000001
 20
-10.647764
 10
-0.7160790000000001
 20
-10.560046
 10
-0.734107
 20
-10.517381
 10
-0.7388310000000001
 20
-10.49724799999999
  0
LWPOLYLINE
  5
6F4
330
1E
100
AcDbEntity
  8
LAYER_1
  6
Continuous
 62
     7
100
AcDbPolyline
 90
        4
 70
     0
 43
0.0
 10
-0.7388310000000001
 20
-10.49724799999999
 10
-0.7401170000000001
 20
-10.480935
 10
-0.739584
 20
-10.46507899999999
 10
-0.736776
 20
-10.450138
  0
LWPOLYLINE
  5
6FA
330
1E
100
AcDbEntity
  8
LAYER_1
  6
Continuous
 62
     7
100
AcDbPolyline
 90
        4
 70
     0
 43
0.0
 10
-0.736776
 20
-10.450138
 10
-0.731475
 20
-10.436485
 10
-0.7243470000000001
 20
-10.424196
 10
-0.716303
 20
-10.413276
  0
LWPOLYLINE
  5
700
330
1E
100
AcDbEntity
  8
LAYER_1
  6
Continuous
 62
     7
100
AcDbPolyline
 90
        4
 70
     0
 43
0.0
 10
-0.716303
 20
-10.413276
 10
-0.7080370000000001
 20
-10.40372
 10
-0.699316
 20
-10.395526
 10
-0.6896770000000001
 20
-10.38869299999999
  0
LWPOLYLINE
  5
706
330
1E
100
AcDbEntity
  8
LAYER_1
  6
Continuous
 62
     7
100
AcDbPolyline
 90
        4
 70
     0
 43
0.0
 10
-0.6896770000000001
 20
-10.38869299999999
 10
-0.678832
 20
-10.383235
 10
-0.6670729999999999
 20
-10.379141
 10
-0.654858
 20
-10.376413
  0
LWPOLYLINE
  5
70C
330
1E
100
AcDbEntity
  8
LAYER_1
  6
Continuous
 62
     7
100
AcDbPolyline
 90
        4
 70
     0
 43
0.0
 10
-0.654858
 20
-10.376413
 10
-0.642502
 20
-10.37504299999999
 10
-0.6296850000000001
 20
-10.37504299999999
 10
-0.615957
 20
-10.376413
  0
LWPOLYLINE
  5
712
330
1E
100
AcDbEntity
  8
LAYER_1
  6
Continuous
 62
     7
100
AcDbPolyline
 90
        4
 70
     0
 43
0.0
 10
-0.615957
 20
-10.376413
 10
-0.6011600000000001
 20
-10.379141
 10
-0.5863680000000001
 20
-10.383235
 10
-0.5729410000000001
 20
-10.38869299999999
  0
LWPOLYLINE
  5
718
330
1E
100
AcDbEntity
  8
LAYER_1
  6
Continuous
 62
     7
100
AcDbPolyline
 90
        4
 70
     0
 43
0.0
 10
-0.5729410000000001
 20
-10.38869299999999
 10
-0.557892
 20
-10.397991
 10
-0.5207609999999999
 20
-10.42343999999999
 10
-0.436748
 20
-10.47983099999999
  0
LWPOLYLINE
  5
71E
330
1E
100
AcDbEntity
  8
LAYER_1
  6
Continuous
 62
     7
100
AcDbPolyline
 90
        4
 70
     0
 43
0.0
 10
-0.436748
 20
-10.47983099999999
 10
-0.290436
 20
-10.576223
 10
-0.103849
 20
-10.698667
 10
0.09161
 20
-10.827484
  0
LWPOLYLINE
  5
724
330
1E
100
AcDbEntity
  8
LAYER_1
  6
Continuous
 62
     7
100
AcDbPolyline
 90
        4
 70
     0
 43
0.0
 10
0.09161
 20
-10.827484
 10
0.268159
 20
-10.945047
 10
0.412393
 20
-11.04202099999999
 10
0.514528
 20
-11.11112199999999
  0
LWPOLYLINE
  5
72A
330
1E
100
AcDbEntity
  8
LAYER_1
  6
Continuous
 62
     7
100
AcDbPolyline
 90
        4
 70
     0
 43
0.0
 10
0.514528
 20
-11.11112199999999
 10
0.5692890000000001
 20
-11.148233
 10
0.589464
 20
-11.161905
 10
0.5923460000000001
 20
-11.16385799999999
  0
LWPOLYLINE
  5
730
330
1E
100
AcDbEntity
  8
LAYER_1
  6
Continuous
 62
     7
100
AcDbPolyline
 90
        4
 70
     0
 43
0.0
 10
-0.7362760000000001
 20
-10.801358
 10
-0.6364290000000001
 20
-11.21608299999999
 10
-0.611858
 20
-11.21301199999999
 10
-0.4889840000000001
 20
-10.809055
  0
LWPOLYLINE
  5
736
330
1E
100
AcDbEntity
  8
LAYER_1
  6
Continuous
 62
     7
100
AcDbPolyline
 90
        2
 70
     0
 43
0.0
 10
-3.902862
 20
-12.500319
 10
-3.852176999999999
 20
-12.500319
  0
LWPOLYLINE
  5
73A
330
1E
100
AcDbEntity
  8
LAYER_1
  6
Continuous
 62
     7
100
AcDbPolyline
 90
        2
 70
     0
 43
0.0
 10
-3.875219999999999
 20
-14.498539
 10
-3.875219999999999
 20
-11.749138
  0
LWPOLYLINE
  5
73E
330
1E
100
AcDbEntity
  8
LAYER_1
  6
Continuous
 62
     7
100
AcDbPolyline
 90
        2
 70
     0
 43
0.0
 10
-3.875219999999999
 20
-10.246941
 10
-3.875219999999999
 20
-1.510303
  0
ENDSEC
  0
SECTION
  2
OBJECTS
  0
DICTIONARY
  5
C
330
0
100
AcDbDictionary
281
     1
  3
ACAD_GROUP
350
D
  3
ACAD_LAYOUT
350
19
  3
ACAD_MLINESTYLE
350
16
  3
ACAD_PLOTSETTINGS
350
18
  3
ACAD_PLOTSTYLENAME
350
E
  0
DICTIONARY
  5
D
102
{ACAD_REACTORS
330
C
102
}
330
C
100
AcDbDictionary
281
     1
  0
DICTIONARY
  5
19
102
{ACAD_REACTORS
330
C
102
}
330
C
100
AcDbDictionary
281
     1
  3
Layout1
350
1D
  3
Model
350
21
  0
DICTIONARY
  5
16
102
{ACAD_REACTORS
330
C
102
}
330
C
100
AcDbDictionary
281
     1
  3
Standard
350
17
  0
DICTIONARY
  5
18
102
{ACAD_REACTORS
330
C
102
}
330
C
100
AcDbDictionary
281
     1
  0
ACDBDICTIONARYWDFLT
  5
E
102
{ACAD_REACTORS
330
C
102
}
330
C
100
AcDbDictionary
281
     1
  3
Normal
350
F
100
AcDbDictionaryWithDefault
340
F
  0
LAYOUT
  5
1D
102
{ACAD_REACTORS
330
19
102
}
330
19
100
AcDbPlotSettings
  1

  2
Epson FX-80
  4

  6

 40
0.0
 41
0.0
 42
0.0
 43
0.0
 44
0.0
 45
0.0
 46
0.0
 47
0.0
 48
0.0
 49
0.0
140
0.0
141
0.0
142
1.0
143
1.0
 70
   688
 72
     0
 73
     0
 74
     5
  7

 75
    16
147
1.0
148
0.0
149
0.0
100
AcDbLayout
  1
Layout1
 70
     1
 71
     1
 10
0.0
 20
0.0
 11
12.0
 21
9.0
 12
0.0
 22
0.0
 32
0.0
 14
1.000000000000000E+20
 24
1.000000000000000E+20
 34
1.000000000000000E+20
 15
-1.000000000000000E+20
 25
-1.000000000000000E+20
 35
-1.000000000000000E+20
146
0.0
 13
0.0
 23
0.0
 33
0.0
 16
1.0
 26
0.0
 36
0.0
 17
0.0
 27
1.0
 37
0.0
 76
     0
330
1A
  0
LAYOUT
  5
21
102
{ACAD_REACTORS
330
19
102
}
330
19
100
AcDbPlotSettings
  1

  2
Epson FX-80
  4

  6

 40
0.0
 41
0.0
 42
0.0
 43
0.0
 44
0.0
 45
0.0
 46
0.0
 47
0.0
 48
0.0
 49
0.0
140
0.0
141
0.0
142
1.0
143
1.0
 70
  1712
 72
     0
 73
     0
 74
     0
  7

 75
     0
147
1.0
148
0.0
149
0.0
100
AcDbLayout
  1
Model
 70
     1
 71
     0
 10
0.0
 20
0.0
 11
12.0
 21
9.0
 12
0.0
 22
0.0
 32
0.0
 14
0.0
 24
0.0
 34
0.0
 15
0.0
 25
0.0
 35
0.0
146
0.0
 13
0.0
 23
0.0
 33
0.0
 16
1.0
 26
0.0
 36
0.0
 17
0.0
 27
1.0
 37
0.0
 76
     0
330
1E
  0
MLINESTYLE
  5
17
102
{ACAD_REACTORS
330
16
102
}
330
16
100
AcDbMlineStyle
  2
STANDARD
 70
     0
  3

 62
   256
 51
90.0
 52
90.0
 71
     2
 49
0.5
 62
   256
  6
BYLAYER
 49
-0.5
 62
   256
  6
BYLAYER
  0
ACDBPLACEHOLDER
  5
F
102
{ACAD_REACTORS
330
E
102
}
330
E
  0
ENDSEC
  0
EOF
