  0
SECTION
  2
HEADER
  9
$ACADVER
  1
AC1015
  9
$ACADMAINTVER
 70
    10
  9
$DWGCODEPAGE
  3
ANSI_1252
  9
$INSBASE
 10
0.0
 20
0.0
 30
0.0
  9
$EXTMIN
 10
-3.493558999999999
 20
-4.976890000000005
 30
0.0
  9
$EXTMAX
 10
3.664858
 20
5.012913
 30
0.0
  9
$LIMMIN
 10
0.0
 20
0.0
  9
$LIMMAX
 10
12.0
 20
9.0
  9
$ORTHOMODE
 70
     0
  9
$REGENMODE
 70
     1
  9
$FILLMODE
 70
     1
  9
$QTEXTMODE
 70
     0
  9
$MIRRTEXT
 70
     1
  9
$LTSCALE
 40
0.000394
  9
$ATTMODE
 70
     1
  9
$TEXTSIZE
 40
0.2
  9
$TRACEWID
 40
0.05
  9
$TEXTSTYLE
  7
Standard
  9
$CLAYER
  8
0
  9
$CELTYPE
  6
CONTINUOUS
  9
$CECOLOR
 62
   256
  9
$CELTSCALE
 40
1.0
  9
$DISPSILH
 70
     0
  9
$DIMSCALE
 40
1.0
  9
$DIMASZ
 40
0.18
  9
$DIMEXO
 40
0.0625
  9
$DIMDLI
 40
0.38
  9
$DIMRND
 40
0.0
  9
$DIMDLE
 40
0.0
  9
$DIMEXE
 40
0.18
  9
$DIMTP
 40
0.0
  9
$DIMTM
 40
0.0
  9
$DIMTXT
 40
0.18
  9
$DIMCEN
 40
0.09
  9
$DIMTSZ
 40
0.0
  9
$DIMTOL
 70
     0
  9
$DIMLIM
 70
     0
  9
$DIMTIH
 70
     1
  9
$DIMTOH
 70
     1
  9
$DIMSE1
 70
     0
  9
$DIMSE2
 70
     0
  9
$DIMTAD
 70
     0
  9
$DIMZIN
 70
     0
  9
$DIMBLK
  1

  9
$DIMASO
 70
     1
  9
$DIMSHO
 70
     1
  9
$DIMPOST
  1

  9
$DIMAPOST
  1

  9
$DIMALT
 70
     0
  9
$DIMALTD
 70
     2
  9
$DIMALTF
 40
25.4
  9
$DIMLFAC
 40
1.0
  9
$DIMTOFL
 70
     0
  9
$DIMTVP
 40
0.0
  9
$DIMTIX
 70
     0
  9
$DIMSOXD
 70
     0
  9
$DIMSAH
 70
     0
  9
$DIMBLK1
  1

  9
$DIMBLK2
  1

  9
$DIMSTYLE
  2
Standard
  9
$DIMCLRD
 70
     0
  9
$DIMCLRE
 70
     0
  9
$DIMCLRT
 70
     0
  9
$DIMTFAC
 40
1.0
  9
$DIMGAP
 40
0.09
  9
$DIMJUST
 70
     0
  9
$DIMSD1
 70
     0
  9
$DIMSD2
 70
     0
  9
$DIMTOLJ
 70
     1
  9
$DIMTZIN
 70
     0
  9
$DIMALTZ
 70
     0
  9
$DIMALTTZ
 70
     0
  9
$DIMUPT
 70
     0
  9
$DIMDEC
 70
     4
  9
$DIMTDEC
 70
     4
  9
$DIMALTU
 70
     2
  9
$DIMALTTD
 70
     2
  9
$DIMTXSTY
  7
Standard
  9
$DIMAUNIT
 70
     0
  9
$DIMADEC
 70
     0
  9
$DIMALTRND
 40
0.0
  9
$DIMAZIN
 70
     0
  9
$DIMDSEP
 70
    46
  9
$DIMATFIT
 70
     3
  9
$DIMFRAC
 70
     0
  9
$DIMLDRBLK
  1

  9
$DIMLUNIT
 70
     2
  9
$DIMLWD
 70
    -2
  9
$DIMLWE
 70
    -2
  9
$DIMTMOVE
 70
     0
  9
$LUNITS
 70
     2
  9
$LUPREC
 70
     4
  9
$SKETCHINC
 40
0.1
  9
$FILLETRAD
 40
0.0
  9
$AUNITS
 70
     0
  9
$AUPREC
 70
     0
  9
$MENU
  1
.
  9
$ELEVATION
 40
0.0
  9
$PELEVATION
 40
0.0
  9
$THICKNESS
 40
0.0
  9
$LIMCHECK
 70
     0
  9
$CHAMFERA
 40
0.0
  9
$CHAMFERB
 40
0.0
  9
$CHAMFERC
 40
0.0
  9
$CHAMFERD
 40
0.0
  9
$SKPOLY
 70
     0
  9
$TDCREATE
 40
2453215.878646064
  9
$TDUCREATE
 40
2453216.045312731
  9
$TDUPDATE
 40
2453215.879310914
  9
$TDUUPDATE
 40
2453216.045977581
  9
$TDINDWG
 40
0.0006653125
  9
$TDUSRTIMER
 40
0.0006653125
  9
$USRTIMER
 70
     1
  9
$ANGBASE
 50
0.0
  9
$ANGDIR
 70
     0
  9
$PDMODE
 70
    35
  9
$PDSIZE
 40
0.000315
  9
$PLINEWID
 40
0.0
  9
$SPLFRAME
 70
     0
  9
$SPLINETYPE
 70
     6
  9
$SPLINESEGS
 70
     8
  9
$HANDSEED
  5
1132
  9
$SURFTAB1
 70
     6
  9
$SURFTAB2
 70
     6
  9
$SURFTYPE
 70
     6
  9
$SURFU
 70
     6
  9
$SURFV
 70
     6
  9
$UCSBASE
  2

  9
$UCSNAME
  2

  9
$UCSORG
 10
0.0
 20
0.0
 30
0.0
  9
$UCSXDIR
 10
1.0
 20
0.0
 30
0.0
  9
$UCSYDIR
 10
0.0
 20
1.0
 30
0.0
  9
$UCSORTHOREF
  2

  9
$UCSORTHOVIEW
 70
     0
  9
$UCSORGTOP
 10
0.0
 20
0.0
 30
0.0
  9
$UCSORGBOTTOM
 10
0.0
 20
0.0
 30
0.0
  9
$UCSORGLEFT
 10
0.0
 20
0.0
 30
0.0
  9
$UCSORGRIGHT
 10
0.0
 20
0.0
 30
0.0
  9
$UCSORGFRONT
 10
0.0
 20
0.0
 30
0.0
  9
$UCSORGBACK
 10
0.0
 20
0.0
 30
0.0
  9
$PUCSBASE
  2

  9
$PUCSNAME
  2

  9
$PUCSORG
 10
0.0
 20
0.0
 30
0.0
  9
$PUCSXDIR
 10
1.0
 20
0.0
 30
0.0
  9
$PUCSYDIR
 10
0.0
 20
1.0
 30
0.0
  9
$PUCSORTHOREF
  2

  9
$PUCSORTHOVIEW
 70
     0
  9
$PUCSORGTOP
 10
0.0
 20
0.0
 30
0.0
  9
$PUCSORGBOTTOM
 10
0.0
 20
0.0
 30
0.0
  9
$PUCSORGLEFT
 10
0.0
 20
0.0
 30
0.0
  9
$PUCSORGRIGHT
 10
0.0
 20
0.0
 30
0.0
  9
$PUCSORGFRONT
 10
0.0
 20
0.0
 30
0.0
  9
$PUCSORGBACK
 10
0.0
 20
0.0
 30
0.0
  9
$USERI1
 70
     0
  9
$USERI2
 70
     0
  9
$USERI3
 70
     0
  9
$USERI4
 70
     0
  9
$USERI5
 70
     0
  9
$USERR1
 40
0.0
  9
$USERR2
 40
0.0
  9
$USERR3
 40
0.0
  9
$USERR4
 40
0.0
  9
$USERR5
 40
0.0
  9
$WORLDVIEW
 70
     1
  9
$SHADEDGE
 70
     3
  9
$SHADEDIF
 70
    70
  9
$TILEMODE
 70
     1
  9
$MAXACTVP
 70
    64
  9
$PINSBASE
 10
0.0
 20
0.0
 30
0.0
  9
$PLIMCHECK
 70
     0
  9
$PEXTMIN
 10
1.000000000000000E+20
 20
1.000000000000000E+20
 30
1.000000000000000E+20
  9
$PEXTMAX
 10
-1.000000000000000E+20
 20
-1.000000000000000E+20
 30
-1.000000000000000E+20
  9
$PLIMMIN
 10
0.0
 20
0.0
  9
$PLIMMAX
 10
12.0
 20
9.0
  9
$UNITMODE
 70
     0
  9
$VISRETAIN
 70
     1
  9
$PLINEGEN
 70
     0
  9
$PSLTSCALE
 70
     1
  9
$TREEDEPTH
 70
  3020
  9
$CMLSTYLE
  2
Standard
  9
$CMLJUST
 70
     0
  9
$CMLSCALE
 40
1.0
  9
$PROXYGRAPHICS
 70
     1
  9
$MEASUREMENT
 70
     0
  9
$CELWEIGHT
370
    -1
  9
$ENDCAPS
280
     0
  9
$JOINSTYLE
280
     0
  9
$LWDISPLAY
290
     0
  9
$INSUNITS
 70
     0
  9
$HYPERLINKBASE
  1

  9
$STYLESHEET
  1

  9
$XEDIT
290
     1
  9
$CEPSNTYPE
380
     0
  9
$PSTYLEMODE
290
     1
  9
$FINGERPRINTGUID
  2
{21733405-F49C-458A-96A8-7300EE15BC7D}
  9
$VERSIONGUID
  2
{2DD1D2BE-0449-4780-A8F5-7BC875A6B717}
  9
$EXTNAMES
290
     1
  9
$PSVPSCALE
 40
0.0
  9
$OLESTARTUP
290
     0
  0
ENDSEC
  0
SECTION
  2
CLASSES
  0
CLASS
  1
ACDBDICTIONARYWDFLT
  2
AcDbDictionaryWithDefault
  3
AutoCAD 2000
 90
        0
280
     0
281
     0
  0
CLASS
  1
ACDBPLACEHOLDER
  2
AcDbPlaceHolder
  3
AutoCAD 2000
 90
        0
280
     0
281
     0
  0
CLASS
  1
LAYOUT
  2
AcDbLayout
  3
AutoCAD 2000
 90
        0
280
     0
281
     0
  0
ENDSEC
  0
SECTION
  2
TABLES
  0
TABLE
  2
VPORT
  5
8
330
0
100
AcDbSymbolTable
 70
     2
  0
VPORT
  5
1131
330
8
100
AcDbSymbolTableRecord
100
AcDbViewportTableRecord
  2
*Active
 70
     0
 10
0.0
 20
0.0
 11
1.0
 21
1.0
 12
1.165207027518186
 22
1.969800409616411
 13
0.0
 23
0.0
 14
1.0
 24
1.0
 15
0.0
 25
0.0
 16
0.0
 26
0.0
 36
1.0
 17
0.0
 27
0.0
 37
0.0
 40
0.2941754431477079
 41
1.760330578512396
 42
50.0
 43
0.0
 44
0.0
 50
0.0
 51
0.0
 71
     0
 72
   100
 73
     1
 74
     1
 75
     0
 76
     0
 77
     0
 78
     0
281
     0
 65
     1
110
0.0
120
0.0
130
0.0
111
1.0
121
0.0
131
0.0
112
0.0
122
1.0
132
0.0
 79
     0
146
0.0
  0
ENDTAB
  0
TABLE
  2
LTYPE
  5
5
330
0
100
AcDbSymbolTable
 70
    10
  0
LTYPE
  5
13
330
5
100
AcDbSymbolTableRecord
100
AcDbLinetypeTableRecord
  2
ByBlock
 70
     0
  3

 72
    65
 73
     0
 40
0.0
  0
LTYPE
  5
14
330
5
100
AcDbSymbolTableRecord
100
AcDbLinetypeTableRecord
  2
ByLayer
 70
     0
  3

 72
    65
 73
     0
 40
0.0
  0
LTYPE
  5
15
330
5
100
AcDbSymbolTableRecord
100
AcDbLinetypeTableRecord
  2
CONTINUOUS
 70
     0
  3
Solid line
 72
    65
 73
     0
 40
0.0
  0
LTYPE
  5
22
330
5
100
AcDbSymbolTableRecord
100
AcDbLinetypeTableRecord
  2
DASHED
 70
     0
  3
__ __ __ __ __ __ __ __ __ __ __ __ __ __ __
 72
    65
 73
     2
 40
0.000003
 49
0.000002
 74
     0
 49
-0.000001
 74
     0
  0
LTYPE
  5
23
330
5
100
AcDbSymbolTableRecord
100
AcDbLinetypeTableRecord
  2
HIDDEN
 70
     0
  3
 _ _ _ _ _ _ _ _ _ _ _ _ _ _ _ _ _ _ _ _ _ _
 72
    65
 73
     2
 40
0.000001
 49
0.000001
 74
     0
 49
0.0
 74
     0
  0
LTYPE
  5
24
330
5
100
AcDbSymbolTableRecord
100
AcDbLinetypeTableRecord
  2
CENTER
 70
     0
  3
____ _ ____ _ ____ _ ____ _ ____ _ ____ _ ____
 72
    65
 73
     4
 40
0.000008
 49
0.000005
 74
     0
 49
-0.000001
 74
     0
 49
0.000001
 74
     0
 49
-0.000001
 74
     0
  0
LTYPE
  5
25
330
5
100
AcDbSymbolTableRecord
100
AcDbLinetypeTableRecord
  2
PHANTOM
 70
     0
  3
_____ _ _ _____ _ _ _____ _ _ _____ _ _ ____
 72
    65
 73
     6
 40
0.00001
 49
0.000005
 74
     0
 49
-0.000001
 74
     0
 49
0.000001
 74
     0
 49
-0.000001
 74
     0
 49
0.000001
 74
     0
 49
-0.000001
 74
     0
  0
LTYPE
  5
26
330
5
100
AcDbSymbolTableRecord
100
AcDbLinetypeTableRecord
  2
DOT
 70
     0
  3
...............................................
 72
    65
 73
     2
 40
0.000001
 49
0.0
 74
     0
 49
-0.000001
 74
     0
  0
LTYPE
  5
27
330
5
100
AcDbSymbolTableRecord
100
AcDbLinetypeTableRecord
  2
DASHDOT
 70
     0
  3
__ . __ . __ . __ . __ . __ . __ . __ . __ . __
 72
    65
 73
     4
 40
0.000004
 49
0.000002
 74
     0
 49
-0.000001
 74
     0
 49
0.0
 74
     0
 49
-0.000001
 74
     0
  0
LTYPE
  5
28
330
5
100
AcDbSymbolTableRecord
100
AcDbLinetypeTableRecord
  2
BORDER
 70
     0
  3
__ __ . __ __ . __ __ . __ __ . __ __ . __ __
 72
    65
 73
     6
 40
0.000007
 49
0.000002
 74
     0
 49
-0.000001
 74
     0
 49
0.000002
 74
     0
 49
-0.000001
 74
     0
 49
0.0
 74
     0
 49
-0.000001
 74
     0
  0
LTYPE
  5
29
330
5
100
AcDbSymbolTableRecord
100
AcDbLinetypeTableRecord
  2
DIVIDE
 70
     0
  3
__ . . __ . . __ . . __ . . __ . . __ . . __
 72
    65
 73
     6
 40
0.000005
 49
0.000002
 74
     0
 49
-0.000001
 74
     0
 49
0.0
 74
     0
 49
-0.000001
 74
     0
 49
0.0
 74
     0
 49
-0.000001
 74
     0
  0
LTYPE
  5
2A
330
5
100
AcDbSymbolTableRecord
100
AcDbLinetypeTableRecord
  2
DOTDOT
 70
     0
  3
 . .  . .  . .  . .  . .  . . 
 72
    65
 73
     5
 40
0.000002
 49
-0.000001
 74
     0
 49
0.0
 74
     0
 49
-0.000001
 74
     0
 49
0.0
 74
     0
 49
-0.000001
 74
     0
  0
ENDTAB
  0
TABLE
  2
LAYER
  5
2
330
0
100
AcDbSymbolTable
 70
     4
  0
LAYER
  5
10
330
2
100
AcDbSymbolTableRecord
100
AcDbLayerTableRecord
  2
0
 70
     0
 62
     7
  6
CONTINUOUS
370
    -3
390
F
  0
LAYER
  5
33
330
2
100
AcDbSymbolTableRecord
100
AcDbLayerTableRecord
  2
FOREGROUND
 70
     0
 62
     7
  6
CONTINUOUS
370
    -3
390
F
  0
LAYER
  5
34
330
2
100
AcDbSymbolTableRecord
100
AcDbLayerTableRecord
  2
BACKGROUND
 70
     1
 62
    -7
  6
CONTINUOUS
370
    -3
390
F
  0
LAYER
  5
35
330
2
100
AcDbSymbolTableRecord
100
AcDbLayerTableRecord
  2
LAYER_1
 70
     0
 62
     7
  6
CONTINUOUS
370
    -3
390
F
  0
ENDTAB
  0
TABLE
  2
STYLE
  5
3
330
0
100
AcDbSymbolTable
 70
     9
  0
STYLE
  5
11
330
3
100
AcDbSymbolTableRecord
100
AcDbTextStyleTableRecord
  2
Standard
 70
     0
 40
0.0
 41
1.0
 50
0.0
 71
     0
 42
0.2
  3
txt
  4

  0
STYLE
  5
2B
330
3
100
AcDbSymbolTableRecord
100
AcDbTextStyleTableRecord
  2
SN0
 70
     0
 40
0.0
 41
0.000004
 50
0.0
 71
     0
 42
0.0
  3
ROMAND
  4

  0
STYLE
  5
2C
330
3
100
AcDbSymbolTableRecord
100
AcDbTextStyleTableRecord
  2
SV0
 70
     4
 40
0.0
 41
0.000004
 50
0.0
 71
     0
 42
0.0
  3
ROMAND
  4

  0
STYLE
  5
2D
330
3
100
AcDbSymbolTableRecord
100
AcDbTextStyleTableRecord
  2
SN1
 70
     0
 40
0.0
 41
0.000004
 50
0.0
 71
     0
 42
0.0
  3
ROMAND
  4

  0
STYLE
  5
2E
330
3
100
AcDbSymbolTableRecord
100
AcDbTextStyleTableRecord
  2
SV1
 70
     4
 40
0.0
 41
0.000004
 50
0.0
 71
     0
 42
0.0
  3
ROMAND
  4

  0
STYLE
  5
2F
330
3
100
AcDbSymbolTableRecord
100
AcDbTextStyleTableRecord
  2
SN2
 70
     0
 40
0.0
 41
0.000004
 50
0.0
 71
     0
 42
0.0
  3
ROMAND
  4

  0
STYLE
  5
30
330
3
100
AcDbSymbolTableRecord
100
AcDbTextStyleTableRecord
  2
SV2
 70
     4
 40
0.0
 41
0.000004
 50
0.0
 71
     0
 42
0.0
  3
ROMAND
  4

  0
STYLE
  5
31
330
3
100
AcDbSymbolTableRecord
100
AcDbTextStyleTableRecord
  2
SN3
 70
     0
 40
0.0
 41
0.000004
 50
0.0
 71
     0
 42
0.0
  3
ROMAND
  4

  0
STYLE
  5
32
330
3
100
AcDbSymbolTableRecord
100
AcDbTextStyleTableRecord
  2
SV3
 70
     4
 40
0.0
 41
0.000004
 50
0.0
 71
     0
 42
0.0
  3
ROMAND
  4

  0
ENDTAB
  0
TABLE
  2
VIEW
  5
6
330
0
100
AcDbSymbolTable
 70
     0
  0
ENDTAB
  0
TABLE
  2
UCS
  5
7
330
0
100
AcDbSymbolTable
 70
     0
  0
ENDTAB
  0
TABLE
  2
APPID
  5
9
330
0
100
AcDbSymbolTable
 70
     1
  0
APPID
  5
12
330
9
100
AcDbSymbolTableRecord
100
AcDbRegAppTableRecord
  2
ACAD
 70
     0
  0
ENDTAB
  0
TABLE
  2
DIMSTYLE
  5
A
330
0
100
AcDbSymbolTable
 70
     1
100
AcDbDimStyleTable
 71
     0
  0
DIMSTYLE
105
112C
330
A
100
AcDbSymbolTableRecord
100
AcDbDimStyleTableRecord
  2
Standard
 70
     0
340
11
  0
ENDTAB
  0
TABLE
  2
BLOCK_RECORD
  5
1
330
0
100
AcDbSymbolTable
 70
     0
  0
BLOCK_RECORD
  5
1E
330
1
100
AcDbSymbolTableRecord
100
AcDbBlockTableRecord
  2
*Model_Space
340
21
  0
BLOCK_RECORD
  5
1A
330
1
100
AcDbSymbolTableRecord
100
AcDbBlockTableRecord
  2
*Paper_Space
340
1D
  0
ENDTAB
  0
ENDSEC
  0
SECTION
  2
BLOCKS
  0
BLOCK
  5
1F
330
1E
100
AcDbEntity
  8
0
100
AcDbBlockBegin
  2
*Model_Space
 70
     0
 10
0.0
 20
0.0
 30
0.0
  3
*Model_Space
  1

  0
ENDBLK
  5
20
330
1E
100
AcDbEntity
  8
0
100
AcDbBlockEnd
  0
BLOCK
  5
1B
330
1A
100
AcDbEntity
 67
     1
  8
0
100
AcDbBlockBegin
  2
*Paper_Space
 70
     0
 10
0.0
 20
0.0
 30
0.0
  3
*Paper_Space
  1

  0
ENDBLK
  5
1C
330
1A
100
AcDbEntity
 67
     1
  8
0
100
AcDbBlockEnd
  0
ENDSEC
  0
SECTION
  2
ENTITIES
  0
TEXT
  5
39
330
1E
100
AcDbEntity
  8
LAYER_1
 62
     7
100
AcDbText
 10
1.258358
 20
-0.5893460000000001
 30
0.0
 40
0.111888
  1
HT12  5.0%
 41
0.6901856753660876
  7
SN0
 72
     5
 11
1.971756
 21
-0.5893460000000001
 31
0.0
100
AcDbText
  0
TEXT
  5
3A
330
1E
100
AcDbEntity
  8
LAYER_1
 62
     7
100
AcDbText
 10
-0.8367479999999998
 20
0.098768
 30
0.0
 40
0.111888
  1
AG40d 8.0%
 41
0.7374740124740126
  7
SN0
 72
     5
 11
-0.070542
 21
0.098768
 31
0.0
100
AcDbText
  0
TEXT
  5
3B
330
1E
100
AcDbEntity
  8
LAYER_1
 62
     7
100
AcDbText
 10
-0.8613190000000001
 20
-1.781268
 30
0.0
 40
0.111888
  1
AG41d 7.7%
 41
0.7374740124740124
  7
SN0
 72
     5
 11
-0.095113
 21
-1.781268
 31
0.0
100
AcDbText
  0
TEXT
  5
3C
330
1E
100
AcDbEntity
  8
LAYER_1
 62
     7
100
AcDbText
 10
-0.9841969999999999
 20
-3.341823
 30
0.0
 40
0.111888
  1
AG42d 7.3%
 41
0.7374740124740126
  7
SN0
 72
     5
 11
-0.217991
 21
-3.341823
 31
0.0
100
AcDbText
  0
TEXT
  5
3D
330
1E
100
AcDbEntity
  8
LAYER_1
 62
     7
100
AcDbText
 10
-1.057929
 20
-4.115961
 30
0.0
 40
0.111888
  1
AG43d 6.5%
 41
0.7374730499730498
  7
SN0
 72
     5
 11
-0.2917239999999999
 21
-4.115961
 31
0.0
100
AcDbText
  0
TEXT
  5
3E
330
1E
100
AcDbEntity
  8
LAYER_1
 62
     7
100
AcDbText
 10
1.319803
 20
0.074185
 30
0.0
 40
0.111888
  1
HT14t  8.0%
 41
0.6873599208965069
  7
SN0
 72
     5
 11
2.070565
 21
0.074185
 31
0.0
100
AcDbText
  0
TEXT
  5
3F
330
1E
100
AcDbEntity
  8
LAYER_1
 62
     7
100
AcDbText
 10
-0.365346
 20
2.072074999999999
 30
0.0
 40
0.111888
  1
Lv = 42 in
 41
0.5946975201007453
  7
SN1
 72
     5
 11
0.224004
 21
2.072074999999999
 31
0.0
100
AcDbText
  0
TEXT
  5
40
330
1E
100
AcDbEntity
  8
LAYER_1
 62
     7
100
AcDbText
 10
-0.426783
 20
0.454772
 30
0.0
 40
0.111888
  1
Lh = 37 in
 41
0.5895596254148885
  7
SN1
 72
     5
 11
0.17004
 21
0.454772
 31
0.0
100
AcDbText
  0
TEXT
  5
41
330
1E
100
AcDbEntity
  8
LAYER_1
 62
     7
100
AcDbText
 10
1.304365999999999
 20
1.156712999999999
 30
0.0
 40
0.111888
  1
Sh = 83 inò
 41
0.66110476673857
  7
SN1
 72
     5
 11
2.054629999999999
 21
1.156712999999999
 31
0.0
100
AcDbText
  0
TEXT
  5
42
330
1E
100
AcDbEntity
  8
LAYER_1
 62
     7
100
AcDbText
 10
1.304365999999999
 20
1.021543
 30
0.0
 40
0.111888
  1
Ch = 0.37
 41
0.6284882183319681
  7
SN1
 72
     5
 11
1.893716999999999
 21
1.021543
 31
0.0
100
AcDbText
  0
TEXT
  5
43
330
1E
100
AcDbEntity
  8
LAYER_1
 62
     7
100
AcDbText
 10
1.799027999999999
 20
2.802086999999999
 30
0.0
 40
0.111888
  1
HT12  5.0%
 41
0.690185675366088
  7
SN0
 72
     5
 11
2.512426
 21
2.802086999999999
 31
0.0
100
AcDbText
  0
TEXT
  5
44
330
1E
100
AcDbEntity
  8
LAYER_1
 62
     7
100
AcDbText
 10
1.900402
 20
1.984949
 30
0.0
 40
0.111888
  1
HT13  6.5%
 41
0.6901856753660876
  7
SN0
 72
     5
 11
2.613799999999999
 21
1.984949
 31
0.0
100
AcDbText
  0
TEXT
  5
45
330
1E
100
AcDbEntity
  8
LAYER_1
 62
     7
100
AcDbText
 10
-3.205916999999999
 20
-0.6893190000000001
 30
0.0
 40
0.111888
  1
2.5 deg
 50
269.8175093408309
 41
0.6715871926644863
  7
SN1
 72
     5
 11
-3.207352999999999
 21
-1.140171999999999
 31
0.0
100
AcDbText
  0
TEXT
  5
46
330
1E
100
AcDbEntity
  8
LAYER_1
 62
     7
100
AcDbText
 10
-2.99024
 20
-3.011719999999999
 30
0.0
 40
0.111888
  1
7.5 deg
 50
269.8175097455948
 41
0.6715886822417531
  7
SN1
 72
     5
 11
-2.991676
 21
-3.462573999999999
 31
0.0
100
AcDbText
  0
TEXT
  5
47
330
1E
100
AcDbEntity
  8
LAYER_1
 62
     7
100
AcDbText
 10
-3.334291
 20
-1.746066999999999
 30
0.0
 40
0.111888
  1
EDA = 5.9 deg
 50
269.8174522188652
 41
0.6545199928269692
  7
SN1
 72
     5
 11
-3.337101999999999
 21
-2.628344999999999
 31
0.0
100
AcDbText
  0
TEXT
  5
48
330
1E
100
AcDbEntity
  8
LAYER_1
 62
     7
100
AcDbText
 10
-2.663177
 20
0.092622
 30
0.0
 40
0.111888
  1
Re sqrt(CL)=100K
 41
0.7070745314279798
  7
SN0
 72
     5
 11
-1.570662
 21
0.092622
 31
0.0
100
AcDbText
  0
TEXT
  5
49
330
1E
100
AcDbEntity
  8
LAYER_1
 62
     7
100
AcDbText
 10
-1.864468999999999
 20
-1.775122
 30
0.0
 40
0.111888
  1
85K
 41
0.7786547323185253
  7
SN0
 72
     5
 11
-1.623845999999999
 21
-1.775122
 31
0.0
100
AcDbText
  0
TEXT
  5
4A
330
1E
100
AcDbEntity
  8
LAYER_1
 62
     7
100
AcDbText
 10
-1.778452999999999
 20
-3.360263999999999
 30
0.0
 40
0.111888
  1
60K
 41
0.7786547323185248
  7
SN0
 72
     5
 11
-1.53783
 21
-3.360263999999999
 31
0.0
100
AcDbText
  0
TEXT
  5
4B
330
1E
100
AcDbEntity
  8
LAYER_1
 62
     7
100
AcDbText
 10
-1.692436999999999
 20
-4.122105999999999
 30
0.0
 40
0.111888
  1
40K
 41
0.7786514963239104
  7
SN0
 72
     5
 11
-1.451814999999999
 21
-4.122105999999999
 31
0.0
100
AcDbText
  0
TEXT
  5
4C
330
1E
100
AcDbEntity
  8
LAYER_1
 62
     7
100
AcDbText
 10
1.967641999999999
 20
-3.993424999999999
 30
0.0
 40
0.111888
  1
span = 134 in
 41
0.611882132132132
  7
SN1
 72
     5
 11
2.782668999999999
 21
-3.993424999999999
 31
0.0
100
AcDbText
  0
TEXT
  5
4D
330
1E
100
AcDbEntity
  8
LAYER_1
 62
     7
100
AcDbText
 10
1.967641999999999
 20
-4.128594
 30
0.0
 40
0.111888
  1
cavg = 7.95 in
 41
0.6146538980841302
  7
SN1
 72
     5
 11
2.812559999999999
 21
-4.128594
 31
0.0
100
AcDbText
  0
TEXT
  5
4E
330
1E
100
AcDbEntity
  8
LAYER_1
 62
     7
100
AcDbText
 10
1.967641999999999
 20
-4.263759999999999
 30
0.0
 40
0.111888
  1
area = 1052 inò
 41
0.662393314366999
  7
SN1
 72
     5
 11
2.973472999999999
 21
-4.263759999999999
 31
0.0
100
AcDbText
  0
TEXT
  5
4F
330
1E
100
AcDbEntity
  8
LAYER_1
 62
     7
100
AcDbText
 10
1.967641999999999
 20
-4.398928999999999
 30
0.0
 40
0.111888
  1
A.R. = 17.1
 41
0.6672474175746429
  7
SN1
 72
     5
 11
2.646665
 21
-4.398928999999999
 31
0.0
100
AcDbText
  0
TEXT
  5
50
330
1E
100
AcDbEntity
  8
LAYER_1
 62
     7
100
AcDbText
 10
1.967641999999999
 20
-4.534094
 30
0.0
 40
0.111888
  1
mass = 48 oz min 
 41
0.5865176255801254
  7
SN1
 72
     5
 11
3.067629999999999
 21
-4.534094
 31
0.0
100
AcDbText
  0
TEXT
  5
51
330
1E
100
AcDbEntity
  8
LAYER_1
 62
     7
100
AcDbText
 10
1.967641999999999
 20
-4.669264
 30
0.0
 40
0.111888
  1
     = 64 oz max
 41
0.5176046582296583
  7
SN1
 72
     5
 11
2.894261999999999
 21
-4.669264
 31
0.0
100
AcDbText
  0
TEXT
  5
52
330
1E
100
AcDbEntity
  8
LAYER_1
 62
     7
100
AcDbText
 10
1.967641999999999
 20
-4.804428999999999
 30
0.0
 40
0.111888
  1
W/S  = 6.6 oz/ftò min
 41
0.6041195158573217
  7
SN1
 72
     5
 11
3.287329
 21
-4.804428999999999
 31
0.0
100
AcDbText
  0
TEXT
  5
53
330
1E
100
AcDbEntity
  8
LAYER_1
 62
     7
100
AcDbText
 10
1.967641999999999
 20
-4.939594
 30
0.0
 40
0.111888
  1
     = 8.8 oz/ftò max 
 41
0.5364671178027339
  7
SN1
 72
     5
 11
3.219575999999999
 21
-4.939594
 31
0.0
100
AcDbText
  0
LWPOLYLINE
  5
54
330
1E
100
AcDbEntity
  8
LAYER_1
  6
Continuous
 62
     7
100
AcDbPolyline
 90
        2
 70
     0
 43
0.0
 10
-1.024275999999999
 20
0.372846
 10
1.332512
 20
0.361776
  0
LWPOLYLINE
  5
58
330
1E
100
AcDbEntity
  8
LAYER_1
  6
Continuous
 62
     7
100
AcDbPolyline
 90
        2
 70
     0
 43
0.0
 10
-1.024275999999999
 20
0.320622
 10
1.331902
 20
0.331677
  0
LWPOLYLINE
  5
5C
330
1E
100
AcDbEntity
  8
LAYER_1
  6
Continuous
 62
     7
100
AcDbPolyline
 90
        4
 70
     0
 43
0.0
 10
-0.573555
 20
0.371969
 10
-0.57382
 20
0.371972
 10
-0.5756740000000001
 20
0.371994
 10
-0.5807050000000001
 20
0.372055
  0
LWPOLYLINE
  5
62
330
1E
100
AcDbEntity
  8
LAYER_1
  6
Continuous
 62
     7
100
AcDbPolyline
 90
        4
 70
     0
 43
0.0
 10
-0.5807050000000001
 20
0.372055
 10
-0.590096
 20
0.372165
 10
-0.603437
 20
0.372327
 10
-0.6199020000000001
 20
0.372539
  0
LWPOLYLINE
  5
68
330
1E
100
AcDbEntity
  8
LAYER_1
  6
Continuous
 62
     7
100
AcDbPolyline
 90
        4
 70
     0
 43
0.0
 10
-0.6199020000000001
 20
0.372539
 10
-0.63869
 20
0.372783
 10
-0.6590340000000001
 20
0.373049
 10
-0.6801930000000001
 20
0.373319
  0
LWPOLYLINE
  5
6E
330
1E
100
AcDbEntity
  8
LAYER_1
  6
Continuous
 62
     7
100
AcDbPolyline
 90
        4
 70
     0
 43
0.0
 10
-0.6801930000000001
 20
0.373319
 10
-0.701545
 20
0.373577
 10
-0.72295
 20
0.373823
 10
-0.744386
 20
0.374055
  0
LWPOLYLINE
  5
74
330
1E
100
AcDbEntity
  8
LAYER_1
  6
Continuous
 62
     7
100
AcDbPolyline
 90
        4
 70
     0
 43
0.0
 10
-0.744386
 20
0.374055
 10
-0.7658470000000001
 20
0.374273
 10
-0.7873160000000001
 20
0.374487
 10
-0.8088029999999999
 20
0.374705
  0
LWPOLYLINE
  5
7A
330
1E
100
AcDbEntity
  8
LAYER_1
  6
Continuous
 62
     7
100
AcDbPolyline
 90
        4
 70
     0
 43
0.0
 10
-0.8088029999999999
 20
0.374705
 10
-0.830297
 20
0.374929
 10
-0.8517969999999998
 20
0.375154
 10
-0.873291
 20
0.375386
  0
LWPOLYLINE
  5
80
330
1E
100
AcDbEntity
  8
LAYER_1
  6
Continuous
 62
     7
100
AcDbPolyline
 90
        4
 70
     0
 43
0.0
 10
-0.873291
 20
0.375386
 10
-0.8947659999999999
 20
0.375628
 10
-0.91622
 20
0.375882
 10
-0.93765
 20
0.37615
  0
LWPOLYLINE
  5
86
330
1E
100
AcDbEntity
  8
LAYER_1
  6
Continuous
 62
     7
100
AcDbPolyline
 90
        4
 70
     0
 43
0.0
 10
-0.93765
 20
0.37615
 10
-0.9590620000000001
 20
0.376423
 10
-0.9804299999999999
 20
0.376715
 10
-1.001747999999999
 20
0.377028
  0
LWPOLYLINE
  5
8C
330
1E
100
AcDbEntity
  8
LAYER_1
  6
Continuous
 62
     7
100
AcDbPolyline
 90
        4
 70
     0
 43
0.0
 10
-1.001747999999999
 20
0.377028
 10
-1.023013999999999
 20
0.377366
 10
-1.044237
 20
0.377726
 10
-1.065429
 20
0.3781219999999999
  0
LWPOLYLINE
  5
92
330
1E
100
AcDbEntity
  8
LAYER_1
  6
Continuous
 62
     7
100
AcDbPolyline
 90
        4
 70
     0
 43
0.0
 10
-1.065429
 20
0.3781219999999999
 10
-1.086604
 20
0.378549
 10
-1.107774
 20
0.379019
 10
-1.128956999999999
 20
0.379528
  0
LWPOLYLINE
  5
98
330
1E
100
AcDbEntity
  8
LAYER_1
  6
Continuous
 62
     7
100
AcDbPolyline
 90
        4
 70
     0
 43
0.0
 10
-1.128956999999999
 20
0.379528
 10
-1.150147999999999
 20
0.380058
 10
-1.171348
 20
0.380624
 10
-1.192539
 20
0.38122
  0
LWPOLYLINE
  5
9E
330
1E
100
AcDbEntity
  8
LAYER_1
  6
Continuous
 62
     7
100
AcDbPolyline
 90
        4
 70
     0
 43
0.0
 10
-1.192539
 20
0.38122
 10
-1.213705999999999
 20
0.38185
 10
-1.234839999999999
 20
0.382517
 10
-1.255940999999999
 20
0.38322
  0
LWPOLYLINE
  5
A4
330
1E
100
AcDbEntity
  8
LAYER_1
  6
Continuous
 62
     7
100
AcDbPolyline
 90
        4
 70
     0
 43
0.0
 10
-1.255940999999999
 20
0.38322
 10
-1.276991999999999
 20
0.383962
 10
-1.298
 20
0.384747
 10
-1.318956999999999
 20
0.385583
  0
LWPOLYLINE
  5
AA
330
1E
100
AcDbEntity
  8
LAYER_1
  6
Continuous
 62
     7
100
AcDbPolyline
 90
        4
 70
     0
 43
0.0
 10
-1.318956999999999
 20
0.385583
 10
-1.339845
 20
0.386457
 10
-1.360678
 20
0.38739
 10
-1.381456999999999
 20
0.388386
  0
LWPOLYLINE
  5
B0
330
1E
100
AcDbEntity
  8
LAYER_1
  6
Continuous
 62
     7
100
AcDbPolyline
 90
        4
 70
     0
 43
0.0
 10
-1.381456999999999
 20
0.388386
 10
-1.402174999999999
 20
0.389443
 10
-1.422837999999999
 20
0.390562
 10
-1.443456999999999
 20
0.391748
  0
LWPOLYLINE
  5
B6
330
1E
100
AcDbEntity
  8
LAYER_1
  6
Continuous
 62
     7
100
AcDbPolyline
 90
        4
 70
     0
 43
0.0
 10
-1.443456999999999
 20
0.391748
 10
-1.464036
 20
0.393018
 10
-1.484595999999999
 20
0.394359
 10
-1.505164999999999
 20
0.395776
  0
LWPOLYLINE
  5
BC
330
1E
100
AcDbEntity
  8
LAYER_1
  6
Continuous
 62
     7
100
AcDbPolyline
 90
        4
 70
     0
 43
0.0
 10
-1.505164999999999
 20
0.395776
 10
-1.525757999999999
 20
0.397281
 10
-1.546338999999999
 20
0.398839
 10
-1.566858
 20
0.4004290000000001
  0
LWPOLYLINE
  5
C2
330
1E
100
AcDbEntity
  8
LAYER_1
  6
Continuous
 62
     7
100
AcDbPolyline
 90
        4
 70
     0
 43
0.0
 10
-1.566858
 20
0.4004290000000001
 10
-1.587246999999999
 20
0.402011
 10
-1.607507
 20
0.4035540000000001
 10
-1.627609999999999
 20
0.4050000000000001
  0
LWPOLYLINE
  5
C8
330
1E
100
AcDbEntity
  8
LAYER_1
  6
Continuous
 62
     7
100
AcDbPolyline
 90
        4
 70
     0
 43
0.0
 10
-1.627609999999999
 20
0.4050000000000001
 10
-1.647545999999999
 20
0.4063060000000001
 10
-1.667393999999999
 20
0.4074790000000001
 10
-1.687247999999999
 20
0.408528
  0
LWPOLYLINE
  5
CE
330
1E
100
AcDbEntity
  8
LAYER_1
  6
Continuous
 62
     7
100
AcDbPolyline
 90
        4
 70
     0
 43
0.0
 10
-1.687247999999999
 20
0.408528
 10
-1.707172
 20
0.409441
 10
-1.727188999999999
 20
0.410239
 10
-1.747290999999999
 20
0.410929
  0
LWPOLYLINE
  5
D4
330
1E
100
AcDbEntity
  8
LAYER_1
  6
Continuous
 62
     7
100
AcDbPolyline
 90
        4
 70
     0
 43
0.0
 10
-1.747290999999999
 20
0.410929
 10
-1.767495
 20
0.411508
 10
-1.787783
 20
0.41199
 10
-1.808165
 20
0.412374
  0
LWPOLYLINE
  5
DA
330
1E
100
AcDbEntity
  8
LAYER_1
  6
Continuous
 62
     7
100
AcDbPolyline
 90
        4
 70
     0
 43
0.0
 10
-1.808165
 20
0.412374
 10
-1.828631
 20
0.4126760000000001
 10
-1.849184999999999
 20
0.412895
 10
-1.869818999999999
 20
0.4130390000000001
  0
LWPOLYLINE
  5
E0
330
1E
100
AcDbEntity
  8
LAYER_1
  6
Continuous
 62
     7
100
AcDbPolyline
 90
        4
 70
     0
 43
0.0
 10
-1.869818999999999
 20
0.4130390000000001
 10
-1.890502999999999
 20
0.413113
 10
-1.911246
 20
0.4131180000000001
 10
-1.932027999999999
 20
0.4130550000000001
  0
LWPOLYLINE
  5
E6
330
1E
100
AcDbEntity
  8
LAYER_1
  6
Continuous
 62
     7
100
AcDbPolyline
 90
        4
 70
     0
 43
0.0
 10
-1.932027999999999
 20
0.4130550000000001
 10
-1.952831
 20
0.412934
 10
-1.973656
 20
0.4127470000000001
 10
-1.994495999999999
 20
0.4125
  0
LWPOLYLINE
  5
EC
330
1E
100
AcDbEntity
  8
LAYER_1
  6
Continuous
 62
     7
100
AcDbPolyline
 90
        4
 70
     0
 43
0.0
 10
-1.994495999999999
 20
0.4125
 10
-2.015360999999999
 20
0.412196
 10
-2.036229
 20
0.4118380000000001
 10
-2.057093999999999
 20
0.4114130000000001
  0
LWPOLYLINE
  5
F2
330
1E
100
AcDbEntity
  8
LAYER_1
  6
Continuous
 62
     7
100
AcDbPolyline
 90
        4
 70
     0
 43
0.0
 10
-2.057093999999999
 20
0.4114130000000001
 10
-2.077963
 20
0.4109410000000001
 10
-2.098813999999999
 20
0.4104100000000001
 10
-2.119638
 20
0.4098189999999999
  0
LWPOLYLINE
  5
F8
330
1E
100
AcDbEntity
  8
LAYER_1
  6
Continuous
 62
     7
100
AcDbPolyline
 90
        4
 70
     0
 43
0.0
 10
-2.119638
 20
0.4098189999999999
 10
-2.140441
 20
0.409169
 10
-2.161207
 20
0.4084640000000001
 10
-2.181929
 20
0.407693
  0
LWPOLYLINE
  5
FE
330
1E
100
AcDbEntity
  8
LAYER_1
  6
Continuous
 62
     7
100
AcDbPolyline
 90
        4
 70
     0
 43
0.0
 10
-2.181929
 20
0.407693
 10
-2.202593
 20
0.406844
 10
-2.223197
 20
0.405929
 10
-2.243732
 20
0.404941
  0
LWPOLYLINE
  5
104
330
1E
100
AcDbEntity
  8
LAYER_1
  6
Continuous
 62
     7
100
AcDbPolyline
 90
        4
 70
     0
 43
0.0
 10
-2.243732
 20
0.404941
 10
-2.264184
 20
0.4038800000000001
 10
-2.284532
 20
0.402741
 10
-2.304764
 20
0.401512
  0
LWPOLYLINE
  5
10A
330
1E
100
AcDbEntity
  8
LAYER_1
  6
Continuous
 62
     7
100
AcDbPolyline
 90
        4
 70
     0
 43
0.0
 10
-2.304764
 20
0.401512
 10
-2.324835999999999
 20
0.400186
 10
-2.344718999999999
 20
0.398763
 10
-2.364358
 20
0.397232
  0
LWPOLYLINE
  5
110
330
1E
100
AcDbEntity
  8
LAYER_1
  6
Continuous
 62
     7
100
AcDbPolyline
 90
        4
 70
     0
 43
0.0
 10
-2.364358
 20
0.397232
 10
-2.383688999999999
 20
0.395606
 10
-2.402575
 20
0.39387
 10
-2.420857999999999
 20
0.392039
  0
LWPOLYLINE
  5
116
330
1E
100
AcDbEntity
  8
LAYER_1
  6
Continuous
 62
     7
100
AcDbPolyline
 90
        4
 70
     0
 43
0.0
 10
-2.420857999999999
 20
0.392039
 10
-2.438365999999999
 20
0.390114
 10
-2.454845
 20
0.38814
 10
-2.470027999999999
 20
0.38615
  0
LWPOLYLINE
  5
11C
330
1E
100
AcDbEntity
  8
LAYER_1
  6
Continuous
 62
     7
100
AcDbPolyline
 90
        4
 70
     0
 43
0.0
 10
-2.470027999999999
 20
0.38615
 10
-2.483687999999999
 20
0.384189
 10
-2.495788
 20
0.382278
 10
-2.506331
 20
0.380457
  0
LWPOLYLINE
  5
122
330
1E
100
AcDbEntity
  8
LAYER_1
  6
Continuous
 62
     7
100
AcDbPolyline
 90
        4
 70
     0
 43
0.0
 10
-2.506331
 20
0.380457
 10
-2.515349
 20
0.378752
 10
-2.523020999999999
 20
0.377161
 10
-2.529566999999999
 20
0.375677
  0
LWPOLYLINE
  5
128
330
1E
100
AcDbEntity
  8
LAYER_1
  6
Continuous
 62
     7
100
AcDbPolyline
 90
        4
 70
     0
 43
0.0
 10
-2.529566999999999
 20
0.375677
 10
-2.5352
 20
0.37428
 10
-2.540057
 20
0.372968
 10
-2.544290999999999
 20
0.37172
  0
LWPOLYLINE
  5
12E
330
1E
100
AcDbEntity
  8
LAYER_1
  6
Continuous
 62
     7
100
AcDbPolyline
 90
        4
 70
     0
 43
0.0
 10
-2.544290999999999
 20
0.37172
 10
-2.548019
 20
0.370516
 10
-2.55133
 20
0.369337
 10
-2.554291
 20
0.368177
  0
LWPOLYLINE
  5
134
330
1E
100
AcDbEntity
  8
LAYER_1
  6
Continuous
 62
     7
100
AcDbPolyline
 90
        4
 70
     0
 43
0.0
 10
-2.554291
 20
0.368177
 10
-2.556956
 20
0.367009
 10
-2.559359
 20
0.365825
 10
-2.561528
 20
0.36461
  0
LWPOLYLINE
  5
13A
330
1E
100
AcDbEntity
  8
LAYER_1
  6
Continuous
 62
     7
100
AcDbPolyline
 90
        4
 70
     0
 43
0.0
 10
-2.561528
 20
0.36461
 10
-2.563486
 20
0.363359
 10
-2.565231999999999
 20
0.3620489999999999
 10
-2.566775999999999
 20
0.360677
  0
LWPOLYLINE
  5
140
330
1E
100
AcDbEntity
  8
LAYER_1
  6
Continuous
 62
     7
100
AcDbPolyline
 90
        4
 70
     0
 43
0.0
 10
-2.566775999999999
 20
0.360677
 10
-2.568124
 20
0.359244
 10
-2.569284999999999
 20
0.357756
 10
-2.570263999999999
 20
0.35622
  0
LWPOLYLINE
  5
146
330
1E
100
AcDbEntity
  8
LAYER_1
  6
Continuous
 62
     7
100
AcDbPolyline
 90
        4
 70
     0
 43
0.0
 10
-2.570263999999999
 20
0.35622
 10
-2.571064999999999
 20
0.354638
 10
-2.571703999999999
 20
0.353038
 10
-2.572192999999999
 20
0.351429
  0
LWPOLYLINE
  5
14C
330
1E
100
AcDbEntity
  8
LAYER_1
  6
Continuous
 62
     7
100
AcDbPolyline
 90
        4
 70
     0
 43
0.0
 10
-2.572192999999999
 20
0.351429
 10
-2.572527
 20
0.349818
 10
-2.572725
 20
0.3482099999999999
 10
-2.572791
 20
0.34661
  0
LWPOLYLINE
  5
152
330
1E
100
AcDbEntity
  8
LAYER_1
  6
Continuous
 62
     7
100
AcDbPolyline
 90
        4
 70
     0
 43
0.0
 10
-2.572791
 20
0.34661
 10
-2.572725
 20
0.345003
 10
-2.572527
 20
0.343399
 10
-2.572192999999999
 20
0.341791
  0
LWPOLYLINE
  5
158
330
1E
100
AcDbEntity
  8
LAYER_1
  6
Continuous
 62
     7
100
AcDbPolyline
 90
        4
 70
     0
 43
0.0
 10
-2.572192999999999
 20
0.341791
 10
-2.571703999999999
 20
0.3401800000000001
 10
-2.571064999999999
 20
0.33858
 10
-2.570263999999999
 20
0.337
  0
LWPOLYLINE
  5
15E
330
1E
100
AcDbEntity
  8
LAYER_1
  6
Continuous
 62
     7
100
AcDbPolyline
 90
        4
 70
     0
 43
0.0
 10
-2.570263999999999
 20
0.337
 10
-2.569284999999999
 20
0.335462
 10
-2.568124
 20
0.333972
 10
-2.566775999999999
 20
0.332539
  0
LWPOLYLINE
  5
164
330
1E
100
AcDbEntity
  8
LAYER_1
  6
Continuous
 62
     7
100
AcDbPolyline
 90
        4
 70
     0
 43
0.0
 10
-2.566775999999999
 20
0.332539
 10
-2.565231999999999
 20
0.3311679999999999
 10
-2.563486
 20
0.329855
 10
-2.561528
 20
0.328594
  0
LWPOLYLINE
  5
16A
330
1E
100
AcDbEntity
  8
LAYER_1
  6
Continuous
 62
     7
100
AcDbPolyline
 90
        4
 70
     0
 43
0.0
 10
-2.561528
 20
0.328594
 10
-2.559359
 20
0.327389
 10
-2.556956
 20
0.326208
 10
-2.554291
 20
0.3250389999999999
  0
LWPOLYLINE
  5
170
330
1E
100
AcDbEntity
  8
LAYER_1
  6
Continuous
 62
     7
100
AcDbPolyline
 90
        4
 70
     0
 43
0.0
 10
-2.554291
 20
0.3250389999999999
 10
-2.55133
 20
0.32388
 10
-2.548019
 20
0.322704
 10
-2.544290999999999
 20
0.3215
  0
LWPOLYLINE
  5
176
330
1E
100
AcDbEntity
  8
LAYER_1
  6
Continuous
 62
     7
100
AcDbPolyline
 90
        4
 70
     0
 43
0.0
 10
-2.544290999999999
 20
0.3215
 10
-2.540057
 20
0.320241
 10
-2.5352
 20
0.318927
 10
-2.529566999999999
 20
0.317539
  0
LWPOLYLINE
  5
17C
330
1E
100
AcDbEntity
  8
LAYER_1
  6
Continuous
 62
     7
100
AcDbPolyline
 90
        4
 70
     0
 43
0.0
 10
-2.529566999999999
 20
0.317539
 10
-2.523020999999999
 20
0.316051
 10
-2.515349
 20
0.314465
 10
-2.506331
 20
0.312764
  0
LWPOLYLINE
  5
182
330
1E
100
AcDbEntity
  8
LAYER_1
  6
Continuous
 62
     7
100
AcDbPolyline
 90
        4
 70
     0
 43
0.0
 10
-2.506331
 20
0.312764
 10
-2.495788
 20
0.310934
 10
-2.483687999999999
 20
0.309025
 10
-2.470027999999999
 20
0.307067
  0
LWPOLYLINE
  5
188
330
1E
100
AcDbEntity
  8
LAYER_1
  6
Continuous
 62
     7
100
AcDbPolyline
 90
        4
 70
     0
 43
0.0
 10
-2.470027999999999
 20
0.307067
 10
-2.454845
 20
0.305075
 10
-2.438365999999999
 20
0.303098
 10
-2.420857999999999
 20
0.301177
  0
LWPOLYLINE
  5
18E
330
1E
100
AcDbEntity
  8
LAYER_1
  6
Continuous
 62
     7
100
AcDbPolyline
 90
        4
 70
     0
 43
0.0
 10
-2.420857999999999
 20
0.301177
 10
-2.402575
 20
0.299347
 10
-2.383688999999999
 20
0.297612
 10
-2.364358
 20
0.295984
  0
LWPOLYLINE
  5
194
330
1E
100
AcDbEntity
  8
LAYER_1
  6
Continuous
 62
     7
100
AcDbPolyline
 90
        4
 70
     0
 43
0.0
 10
-2.364358
 20
0.295984
 10
-2.344713999999999
 20
0.294456
 10
-2.324834
 20
0.293031
 10
-2.304764
 20
0.291705
  0
LWPOLYLINE
  5
19A
330
1E
100
AcDbEntity
  8
LAYER_1
  6
Continuous
 62
     7
100
AcDbPolyline
 90
        4
 70
     0
 43
0.0
 10
-2.304764
 20
0.291705
 10
-2.284532
 20
0.2904739999999999
 10
-2.264184
 20
0.289329
 10
-2.243732
 20
0.2882639999999999
  0
LWPOLYLINE
  5
1A0
330
1E
100
AcDbEntity
  8
LAYER_1
  6
Continuous
 62
     7
100
AcDbPolyline
 90
        4
 70
     0
 43
0.0
 10
-2.243732
 20
0.2882639999999999
 10
-2.223197
 20
0.287281
 10
-2.202593
 20
0.286368
 10
-2.181929
 20
0.285528
  0
LWPOLYLINE
  5
1A6
330
1E
100
AcDbEntity
  8
LAYER_1
  6
Continuous
 62
     7
100
AcDbPolyline
 90
        4
 70
     0
 43
0.0
 10
-2.181929
 20
0.285528
 10
-2.161207
 20
0.284753
 10
-2.140441
 20
0.28404
 10
-2.119638
 20
0.2833860000000001
  0
LWPOLYLINE
  5
1AC
330
1E
100
AcDbEntity
  8
LAYER_1
  6
Continuous
 62
     7
100
AcDbPolyline
 90
        4
 70
     0
 43
0.0
 10
-2.119638
 20
0.2833860000000001
 10
-2.098813999999999
 20
0.282799
 10
-2.077963
 20
0.282265
 10
-2.057093999999999
 20
0.2817909999999999
  0
LWPOLYLINE
  5
1B2
330
1E
100
AcDbEntity
  8
LAYER_1
  6
Continuous
 62
     7
100
AcDbPolyline
 90
        4
 70
     0
 43
0.0
 10
-2.057093999999999
 20
0.2817909999999999
 10
-2.036229
 20
0.281374
 10
-2.015360999999999
 20
0.281012
 10
-1.994495999999999
 20
0.280705
  0
LWPOLYLINE
  5
1B8
330
1E
100
AcDbEntity
  8
LAYER_1
  6
Continuous
 62
     7
100
AcDbPolyline
 90
        4
 70
     0
 43
0.0
 10
-1.994495999999999
 20
0.280705
 10
-1.973656
 20
0.28046
 10
-1.952831
 20
0.280276
 10
-1.932027999999999
 20
0.28015
  0
LWPOLYLINE
  5
1BE
330
1E
100
AcDbEntity
  8
LAYER_1
  6
Continuous
 62
     7
100
AcDbPolyline
 90
        4
 70
     0
 43
0.0
 10
-1.932027999999999
 20
0.28015
 10
-1.911246
 20
0.280096
 10
-1.890502999999999
 20
0.280103
 10
-1.869818999999999
 20
0.280177
  0
LWPOLYLINE
  5
1C4
330
1E
100
AcDbEntity
  8
LAYER_1
  6
Continuous
 62
     7
100
AcDbPolyline
 90
        4
 70
     0
 43
0.0
 10
-1.869818999999999
 20
0.280177
 10
-1.849184999999999
 20
0.280317
 10
-1.828631
 20
0.280536
 10
-1.808165
 20
0.280831
  0
LWPOLYLINE
  5
1CA
330
1E
100
AcDbEntity
  8
LAYER_1
  6
Continuous
 62
     7
100
AcDbPolyline
 90
        4
 70
     0
 43
0.0
 10
-1.808165
 20
0.280831
 10
-1.787783
 20
0.281221
 10
-1.767495
 20
0.281704
 10
-1.747290999999999
 20
0.2822909999999999
  0
LWPOLYLINE
  5
1D0
330
1E
100
AcDbEntity
  8
LAYER_1
  6
Continuous
 62
     7
100
AcDbPolyline
 90
        4
 70
     0
 43
0.0
 10
-1.747290999999999
 20
0.2822909999999999
 10
-1.727188999999999
 20
0.282971
 10
-1.707172
 20
0.283769
 10
-1.687247999999999
 20
0.284693
  0
LWPOLYLINE
  5
1D6
330
1E
100
AcDbEntity
  8
LAYER_1
  6
Continuous
 62
     7
100
AcDbPolyline
 90
        4
 70
     0
 43
0.0
 10
-1.687247999999999
 20
0.284693
 10
-1.667393999999999
 20
0.285731
 10
-1.647545999999999
 20
0.286904
 10
-1.627609999999999
 20
0.28822
  0
LWPOLYLINE
  5
1DC
330
1E
100
AcDbEntity
  8
LAYER_1
  6
Continuous
 62
     7
100
AcDbPolyline
 90
        4
 70
     0
 43
0.0
 10
-1.627609999999999
 20
0.28822
 10
-1.607507
 20
0.289661
 10
-1.587246999999999
 20
0.291201
 10
-1.566858
 20
0.292791
  0
LWPOLYLINE
  5
1E2
330
1E
100
AcDbEntity
  8
LAYER_1
  6
Continuous
 62
     7
100
AcDbPolyline
 90
        4
 70
     0
 43
0.0
 10
-1.566858
 20
0.292791
 10
-1.546338999999999
 20
0.294378
 10
-1.525757999999999
 20
0.295932
 10
-1.505164999999999
 20
0.297429
  0
LWPOLYLINE
  5
1E8
330
1E
100
AcDbEntity
  8
LAYER_1
  6
Continuous
 62
     7
100
AcDbPolyline
 90
        4
 70
     0
 43
0.0
 10
-1.505164999999999
 20
0.297429
 10
-1.484595999999999
 20
0.298849
 10
-1.464036
 20
0.300192
 10
-1.443456999999999
 20
0.301457
  0
LWPOLYLINE
  5
1EE
330
1E
100
AcDbEntity
  8
LAYER_1
  6
Continuous
 62
     7
100
AcDbPolyline
 90
        4
 70
     0
 43
0.0
 10
-1.443456999999999
 20
0.301457
 10
-1.422837999999999
 20
0.302653
 10
-1.402174999999999
 20
0.303774
 10
-1.381456999999999
 20
0.304831
  0
LWPOLYLINE
  5
1F4
330
1E
100
AcDbEntity
  8
LAYER_1
  6
Continuous
 62
     7
100
AcDbPolyline
 90
        4
 70
     0
 43
0.0
 10
-1.381456999999999
 20
0.304831
 10
-1.360678
 20
0.305822
 10
-1.339845
 20
0.30676
 10
-1.318956999999999
 20
0.307638
  0
LWPOLYLINE
  5
1FA
330
1E
100
AcDbEntity
  8
LAYER_1
  6
Continuous
 62
     7
100
AcDbPolyline
 90
        4
 70
     0
 43
0.0
 10
-1.318956999999999
 20
0.307638
 10
-1.298
 20
0.308472
 10
-1.276991999999999
 20
0.309257
 10
-1.255940999999999
 20
0.31
  0
LWPOLYLINE
  5
200
330
1E
100
AcDbEntity
  8
LAYER_1
  6
Continuous
 62
     7
100
AcDbPolyline
 90
        4
 70
     0
 43
0.0
 10
-1.255940999999999
 20
0.31
 10
-1.234839999999999
 20
0.310695
 10
-1.213705999999999
 20
0.311365
 10
-1.192539
 20
0.312
  0
LWPOLYLINE
  5
206
330
1E
100
AcDbEntity
  8
LAYER_1
  6
Continuous
 62
     7
100
AcDbPolyline
 90
        4
 70
     0
 43
0.0
 10
-1.192539
 20
0.312
 10
-1.171348
 20
0.312596
 10
-1.150147999999999
 20
0.31316
 10
-1.128956999999999
 20
0.313693
  0
LWPOLYLINE
  5
20C
330
1E
100
AcDbEntity
  8
LAYER_1
  6
Continuous
 62
     7
100
AcDbPolyline
 90
        4
 70
     0
 43
0.0
 10
-1.128956999999999
 20
0.313693
 10
-1.107774
 20
0.314191
 10
-1.086604
 20
0.314659
 10
-1.065429
 20
0.315094
  0
LWPOLYLINE
  5
212
330
1E
100
AcDbEntity
  8
LAYER_1
  6
Continuous
 62
     7
100
AcDbPolyline
 90
        4
 70
     0
 43
0.0
 10
-1.065429
 20
0.315094
 10
-1.044237
 20
0.31549
 10
-1.023013999999999
 20
0.315847
 10
-1.001747999999999
 20
0.316177
  0
LWPOLYLINE
  5
218
330
1E
100
AcDbEntity
  8
LAYER_1
  6
Continuous
 62
     7
100
AcDbPolyline
 90
        4
 70
     0
 43
0.0
 10
-1.001747999999999
 20
0.316177
 10
-0.9804299999999999
 20
0.31649
 10
-0.9590620000000001
 20
0.316786
 10
-0.93765
 20
0.317067
  0
LWPOLYLINE
  5
21E
330
1E
100
AcDbEntity
  8
LAYER_1
  6
Continuous
 62
     7
100
AcDbPolyline
 90
        4
 70
     0
 43
0.0
 10
-0.93765
 20
0.317067
 10
-0.91622
 20
0.317327
 10
-0.8947659999999999
 20
0.317581
 10
-0.873291
 20
0.317831
  0
LWPOLYLINE
  5
224
330
1E
100
AcDbEntity
  8
LAYER_1
  6
Continuous
 62
     7
100
AcDbPolyline
 90
        4
 70
     0
 43
0.0
 10
-0.873291
 20
0.317831
 10
-0.8517969999999998
 20
0.318063
 10
-0.830297
 20
0.31829
 10
-0.8088029999999999
 20
0.3185119999999999
  0
LWPOLYLINE
  5
22A
330
1E
100
AcDbEntity
  8
LAYER_1
  6
Continuous
 62
     7
100
AcDbPolyline
 90
        4
 70
     0
 43
0.0
 10
-0.8088029999999999
 20
0.3185119999999999
 10
-0.7873160000000001
 20
0.318721
 10
-0.7658470000000001
 20
0.318937
 10
-0.744386
 20
0.319165
  0
LWPOLYLINE
  5
230
330
1E
100
AcDbEntity
  8
LAYER_1
  6
Continuous
 62
     7
100
AcDbPolyline
 90
        4
 70
     0
 43
0.0
 10
-0.744386
 20
0.319165
 10
-0.72295
 20
0.319392
 10
-0.701545
 20
0.319631
 10
-0.6801930000000001
 20
0.319886
  0
LWPOLYLINE
  5
236
330
1E
100
AcDbEntity
  8
LAYER_1
  6
Continuous
 62
     7
100
AcDbPolyline
 90
        4
 70
     0
 43
0.0
 10
-0.6801930000000001
 20
0.319886
 10
-0.6590340000000001
 20
0.320163
 10
-0.63869
 20
0.320429
 10
-0.6199020000000001
 20
0.320677
  0
LWPOLYLINE
  5
23C
330
1E
100
AcDbEntity
  8
LAYER_1
  6
Continuous
 62
     7
100
AcDbPolyline
 90
        4
 70
     0
 43
0.0
 10
-0.6199020000000001
 20
0.320677
 10
-0.603437
 20
0.320885
 10
-0.590096
 20
0.321047
 10
-0.5807050000000001
 20
0.32115
  0
LWPOLYLINE
  5
242
330
1E
100
AcDbEntity
  8
LAYER_1
  6
Continuous
 62
     7
100
AcDbPolyline
 90
        4
 70
     0
 43
0.0
 10
-0.5807050000000001
 20
0.32115
 10
-0.5756740000000001
 20
0.321219
 10
-0.57382
 20
0.321244
 10
-0.573555
 20
0.321248
  0
LWPOLYLINE
  5
24F
330
1E
100
AcDbEntity
  8
LAYER_1
  6
Continuous
 62
     7
100
AcDbPolyline
 90
        2
 70
     0
 43
0.0
 10
-0.9877909999999999
 20
2.445845999999999
 10
-1.571054999999999
 20
2.445845999999999
  0
LWPOLYLINE
  5
253
330
1E
100
AcDbEntity
  8
LAYER_1
  6
Continuous
 62
     7
100
AcDbPolyline
 90
        2
 70
     0
 43
0.0
 10
-0.9386499999999999
 20
0.347094
 10
-1.096748
 20
0.347094
  0
LWPOLYLINE
  5
257
330
1E
100
AcDbEntity
  8
LAYER_1
  6
Continuous
 62
     7
100
AcDbPolyline
 90
        3
 70
     0
 43
0.0
 10
-1.095929
 20
0.347083
 10
-1.135248
 20
2.445858
 10
-1.222901999999999
 20
4.8125
  0
LWPOLYLINE
  5
25C
330
1E
100
AcDbEntity
  8
LAYER_1
  6
Continuous
 62
     7
100
AcDbPolyline
 90
        4
 70
     0
 43
0.0
 10
-1.088567
 20
4.017066999999999
 10
-1.088859999999999
 20
4.020344
 10
-1.090907999999999
 20
4.043280999999999
 10
-1.096469
 20
4.105539
  0
LWPOLYLINE
  5
262
330
1E
100
AcDbEntity
  8
LAYER_1
  6
Continuous
 62
     7
100
AcDbPolyline
 90
        6
 70
     0
 43
0.0
 10
-1.096469
 20
4.105539
 10
-1.102076
 20
4.168031
 10
-1.108977
 20
4.244462999999999
 10
-1.116570999999999
 20
4.327551999999999
 10
-1.124255
 20
4.410010999999999
 10
-1.131429
 20
4.484555
  0
LWPOLYLINE
  5
26A
330
1E
100
AcDbEntity
  8
LAYER_1
  6
Continuous
 62
     7
100
AcDbPolyline
 90
        4
 70
     0
 43
0.0
 10
-1.131429
 20
4.484555
 10
-1.141243
 20
4.578911999999999
 10
-1.148965
 20
4.642323999999999
 10
-1.155594
 20
4.686082999999999
  0
LWPOLYLINE
  5
270
330
1E
100
AcDbEntity
  8
LAYER_1
  6
Continuous
 62
     7
100
AcDbPolyline
 90
        4
 70
     0
 43
0.0
 10
-1.155594
 20
4.686082999999999
 10
-1.161945999999999
 20
4.719789999999999
 10
-1.168071999999999
 20
4.746396999999999
 10
-1.173830999999999
 20
4.767176999999999
  0
LWPOLYLINE
  5
276
330
1E
100
AcDbEntity
  8
LAYER_1
  6
Continuous
 62
     7
100
AcDbPolyline
 90
        4
 70
     0
 43
0.0
 10
-1.173830999999999
 20
4.767176999999999
 10
-1.179119
 20
4.783262999999999
 10
-1.183964999999999
 20
4.795212
 10
-1.188429
 20
4.803429
  0
LWPOLYLINE
  5
27C
330
1E
100
AcDbEntity
  8
LAYER_1
  6
Continuous
 62
     7
100
AcDbPolyline
 90
        4
 70
     0
 43
0.0
 10
-1.188429
 20
4.803429
 10
-1.192657999999999
 20
4.808405999999999
 10
-1.197082999999999
 20
4.810985999999999
 10
-1.20222
 20
4.812094
  0
LWPOLYLINE
  5
282
330
1E
100
AcDbEntity
  8
LAYER_1
  6
Continuous
 62
     7
100
AcDbPolyline
 90
        4
 70
     0
 43
0.0
 10
-1.20222
 20
4.812094
 10
-1.208295
 20
4.812534999999999
 10
-1.214354
 20
4.812626999999999
 10
-1.219149999999999
 20
4.812566999999999
  0
LWPOLYLINE
  5
288
330
1E
100
AcDbEntity
  8
LAYER_1
  6
Continuous
 62
     7
100
AcDbPolyline
 90
        4
 70
     0
 43
0.0
 10
-1.219149999999999
 20
4.812566999999999
 10
-1.221797999999999
 20
4.81252
 10
-1.222774
 20
4.812501999999999
 10
-1.222912999999999
 20
4.8125
  0
LWPOLYLINE
  5
28E
330
1E
100
AcDbEntity
  8
LAYER_1
  6
Continuous
 62
     7
100
AcDbPolyline
 90
        3
 70
     0
 43
0.0
 10
-0.9386379999999999
 20
0.347083
 10
-0.9877909999999999
 20
2.445845999999999
 10
-1.088554999999999
 20
4.012957
  0
LWPOLYLINE
  5
293
330
1E
100
AcDbEntity
  8
LAYER_1
  6
DASHED
 62
     7
100
AcDbPolyline
 90
        4
 70
     0
 43
0.0
 10
-1.448193
 20
4.493012
 10
-1.409677
 20
4.814137999999999
 10
-1.160649999999999
 20
4.814137999999999
 10
-1.138527999999999
 20
4.575747999999999
  0
LWPOLYLINE
  5
299
330
1E
100
AcDbEntity
  8
LAYER_1
  6
Continuous
 62
     7
100
AcDbPolyline
 90
        4
 70
     0
 43
0.0
 10
-1.504704999999999
 20
4.015412999999999
 10
-1.504395999999999
 20
4.018082999999999
 10
-1.502236
 20
4.036772
 10
-1.496373999999999
 20
4.0875
  0
LWPOLYLINE
  5
29F
330
1E
100
AcDbEntity
  8
LAYER_1
  6
Continuous
 62
     7
100
AcDbPolyline
 90
        5
 70
     0
 43
0.0
 10
-1.496373999999999
 20
4.0875
 10
-1.488752999999999
 20
4.15327
 10
-1.479105999999999
 20
4.235166
 10
-1.468536
 20
4.322284999999999
 10
-1.45815
 20
4.403719999999999
  0
LWPOLYLINE
  5
2A6
330
1E
100
AcDbEntity
  8
LAYER_1
  6
Continuous
 62
     7
100
AcDbPolyline
 90
        4
 70
     0
 43
0.0
 10
-1.45815
 20
4.403719999999999
 10
-1.445771999999999
 20
4.490426
 10
-1.434066
 20
4.55675
 10
-1.421429
 20
4.611791
  0
LWPOLYLINE
  5
2AC
330
1E
100
AcDbEntity
  8
LAYER_1
  6
Continuous
 62
     7
100
AcDbPolyline
 90
        4
 70
     0
 43
0.0
 10
-1.421429
 20
4.611791
 10
-1.406671
 20
4.662587
 10
-1.390433999999999
 20
4.707951999999999
 10
-1.373776
 20
4.744638
  0
LWPOLYLINE
  5
2B2
330
1E
100
AcDbEntity
  8
LAYER_1
  6
Continuous
 62
     7
100
AcDbPolyline
 90
        4
 70
     0
 43
0.0
 10
-1.373776
 20
4.744638
 10
-1.357636
 20
4.770427999999999
 10
-1.342530999999999
 20
4.787208999999999
 10
-1.328845999999999
 20
4.797886
  0
LWPOLYLINE
  5
2B8
330
1E
100
AcDbEntity
  8
LAYER_1
  6
Continuous
 62
     7
100
AcDbPolyline
 90
        4
 70
     0
 43
0.0
 10
-1.328845999999999
 20
4.797886
 10
-1.316567
 20
4.804987
 10
-1.303916
 20
4.80948
 10
-1.28872
 20
4.811941
  0
LWPOLYLINE
  5
2BE
330
1E
100
AcDbEntity
  8
LAYER_1
  6
Continuous
 62
     7
100
AcDbPolyline
 90
        4
 70
     0
 43
0.0
 10
-1.28872
 20
4.811941
 10
-1.269859
 20
4.812945
 10
-1.250544
 20
4.813037999999999
 10
-1.235055
 20
4.812763999999999
  0
LWPOLYLINE
  5
2C4
330
1E
100
AcDbEntity
  8
LAYER_1
  6
Continuous
 62
     7
100
AcDbPolyline
 90
        4
 70
     0
 43
0.0
 10
-1.235055
 20
4.812763999999999
 10
-1.226503
 20
4.812578
 10
-1.223351999999999
 20
4.812509999999999
 10
-1.222901999999999
 20
4.8125
  0
LWPOLYLINE
  5
2CA
330
1E
100
AcDbEntity
  8
LAYER_1
  6
DASHED
 62
     7
100
AcDbPolyline
 90
        2
 70
     0
 43
0.0
 10
-1.504704999999999
 20
4.013803
 10
-1.088554999999999
 20
4.013803
  0
LWPOLYLINE
  5
2CE
330
1E
100
AcDbEntity
  8
LAYER_1
  6
Continuous
 62
     7
100
AcDbPolyline
 90
        2
 70
     0
 43
0.0
 10
-3.493558999999999
 20
1.012177
 10
-3.440491999999999
 20
1.012177
  0
LWPOLYLINE
  5
2D2
330
1E
100
AcDbEntity
  8
LAYER_1
  6
Continuous
 62
     7
100
AcDbPolyline
 90
        2
 70
     0
 43
0.0
 10
-3.493558999999999
 20
1.679011999999999
 10
-3.440491999999999
 20
1.679011999999999
  0
LWPOLYLINE
  5
2D6
330
1E
100
AcDbEntity
  8
LAYER_1
  6
Continuous
 62
     7
100
AcDbPolyline
 90
        2
 70
     0
 43
0.0
 10
-3.471873999999999
 20
0.6787479999999999
 10
-3.438708999999999
 20
0.6787479999999999
  0
LWPOLYLINE
  5
2DA
330
1E
100
AcDbEntity
  8
LAYER_1
  6
Continuous
 62
     7
100
AcDbPolyline
 90
        2
 70
     0
 43
0.0
 10
-3.471873999999999
 20
1.343845999999999
 10
-3.438708999999999
 20
1.343845999999999
  0
LWPOLYLINE
  5
2DE
330
1E
100
AcDbEntity
  8
LAYER_1
  6
Continuous
 62
     7
100
AcDbPolyline
 90
        2
 70
     0
 43
0.0
 10
-3.451925
 20
0.4116770000000001
 10
-3.438657
 20
0.4116770000000001
  0
LWPOLYLINE
  5
2E2
330
1E
100
AcDbEntity
  8
LAYER_1
  6
Continuous
 62
     7
100
AcDbPolyline
 90
        2
 70
     0
 43
0.0
 10
-3.451925
 20
0.4780120000000001
 10
-3.438657
 20
0.4780120000000001
  0
LWPOLYLINE
  5
2E6
330
1E
100
AcDbEntity
  8
LAYER_1
  6
Continuous
 62
     7
100
AcDbPolyline
 90
        2
 70
     0
 43
0.0
 10
-3.451925
 20
0.544346
 10
-3.438657
 20
0.544346
  0
LWPOLYLINE
  5
2EA
330
1E
100
AcDbEntity
  8
LAYER_1
  6
Continuous
 62
     7
100
AcDbPolyline
 90
        2
 70
     0
 43
0.0
 10
-3.451925
 20
0.610677
 10
-3.438657
 20
0.610677
  0
LWPOLYLINE
  5
2EE
330
1E
100
AcDbEntity
  8
LAYER_1
  6
Continuous
 62
     7
100
AcDbPolyline
 90
        2
 70
     0
 43
0.0
 10
-3.451925
 20
0.745083
 10
-3.438657
 20
0.745083
  0
LWPOLYLINE
  5
2F2
330
1E
100
AcDbEntity
  8
LAYER_1
  6
Continuous
 62
     7
100
AcDbPolyline
 90
        2
 70
     0
 43
0.0
 10
-3.451925
 20
0.811429
 10
-3.438657
 20
0.811429
  0
LWPOLYLINE
  5
2F6
330
1E
100
AcDbEntity
  8
LAYER_1
  6
Continuous
 62
     7
100
AcDbPolyline
 90
        2
 70
     0
 43
0.0
 10
-3.451925
 20
0.8777639999999999
 10
-3.438657
 20
0.8777639999999999
  0
LWPOLYLINE
  5
2FA
330
1E
100
AcDbEntity
  8
LAYER_1
  6
Continuous
 62
     7
100
AcDbPolyline
 90
        2
 70
     0
 43
0.0
 10
-3.451925
 20
0.9440940000000001
 10
-3.438657
 20
0.9440940000000001
  0
LWPOLYLINE
  5
2FE
330
1E
100
AcDbEntity
  8
LAYER_1
  6
Continuous
 62
     7
100
AcDbPolyline
 90
        2
 70
     0
 43
0.0
 10
-3.451925
 20
1.0785
 10
-3.438657
 20
1.0785
  0
LWPOLYLINE
  5
302
330
1E
100
AcDbEntity
  8
LAYER_1
  6
Continuous
 62
     7
100
AcDbPolyline
 90
        2
 70
     0
 43
0.0
 10
-3.451925
 20
1.144845999999999
 10
-3.438657
 20
1.144845999999999
  0
LWPOLYLINE
  5
306
330
1E
100
AcDbEntity
  8
LAYER_1
  6
Continuous
 62
     7
100
AcDbPolyline
 90
        2
 70
     0
 43
0.0
 10
-3.451925
 20
1.211176999999999
 10
-3.438657
 20
1.211176999999999
  0
LWPOLYLINE
  5
30A
330
1E
100
AcDbEntity
  8
LAYER_1
  6
Continuous
 62
     7
100
AcDbPolyline
 90
        2
 70
     0
 43
0.0
 10
-3.451925
 20
1.277511999999999
 10
-3.438657
 20
1.277511999999999
  0
LWPOLYLINE
  5
30E
330
1E
100
AcDbEntity
  8
LAYER_1
  6
Continuous
 62
     7
100
AcDbPolyline
 90
        2
 70
     0
 43
0.0
 10
-3.451925
 20
1.410177
 10
-3.438657
 20
1.410177
  0
LWPOLYLINE
  5
312
330
1E
100
AcDbEntity
  8
LAYER_1
  6
Continuous
 62
     7
100
AcDbPolyline
 90
        2
 70
     0
 43
0.0
 10
-3.451925
 20
1.478247999999999
 10
-3.438657
 20
1.478247999999999
  0
LWPOLYLINE
  5
316
330
1E
100
AcDbEntity
  8
LAYER_1
  6
Continuous
 62
     7
100
AcDbPolyline
 90
        2
 70
     0
 43
0.0
 10
-3.451925
 20
1.544594
 10
-3.438657
 20
1.544594
  0
LWPOLYLINE
  5
31A
330
1E
100
AcDbEntity
  8
LAYER_1
  6
Continuous
 62
     7
100
AcDbPolyline
 90
        2
 70
     0
 43
0.0
 10
-3.451925
 20
1.610929
 10
-3.438657
 20
1.610929
  0
TEXT
  5
31E
330
1E
100
AcDbEntity
  8
LAYER_1
 62
     7
100
AcDbText
 10
-3.387401999999999
 20
0.9788579999999999
 30
0.0
 40
0.039732
  1
10
 50
90.0
 41
0.7828124107193872
  7
SN0
 72
     5
 11
-3.387401999999999
 21
1.033657999999999
 31
0.0
100
AcDbText
  0
LWPOLYLINE
  5
31F
330
1E
100
AcDbEntity
  8
LAYER_1
  6
Continuous
 62
     7
100
AcDbPolyline
 90
        2
 70
     0
 43
0.0
 10
-3.493558999999999
 20
2.345291
 10
-3.440491999999999
 20
2.345291
  0
LWPOLYLINE
  5
323
330
1E
100
AcDbEntity
  8
LAYER_1
  6
Continuous
 62
     7
100
AcDbPolyline
 90
        2
 70
     0
 43
0.0
 10
-3.471873999999999
 20
2.010121999999999
 10
-3.438708999999999
 20
2.010121999999999
  0
LWPOLYLINE
  5
327
330
1E
100
AcDbEntity
  8
LAYER_1
  6
Continuous
 62
     7
100
AcDbPolyline
 90
        2
 70
     0
 43
0.0
 10
-3.451925
 20
1.744791
 10
-3.438657
 20
1.744791
  0
LWPOLYLINE
  5
32B
330
1E
100
AcDbEntity
  8
LAYER_1
  6
Continuous
 62
     7
100
AcDbPolyline
 90
        2
 70
     0
 43
0.0
 10
-3.451925
 20
1.811122
 10
-3.438657
 20
1.811122
  0
LWPOLYLINE
  5
32F
330
1E
100
AcDbEntity
  8
LAYER_1
  6
Continuous
 62
     7
100
AcDbPolyline
 90
        2
 70
     0
 43
0.0
 10
-3.451925
 20
1.877456999999999
 10
-3.438657
 20
1.877456999999999
  0
LWPOLYLINE
  5
333
330
1E
100
AcDbEntity
  8
LAYER_1
  6
Continuous
 62
     7
100
AcDbPolyline
 90
        2
 70
     0
 43
0.0
 10
-3.451925
 20
1.943802999999999
 10
-3.438657
 20
1.943802999999999
  0
LWPOLYLINE
  5
337
330
1E
100
AcDbEntity
  8
LAYER_1
  6
Continuous
 62
     7
100
AcDbPolyline
 90
        2
 70
     0
 43
0.0
 10
-3.451925
 20
2.076456999999999
 10
-3.438657
 20
2.076456999999999
  0
LWPOLYLINE
  5
33B
330
1E
100
AcDbEntity
  8
LAYER_1
  6
Continuous
 62
     7
100
AcDbPolyline
 90
        2
 70
     0
 43
0.0
 10
-3.451925
 20
2.144538999999999
 10
-3.438657
 20
2.144538999999999
  0
LWPOLYLINE
  5
33F
330
1E
100
AcDbEntity
  8
LAYER_1
  6
Continuous
 62
     7
100
AcDbPolyline
 90
        2
 70
     0
 43
0.0
 10
-3.451925
 20
2.210874
 10
-3.438657
 20
2.210874
  0
LWPOLYLINE
  5
343
330
1E
100
AcDbEntity
  8
LAYER_1
  6
Continuous
 62
     7
100
AcDbPolyline
 90
        2
 70
     0
 43
0.0
 10
-3.451925
 20
2.277204999999999
 10
-3.438657
 20
2.277204999999999
  0
TEXT
  5
347
330
1E
100
AcDbEntity
  8
LAYER_1
 62
     7
100
AcDbText
 10
-3.387401999999999
 20
1.645693
 30
0.0
 40
0.039732
  1
20
 50
90.0
 41
0.7828124107193872
  7
SN0
 72
     5
 11
-3.387401999999999
 21
1.700492999999999
 31
0.0
100
AcDbText
  0
LWPOLYLINE
  5
348
330
1E
100
AcDbEntity
  8
LAYER_1
  6
Continuous
 62
     7
100
AcDbPolyline
 90
        2
 70
     0
 43
0.0
 10
-3.493558999999999
 20
3.011775999999999
 10
-3.440491999999999
 20
3.011775999999999
  0
LWPOLYLINE
  5
34C
330
1E
100
AcDbEntity
  8
LAYER_1
  6
Continuous
 62
     7
100
AcDbPolyline
 90
        2
 70
     0
 43
0.0
 10
-3.471873999999999
 20
2.676622
 10
-3.438708999999999
 20
2.676622
  0
LWPOLYLINE
  5
350
330
1E
100
AcDbEntity
  8
LAYER_1
  6
Continuous
 62
     7
100
AcDbPolyline
 90
        2
 70
     0
 43
0.0
 10
-3.451925
 20
2.411275999999999
 10
-3.438657
 20
2.411275999999999
  0
LWPOLYLINE
  5
354
330
1E
100
AcDbEntity
  8
LAYER_1
  6
Continuous
 62
     7
100
AcDbPolyline
 90
        2
 70
     0
 43
0.0
 10
-3.451925
 20
2.477622
 10
-3.438657
 20
2.477622
  0
LWPOLYLINE
  5
358
330
1E
100
AcDbEntity
  8
LAYER_1
  6
Continuous
 62
     7
100
AcDbPolyline
 90
        2
 70
     0
 43
0.0
 10
-3.451925
 20
2.543956999999999
 10
-3.438657
 20
2.543956999999999
  0
LWPOLYLINE
  5
35C
330
1E
100
AcDbEntity
  8
LAYER_1
  6
Continuous
 62
     7
100
AcDbPolyline
 90
        2
 70
     0
 43
0.0
 10
-3.451925
 20
2.610291
 10
-3.438657
 20
2.610291
  0
LWPOLYLINE
  5
360
330
1E
100
AcDbEntity
  8
LAYER_1
  6
Continuous
 62
     7
100
AcDbPolyline
 90
        2
 70
     0
 43
0.0
 10
-3.451925
 20
2.742957
 10
-3.438657
 20
2.742957
  0
LWPOLYLINE
  5
364
330
1E
100
AcDbEntity
  8
LAYER_1
  6
Continuous
 62
     7
100
AcDbPolyline
 90
        2
 70
     0
 43
0.0
 10
-3.451925
 20
2.811039
 10
-3.438657
 20
2.811039
  0
LWPOLYLINE
  5
368
330
1E
100
AcDbEntity
  8
LAYER_1
  6
Continuous
 62
     7
100
AcDbPolyline
 90
        2
 70
     0
 43
0.0
 10
-3.451925
 20
2.877374
 10
-3.438657
 20
2.877374
  0
LWPOLYLINE
  5
36C
330
1E
100
AcDbEntity
  8
LAYER_1
  6
Continuous
 62
     7
100
AcDbPolyline
 90
        2
 70
     0
 43
0.0
 10
-3.451925
 20
2.943704999999999
 10
-3.438657
 20
2.943704999999999
  0
TEXT
  5
370
330
1E
100
AcDbEntity
  8
LAYER_1
 62
     7
100
AcDbText
 10
-3.387401999999999
 20
2.311968999999999
 30
0.0
 40
0.039732
  1
30
 50
90.0
 41
0.7828124107193837
  7
SN0
 72
     5
 11
-3.387401999999999
 21
2.366768999999999
 31
0.0
100
AcDbText
  0
LWPOLYLINE
  5
371
330
1E
100
AcDbEntity
  8
LAYER_1
  6
Continuous
 62
     7
100
AcDbPolyline
 90
        2
 70
     0
 43
0.0
 10
-3.493558999999999
 20
0.345693
 10
-3.440491999999999
 20
0.345693
  0
LWPOLYLINE
  5
375
330
1E
100
AcDbEntity
  8
LAYER_1
  6
Continuous
 62
     7
100
AcDbPolyline
 90
        2
 70
     0
 43
0.0
 10
-3.493558999999999
 20
3.678248
 10
-3.440491999999999
 20
3.678248
  0
LWPOLYLINE
  5
379
330
1E
100
AcDbEntity
  8
LAYER_1
  6
Continuous
 62
     7
100
AcDbPolyline
 90
        2
 70
     0
 43
0.0
 10
-3.471873999999999
 20
3.343094
 10
-3.438708999999999
 20
3.343094
  0
LWPOLYLINE
  5
37D
330
1E
100
AcDbEntity
  8
LAYER_1
  6
Continuous
 62
     7
100
AcDbPolyline
 90
        2
 70
     0
 43
0.0
 10
-3.451925
 20
3.077763999999999
 10
-3.438657
 20
3.077763999999999
  0
LWPOLYLINE
  5
381
330
1E
100
AcDbEntity
  8
LAYER_1
  6
Continuous
 62
     7
100
AcDbPolyline
 90
        2
 70
     0
 43
0.0
 10
-3.451925
 20
3.144093999999999
 10
-3.438657
 20
3.144093999999999
  0
LWPOLYLINE
  5
385
330
1E
100
AcDbEntity
  8
LAYER_1
  6
Continuous
 62
     7
100
AcDbPolyline
 90
        2
 70
     0
 43
0.0
 10
-3.451925
 20
3.210428999999999
 10
-3.438657
 20
3.210428999999999
  0
LWPOLYLINE
  5
389
330
1E
100
AcDbEntity
  8
LAYER_1
  6
Continuous
 62
     7
100
AcDbPolyline
 90
        2
 70
     0
 43
0.0
 10
-3.451925
 20
3.276764
 10
-3.438657
 20
3.276764
  0
LWPOLYLINE
  5
38D
330
1E
100
AcDbEntity
  8
LAYER_1
  6
Continuous
 62
     7
100
AcDbPolyline
 90
        2
 70
     0
 43
0.0
 10
-3.451925
 20
3.409429
 10
-3.438657
 20
3.409429
  0
LWPOLYLINE
  5
391
330
1E
100
AcDbEntity
  8
LAYER_1
  6
Continuous
 62
     7
100
AcDbPolyline
 90
        2
 70
     0
 43
0.0
 10
-3.451925
 20
3.477512
 10
-3.438657
 20
3.477512
  0
LWPOLYLINE
  5
395
330
1E
100
AcDbEntity
  8
LAYER_1
  6
Continuous
 62
     7
100
AcDbPolyline
 90
        2
 70
     0
 43
0.0
 10
-3.451925
 20
3.543845999999999
 10
-3.438657
 20
3.543845999999999
  0
LWPOLYLINE
  5
399
330
1E
100
AcDbEntity
  8
LAYER_1
  6
Continuous
 62
     7
100
AcDbPolyline
 90
        2
 70
     0
 43
0.0
 10
-3.451925
 20
3.610176999999999
 10
-3.438657
 20
3.610176999999999
  0
LWPOLYLINE
  5
39D
330
1E
100
AcDbEntity
  8
LAYER_1
  6
Continuous
 62
     7
100
AcDbPolyline
 90
        2
 70
     0
 43
0.0
 10
-3.493558999999999
 20
4.344748
 10
-3.440491999999999
 20
4.344748
  0
LWPOLYLINE
  5
3A1
330
1E
100
AcDbEntity
  8
LAYER_1
  6
Continuous
 62
     7
100
AcDbPolyline
 90
        2
 70
     0
 43
0.0
 10
-3.471873999999999
 20
4.009593999999999
 10
-3.438708999999999
 20
4.009593999999999
  0
LWPOLYLINE
  5
3A5
330
1E
100
AcDbEntity
  8
LAYER_1
  6
Continuous
 62
     7
100
AcDbPolyline
 90
        2
 70
     0
 43
0.0
 10
-3.451925
 20
3.744248
 10
-3.438657
 20
3.744248
  0
LWPOLYLINE
  5
3A9
330
1E
100
AcDbEntity
  8
LAYER_1
  6
Continuous
 62
     7
100
AcDbPolyline
 90
        2
 70
     0
 43
0.0
 10
-3.451925
 20
3.810583
 10
-3.438657
 20
3.810583
  0
LWPOLYLINE
  5
3AD
330
1E
100
AcDbEntity
  8
LAYER_1
  6
Continuous
 62
     7
100
AcDbPolyline
 90
        2
 70
     0
 43
0.0
 10
-3.451925
 20
3.876929
 10
-3.438657
 20
3.876929
  0
LWPOLYLINE
  5
3B1
330
1E
100
AcDbEntity
  8
LAYER_1
  6
Continuous
 62
     7
100
AcDbPolyline
 90
        2
 70
     0
 43
0.0
 10
-3.451925
 20
3.943264
 10
-3.438657
 20
3.943264
  0
LWPOLYLINE
  5
3B5
330
1E
100
AcDbEntity
  8
LAYER_1
  6
Continuous
 62
     7
100
AcDbPolyline
 90
        2
 70
     0
 43
0.0
 10
-3.451925
 20
4.075929
 10
-3.438657
 20
4.075929
  0
LWPOLYLINE
  5
3B9
330
1E
100
AcDbEntity
  8
LAYER_1
  6
Continuous
 62
     7
100
AcDbPolyline
 90
        2
 70
     0
 43
0.0
 10
-3.451925
 20
4.144
 10
-3.438657
 20
4.144
  0
LWPOLYLINE
  5
3BD
330
1E
100
AcDbEntity
  8
LAYER_1
  6
Continuous
 62
     7
100
AcDbPolyline
 90
        2
 70
     0
 43
0.0
 10
-3.451925
 20
4.210345999999999
 10
-3.438657
 20
4.210345999999999
  0
LWPOLYLINE
  5
3C1
330
1E
100
AcDbEntity
  8
LAYER_1
  6
Continuous
 62
     7
100
AcDbPolyline
 90
        2
 70
     0
 43
0.0
 10
-3.451925
 20
4.276676999999999
 10
-3.438657
 20
4.276676999999999
  0
TEXT
  5
3C5
330
1E
100
AcDbEntity
  8
LAYER_1
 62
     7
100
AcDbText
 10
-3.387401999999999
 20
2.978469
 30
0.0
 40
0.039732
  1
40
 50
90.0
 41
0.7828124107193837
  7
SN0
 72
     5
 11
-3.387401999999999
 21
3.033268999999999
 31
0.0
100
AcDbText
  0
TEXT
  5
3C6
330
1E
100
AcDbEntity
  8
LAYER_1
 62
     7
100
AcDbText
 10
-3.387401999999999
 20
3.20676
 30
0.0
 40
0.039732
  1
50
 50
90.0
 41
0.7828124107193838
  7
SN0
 72
     5
 11
-3.387401999999999
 21
3.261559999999999
 31
0.0
100
AcDbText
  0
LWPOLYLINE
  5
3C7
330
1E
100
AcDbEntity
  8
LAYER_1
  6
Continuous
 62
     7
100
AcDbPolyline
 90
        4
 70
     0
 43
0.0
 10
-1.284263999999999
 20
-4.119408999999999
 10
-1.284113999999999
 20
-4.119422
 10
-1.283069
 20
-4.119511
 10
-1.280232
 20
-4.119752
  0
LWPOLYLINE
  5
3CD
330
1E
100
AcDbEntity
  8
LAYER_1
  6
Continuous
 62
     7
100
AcDbPolyline
 90
        4
 70
     0
 43
0.0
 10
-1.280232
 20
-4.119752
 10
-1.274934999999999
 20
-4.120185
 10
-1.267337999999999
 20
-4.120708
 10
-1.257846
 20
-4.121184999999999
  0
LWPOLYLINE
  5
3D3
330
1E
100
AcDbEntity
  8
LAYER_1
  6
Continuous
 62
     7
100
AcDbPolyline
 90
        4
 70
     0
 43
0.0
 10
-1.257846
 20
-4.121184999999999
 10
-1.246941
 20
-4.121502999999999
 10
-1.235445
 20
-4.121622
 10
-1.224264
 20
-4.121527999999999
  0
LWPOLYLINE
  5
3D9
330
1E
100
AcDbEntity
  8
LAYER_1
  6
Continuous
 62
     7
100
AcDbPolyline
 90
        4
 70
     0
 43
0.0
 10
-1.224264
 20
-4.121527999999999
 10
-1.214252
 20
-4.121232
 10
-1.20605
 20
-4.120846
 10
-1.200231999999999
 20
-4.120508
  0
LWPOLYLINE
  5
3DF
330
1E
100
AcDbEntity
  8
LAYER_1
  6
Continuous
 62
     7
100
AcDbPolyline
 90
        4
 70
     0
 43
0.0
 10
-1.200231999999999
 20
-4.120508
 10
-1.197106999999999
 20
-4.120311
 10
-1.195956
 20
-4.120238999999999
 10
-1.195791
 20
-4.120228
  0
LWPOLYLINE
  5
3E5
330
1E
100
AcDbEntity
  8
LAYER_1
  6
Continuous
 62
     7
100
AcDbPolyline
 90
        2
 70
     0
 43
0.0
 10
-1.902331
 20
1.797984
 10
-1.902331
 20
1.744913
  0
LWPOLYLINE
  5
3E9
330
1E
100
AcDbEntity
  8
LAYER_1
  6
Continuous
 62
     7
100
AcDbPolyline
 90
        2
 70
     0
 43
0.0
 10
-1.235484
 20
1.797984
 10
-1.235484
 20
1.744913
  0
LWPOLYLINE
  5
3ED
330
1E
100
AcDbEntity
  8
LAYER_1
  6
Continuous
 62
     7
100
AcDbPolyline
 90
        2
 70
     0
 43
0.0
 10
-2.235748
 20
1.776302999999999
 10
-2.235748
 20
1.743138
  0
LWPOLYLINE
  5
3F1
330
1E
100
AcDbEntity
  8
LAYER_1
  6
Continuous
 62
     7
100
AcDbPolyline
 90
        2
 70
     0
 43
0.0
 10
-1.570664999999999
 20
1.776302999999999
 10
-1.570664999999999
 20
1.743138
  0
LWPOLYLINE
  5
3F5
330
1E
100
AcDbEntity
  8
LAYER_1
  6
Continuous
 62
     7
100
AcDbPolyline
 90
        2
 70
     0
 43
0.0
 10
-2.502831
 20
1.756358
 10
-2.502831
 20
1.743093999999999
  0
LWPOLYLINE
  5
3F9
330
1E
100
AcDbEntity
  8
LAYER_1
  6
Continuous
 62
     7
100
AcDbPolyline
 90
        2
 70
     0
 43
0.0
 10
-2.436484
 20
1.756358
 10
-2.436484
 20
1.743093999999999
  0
LWPOLYLINE
  5
3FD
330
1E
100
AcDbEntity
  8
LAYER_1
  6
Continuous
 62
     7
100
AcDbPolyline
 90
        2
 70
     0
 43
0.0
 10
-2.370165
 20
1.756358
 10
-2.370165
 20
1.743093999999999
  0
LWPOLYLINE
  5
401
330
1E
100
AcDbEntity
  8
LAYER_1
  6
Continuous
 62
     7
100
AcDbPolyline
 90
        2
 70
     0
 43
0.0
 10
-2.303818999999999
 20
1.756358
 10
-2.303818999999999
 20
1.743093999999999
  0
LWPOLYLINE
  5
405
330
1E
100
AcDbEntity
  8
LAYER_1
  6
Continuous
 62
     7
100
AcDbPolyline
 90
        2
 70
     0
 43
0.0
 10
-2.169413
 20
1.756358
 10
-2.169413
 20
1.743093999999999
  0
LWPOLYLINE
  5
409
330
1E
100
AcDbEntity
  8
LAYER_1
  6
Continuous
 62
     7
100
AcDbPolyline
 90
        2
 70
     0
 43
0.0
 10
-2.103066999999999
 20
1.756358
 10
-2.103066999999999
 20
1.743093999999999
  0
LWPOLYLINE
  5
40D
330
1E
100
AcDbEntity
  8
LAYER_1
  6
Continuous
 62
     7
100
AcDbPolyline
 90
        2
 70
     0
 43
0.0
 10
-2.036731999999999
 20
1.756358
 10
-2.036731999999999
 20
1.743093999999999
  0
LWPOLYLINE
  5
411
330
1E
100
AcDbEntity
  8
LAYER_1
  6
Continuous
 62
     7
100
AcDbPolyline
 90
        2
 70
     0
 43
0.0
 10
-1.970413
 20
1.756358
 10
-1.970413
 20
1.743093999999999
  0
LWPOLYLINE
  5
415
330
1E
100
AcDbEntity
  8
LAYER_1
  6
Continuous
 62
     7
100
AcDbPolyline
 90
        2
 70
     0
 43
0.0
 10
-1.836
 20
1.756358
 10
-1.836
 20
1.743093999999999
  0
LWPOLYLINE
  5
419
330
1E
100
AcDbEntity
  8
LAYER_1
  6
Continuous
 62
     7
100
AcDbPolyline
 90
        2
 70
     0
 43
0.0
 10
-1.769664999999999
 20
1.756358
 10
-1.769664999999999
 20
1.743093999999999
  0
LWPOLYLINE
  5
41D
330
1E
100
AcDbEntity
  8
LAYER_1
  6
Continuous
 62
     7
100
AcDbPolyline
 90
        2
 70
     0
 43
0.0
 10
-1.703318999999999
 20
1.756358
 10
-1.703318999999999
 20
1.743093999999999
  0
LWPOLYLINE
  5
421
330
1E
100
AcDbEntity
  8
LAYER_1
  6
Continuous
 62
     7
100
AcDbPolyline
 90
        2
 70
     0
 43
0.0
 10
-1.636983999999999
 20
1.756358
 10
-1.636983999999999
 20
1.743093999999999
  0
LWPOLYLINE
  5
425
330
1E
100
AcDbEntity
  8
LAYER_1
  6
Continuous
 62
     7
100
AcDbPolyline
 90
        2
 70
     0
 43
0.0
 10
-1.504318999999999
 20
1.756358
 10
-1.504318999999999
 20
1.743093999999999
  0
LWPOLYLINE
  5
429
330
1E
100
AcDbEntity
  8
LAYER_1
  6
Continuous
 62
     7
100
AcDbPolyline
 90
        2
 70
     0
 43
0.0
 10
-1.436247999999999
 20
1.756358
 10
-1.436247999999999
 20
1.743093999999999
  0
LWPOLYLINE
  5
42D
330
1E
100
AcDbEntity
  8
LAYER_1
  6
Continuous
 62
     7
100
AcDbPolyline
 90
        2
 70
     0
 43
0.0
 10
-1.369912999999999
 20
1.756358
 10
-1.369912999999999
 20
1.743093999999999
  0
LWPOLYLINE
  5
431
330
1E
100
AcDbEntity
  8
LAYER_1
  6
Continuous
 62
     7
100
AcDbPolyline
 90
        2
 70
     0
 43
0.0
 10
-1.303566999999999
 20
1.756358
 10
-1.303566999999999
 20
1.743093999999999
  0
TEXT
  5
435
330
1E
100
AcDbEntity
  8
LAYER_1
 62
     7
100
AcDbText
 10
-1.93565
 20
1.691831
 30
0.0
 40
0.039732
  1
10
 41
0.7828266956173917
  7
SN0
 72
     5
 11
-1.880849
 21
1.691831
 31
0.0
100
AcDbText
  0
LWPOLYLINE
  5
436
330
1E
100
AcDbEntity
  8
LAYER_1
  6
Continuous
 62
     7
100
AcDbPolyline
 90
        2
 70
     0
 43
0.0
 10
-0.5692050000000001
 20
1.797984
 10
-0.5692050000000001
 20
1.744913
  0
LWPOLYLINE
  5
43A
330
1E
100
AcDbEntity
  8
LAYER_1
  6
Continuous
 62
     7
100
AcDbPolyline
 90
        2
 70
     0
 43
0.0
 10
-0.9043739999999999
 20
1.776302999999999
 10
-0.9043739999999999
 20
1.743138
  0
LWPOLYLINE
  5
43E
330
1E
100
AcDbEntity
  8
LAYER_1
  6
Continuous
 62
     7
100
AcDbPolyline
 90
        2
 70
     0
 43
0.0
 10
-1.16972
 20
1.756358
 10
-1.16972
 20
1.743093999999999
  0
LWPOLYLINE
  5
442
330
1E
100
AcDbEntity
  8
LAYER_1
  6
Continuous
 62
     7
100
AcDbPolyline
 90
        2
 70
     0
 43
0.0
 10
-1.103374
 20
1.756358
 10
-1.103374
 20
1.743093999999999
  0
LWPOLYLINE
  5
446
330
1E
100
AcDbEntity
  8
LAYER_1
  6
Continuous
 62
     7
100
AcDbPolyline
 90
        2
 70
     0
 43
0.0
 10
-1.037039
 20
1.756358
 10
-1.037039
 20
1.743093999999999
  0
LWPOLYLINE
  5
44A
330
1E
100
AcDbEntity
  8
LAYER_1
  6
Continuous
 62
     7
100
AcDbPolyline
 90
        2
 70
     0
 43
0.0
 10
-0.9707049999999998
 20
1.756358
 10
-0.9707049999999998
 20
1.743093999999999
  0
LWPOLYLINE
  5
44E
330
1E
100
AcDbEntity
  8
LAYER_1
  6
Continuous
 62
     7
100
AcDbPolyline
 90
        2
 70
     0
 43
0.0
 10
-0.838039
 20
1.756358
 10
-0.838039
 20
1.743093999999999
  0
LWPOLYLINE
  5
452
330
1E
100
AcDbEntity
  8
LAYER_1
  6
Continuous
 62
     7
100
AcDbPolyline
 90
        2
 70
     0
 43
0.0
 10
-0.7699690000000001
 20
1.756358
 10
-0.7699690000000001
 20
1.743093999999999
  0
LWPOLYLINE
  5
456
330
1E
100
AcDbEntity
  8
LAYER_1
  6
Continuous
 62
     7
100
AcDbPolyline
 90
        2
 70
     0
 43
0.0
 10
-0.7036220000000001
 20
1.756358
 10
-0.7036220000000001
 20
1.743093999999999
  0
LWPOLYLINE
  5
45A
330
1E
100
AcDbEntity
  8
LAYER_1
  6
Continuous
 62
     7
100
AcDbPolyline
 90
        2
 70
     0
 43
0.0
 10
-0.637291
 20
1.756358
 10
-0.637291
 20
1.743093999999999
  0
TEXT
  5
45E
330
1E
100
AcDbEntity
  8
LAYER_1
 62
     7
100
AcDbText
 10
-1.268819
 20
1.691831
 30
0.0
 40
0.039732
  1
20
 41
0.7828124107193904
  7
SN0
 72
     5
 11
-1.214018999999999
 21
1.691831
 31
0.0
100
AcDbText
  0
LWPOLYLINE
  5
45F
330
1E
100
AcDbEntity
  8
LAYER_1
  6
Continuous
 62
     7
100
AcDbPolyline
 90
        2
 70
     0
 43
0.0
 10
0.097276
 20
1.797984
 10
0.097276
 20
1.744913
  0
LWPOLYLINE
  5
463
330
1E
100
AcDbEntity
  8
LAYER_1
  6
Continuous
 62
     7
100
AcDbPolyline
 90
        2
 70
     0
 43
0.0
 10
-0.237886
 20
1.776302999999999
 10
-0.237886
 20
1.743138
  0
LWPOLYLINE
  5
467
330
1E
100
AcDbEntity
  8
LAYER_1
  6
Continuous
 62
     7
100
AcDbPolyline
 90
        2
 70
     0
 43
0.0
 10
-0.50322
 20
1.756358
 10
-0.50322
 20
1.743093999999999
  0
LWPOLYLINE
  5
46B
330
1E
100
AcDbEntity
  8
LAYER_1
  6
Continuous
 62
     7
100
AcDbPolyline
 90
        2
 70
     0
 43
0.0
 10
-0.436886
 20
1.756358
 10
-0.436886
 20
1.743093999999999
  0
LWPOLYLINE
  5
46F
330
1E
100
AcDbEntity
  8
LAYER_1
  6
Continuous
 62
     7
100
AcDbPolyline
 90
        2
 70
     0
 43
0.0
 10
-0.370555
 20
1.756358
 10
-0.370555
 20
1.743093999999999
  0
LWPOLYLINE
  5
473
330
1E
100
AcDbEntity
  8
LAYER_1
  6
Continuous
 62
     7
100
AcDbPolyline
 90
        2
 70
     0
 43
0.0
 10
-0.30422
 20
1.756358
 10
-0.30422
 20
1.743093999999999
  0
LWPOLYLINE
  5
477
330
1E
100
AcDbEntity
  8
LAYER_1
  6
Continuous
 62
     7
100
AcDbPolyline
 90
        2
 70
     0
 43
0.0
 10
-0.171555
 20
1.756358
 10
-0.171555
 20
1.743093999999999
  0
LWPOLYLINE
  5
47B
330
1E
100
AcDbEntity
  8
LAYER_1
  6
Continuous
 62
     7
100
AcDbPolyline
 90
        2
 70
     0
 43
0.0
 10
-0.103469
 20
1.756358
 10
-0.103469
 20
1.743093999999999
  0
LWPOLYLINE
  5
47F
330
1E
100
AcDbEntity
  8
LAYER_1
  6
Continuous
 62
     7
100
AcDbPolyline
 90
        2
 70
     0
 43
0.0
 10
-0.037138
 20
1.756358
 10
-0.037138
 20
1.743093999999999
  0
LWPOLYLINE
  5
483
330
1E
100
AcDbEntity
  8
LAYER_1
  6
Continuous
 62
     7
100
AcDbPolyline
 90
        2
 70
     0
 43
0.0
 10
0.029193
 20
1.756358
 10
0.029193
 20
1.743093999999999
  0
TEXT
  5
487
330
1E
100
AcDbEntity
  8
LAYER_1
 62
     7
100
AcDbText
 10
-0.602528
 20
1.691845999999999
 30
0.0
 40
0.039732
  1
30
 41
0.7828266956173917
  7
SN0
 72
     5
 11
-0.5477270000000001
 21
1.691845999999999
 31
0.0
100
AcDbText
  0
LWPOLYLINE
  5
488
330
1E
100
AcDbEntity
  8
LAYER_1
  6
Continuous
 62
     7
100
AcDbPolyline
 90
        2
 70
     0
 43
0.0
 10
-2.568802999999999
 20
1.797984
 10
-2.568802999999999
 20
1.744913
  0
LWPOLYLINE
  5
48C
330
1E
100
AcDbEntity
  8
LAYER_1
  6
Continuous
 62
     7
100
AcDbPolyline
 90
        2
 70
     0
 43
0.0
 10
0.7637640000000001
 20
1.797984
 10
0.7637640000000001
 20
1.744913
  0
LWPOLYLINE
  5
490
330
1E
100
AcDbEntity
  8
LAYER_1
  6
Continuous
 62
     7
100
AcDbPolyline
 90
        2
 70
     0
 43
0.0
 10
0.428594
 20
1.776302999999999
 10
0.428594
 20
1.743138
  0
LWPOLYLINE
  5
494
330
1E
100
AcDbEntity
  8
LAYER_1
  6
Continuous
 62
     7
100
AcDbPolyline
 90
        2
 70
     0
 43
0.0
 10
0.163248
 20
1.756358
 10
0.163248
 20
1.743093999999999
  0
LWPOLYLINE
  5
498
330
1E
100
AcDbEntity
  8
LAYER_1
  6
Continuous
 62
     7
100
AcDbPolyline
 90
        2
 70
     0
 43
0.0
 10
0.229583
 20
1.756358
 10
0.229583
 20
1.743093999999999
  0
LWPOLYLINE
  5
49C
330
1E
100
AcDbEntity
  8
LAYER_1
  6
Continuous
 62
     7
100
AcDbPolyline
 90
        2
 70
     0
 43
0.0
 10
0.295929
 20
1.756358
 10
0.295929
 20
1.743093999999999
  0
LWPOLYLINE
  5
4A0
330
1E
100
AcDbEntity
  8
LAYER_1
  6
Continuous
 62
     7
100
AcDbPolyline
 90
        2
 70
     0
 43
0.0
 10
0.362264
 20
1.756358
 10
0.362264
 20
1.743093999999999
  0
LWPOLYLINE
  5
4A4
330
1E
100
AcDbEntity
  8
LAYER_1
  6
Continuous
 62
     7
100
AcDbPolyline
 90
        2
 70
     0
 43
0.0
 10
0.4949290000000001
 20
1.756358
 10
0.4949290000000001
 20
1.743093999999999
  0
LWPOLYLINE
  5
4A8
330
1E
100
AcDbEntity
  8
LAYER_1
  6
Continuous
 62
     7
100
AcDbPolyline
 90
        2
 70
     0
 43
0.0
 10
0.5629999999999999
 20
1.756358
 10
0.5629999999999999
 20
1.743093999999999
  0
LWPOLYLINE
  5
4AC
330
1E
100
AcDbEntity
  8
LAYER_1
  6
Continuous
 62
     7
100
AcDbPolyline
 90
        2
 70
     0
 43
0.0
 10
0.6293310000000001
 20
1.756358
 10
0.6293310000000001
 20
1.743093999999999
  0
LWPOLYLINE
  5
4B0
330
1E
100
AcDbEntity
  8
LAYER_1
  6
Continuous
 62
     7
100
AcDbPolyline
 90
        2
 70
     0
 43
0.0
 10
0.695677
 20
1.756358
 10
0.695677
 20
1.743093999999999
  0
LWPOLYLINE
  5
4B4
330
1E
100
AcDbEntity
  8
LAYER_1
  6
Continuous
 62
     7
100
AcDbPolyline
 90
        2
 70
     0
 43
0.0
 10
1.430231999999999
 20
1.797984
 10
1.430231999999999
 20
1.744913
  0
LWPOLYLINE
  5
4B8
330
1E
100
AcDbEntity
  8
LAYER_1
  6
Continuous
 62
     7
100
AcDbPolyline
 90
        2
 70
     0
 43
0.0
 10
1.095083
 20
1.776302999999999
 10
1.095083
 20
1.743138
  0
LWPOLYLINE
  5
4BC
330
1E
100
AcDbEntity
  8
LAYER_1
  6
Continuous
 62
     7
100
AcDbPolyline
 90
        2
 70
     0
 43
0.0
 10
0.829748
 20
1.756358
 10
0.829748
 20
1.743093999999999
  0
LWPOLYLINE
  5
4C0
330
1E
100
AcDbEntity
  8
LAYER_1
  6
Continuous
 62
     7
100
AcDbPolyline
 90
        2
 70
     0
 43
0.0
 10
0.8960829999999999
 20
1.756358
 10
0.8960829999999999
 20
1.743093999999999
  0
LWPOLYLINE
  5
4C4
330
1E
100
AcDbEntity
  8
LAYER_1
  6
Continuous
 62
     7
100
AcDbPolyline
 90
        2
 70
     0
 43
0.0
 10
0.9624129999999999
 20
1.756358
 10
0.9624129999999999
 20
1.743093999999999
  0
LWPOLYLINE
  5
4C8
330
1E
100
AcDbEntity
  8
LAYER_1
  6
Continuous
 62
     7
100
AcDbPolyline
 90
        2
 70
     0
 43
0.0
 10
1.028747999999999
 20
1.756358
 10
1.028747999999999
 20
1.743093999999999
  0
LWPOLYLINE
  5
4CC
330
1E
100
AcDbEntity
  8
LAYER_1
  6
Continuous
 62
     7
100
AcDbPolyline
 90
        2
 70
     0
 43
0.0
 10
1.161413
 20
1.756358
 10
1.161413
 20
1.743093999999999
  0
LWPOLYLINE
  5
4D0
330
1E
100
AcDbEntity
  8
LAYER_1
  6
Continuous
 62
     7
100
AcDbPolyline
 90
        2
 70
     0
 43
0.0
 10
1.2295
 20
1.756358
 10
1.2295
 20
1.743093999999999
  0
LWPOLYLINE
  5
4D4
330
1E
100
AcDbEntity
  8
LAYER_1
  6
Continuous
 62
     7
100
AcDbPolyline
 90
        2
 70
     0
 43
0.0
 10
1.295830999999999
 20
1.756358
 10
1.295830999999999
 20
1.743093999999999
  0
LWPOLYLINE
  5
4D8
330
1E
100
AcDbEntity
  8
LAYER_1
  6
Continuous
 62
     7
100
AcDbPolyline
 90
        2
 70
     0
 43
0.0
 10
1.362165
 20
1.756358
 10
1.362165
 20
1.743093999999999
  0
TEXT
  5
4DC
330
1E
100
AcDbEntity
  8
LAYER_1
 62
     7
100
AcDbText
 10
0.063957
 20
1.691845999999999
 30
0.0
 40
0.039732
  1
40
 41
0.7828124107193873
  7
SN0
 72
     5
 11
0.118757
 21
1.691845999999999
 31
0.0
100
AcDbText
  0
TEXT
  5
4DD
330
1E
100
AcDbEntity
  8
LAYER_1
 62
     7
100
AcDbText
 10
0.292248
 20
1.691845999999999
 30
0.0
 40
0.039732
  1
50
 41
0.782812410719388
  7
SN0
 72
     5
 11
0.347048
 21
1.691845999999999
 31
0.0
100
AcDbText
  0
LWPOLYLINE
  5
4DE
330
1E
100
AcDbEntity
  8
LAYER_1
  6
Continuous
 62
     7
100
AcDbPolyline
 90
        9
 70
     0
 43
0.0
 10
-3.023016
 20
2.434583
 10
-2.731011999999999
 20
4.716276
 10
-2.722554999999999
 20
4.764763999999999
 10
-2.713609999999999
 20
4.783469
 10
-2.711845999999999
 20
4.743637999999999
 10
-2.726039
 20
4.567109999999999
 10
-2.769791
 20
4.156512
 10
-2.85711
 20
3.404622
 10
-2.97528
 20
2.42872
  0
LWPOLYLINE
  5
4E9
330
1E
100
AcDbEntity
  8
LAYER_1
  6
Continuous
 62
     7
100
AcDbPolyline
 90
        2
 70
     0
 43
0.0
 10
-3.023042999999999
 20
2.432968999999999
 10
-2.975783
 20
2.429692999999999
  0
LWPOLYLINE
  5
4ED
330
1E
100
AcDbEntity
  8
LAYER_1
  6
Continuous
100
AcDbPolyline
 90
       12
 70
     1
 43
0.0
 10
-3.132165
 20
0.344583
 10
-3.141220999999999
 20
0.378056
 10
-3.165015
 20
0.4018550000000001
 10
-3.198488
 20
0.4109130000000001
 10
-3.231961999999999
 20
0.4018550000000001
 10
-3.255758
 20
0.378056
 10
-3.264815
 20
0.344583
 10
-3.255758
 20
0.311111
 10
-3.231961999999999
 20
0.2873179999999999
 10
-3.198488
 20
0.278264
 10
-3.165015
 20
0.2873179999999999
 10
-3.141220999999999
 20
0.311111
  0
LWPOLYLINE
  5
4FB
330
1E
100
AcDbEntity
  8
LAYER_1
  6
Continuous
 62
     7
100
AcDbPolyline
 90
        4
 70
     0
 43
0.0
 10
-3.132165
 20
0.344583
 10
-3.141220999999999
 20
0.378056
 10
-3.165015
 20
0.4018550000000001
 10
-3.198488
 20
0.4109130000000001
  0
LWPOLYLINE
  5
501
330
1E
100
AcDbEntity
  8
LAYER_1
  6
Continuous
 62
     7
100
AcDbPolyline
 90
        4
 70
     0
 43
0.0
 10
-3.198488
 20
0.4109130000000001
 10
-3.231961999999999
 20
0.4018550000000001
 10
-3.255758
 20
0.378056
 10
-3.264815
 20
0.344583
  0
LWPOLYLINE
  5
507
330
1E
100
AcDbEntity
  8
LAYER_1
  6
Continuous
 62
     7
100
AcDbPolyline
 90
        4
 70
     0
 43
0.0
 10
-3.264815
 20
0.344583
 10
-3.255758
 20
0.311111
 10
-3.231961999999999
 20
0.2873179999999999
 10
-3.198488
 20
0.278264
  0
LWPOLYLINE
  5
50D
330
1E
100
AcDbEntity
  8
LAYER_1
  6
Continuous
 62
     7
100
AcDbPolyline
 90
        4
 70
     0
 43
0.0
 10
-3.198488
 20
0.278264
 10
-3.165015
 20
0.2873179999999999
 10
-3.141220999999999
 20
0.311111
 10
-3.132165
 20
0.344583
  0
LWPOLYLINE
  5
513
330
1E
100
AcDbEntity
  8
LAYER_1
  6
Continuous
 62
     7
100
AcDbPolyline
 90
        9
 70
     0
 43
0.0
 10
-3.022397999999999
 20
-1.751192999999999
 10
-2.730402
 20
-4.032886
 10
-2.721941
 20
-4.081373999999999
 10
-2.713
 20
-4.100067
 10
-2.711219999999999
 20
-4.060248
 10
-2.725413
 20
-3.883705
 10
-2.769165
 20
-3.473109999999999
 10
-2.8565
 20
-2.72122
 10
-2.974661
 20
-1.745318999999999
  0
LWPOLYLINE
  5
51E
330
1E
100
AcDbEntity
  8
LAYER_1
  6
Continuous
 62
     7
100
AcDbPolyline
 90
        2
 70
     0
 43
0.0
 10
-3.023008
 20
-1.751429
 10
-2.975747999999999
 20
-1.74815
  0
LWPOLYLINE
  5
529
330
1E
100
AcDbEntity
  8
LAYER_1
  6
Continuous
 62
     7
100
AcDbPolyline
 90
        4
 70
     0
 43
0.0
 10
-3.133361999999999
 20
0.358094
 10
-3.133327999999999
 20
0.358094
 10
-3.133089
 20
0.358094
 10
-3.132441
 20
0.358094
  0
LWPOLYLINE
  5
52F
330
1E
100
AcDbEntity
  8
LAYER_1
  6
Continuous
 62
     7
100
AcDbPolyline
 90
        4
 70
     0
 43
0.0
 10
-3.132441
 20
0.358094
 10
-3.131241999999999
 20
0.358125
 10
-3.129611
 20
0.358337
 10
-3.127731999999999
 20
0.358913
  0
LWPOLYLINE
  5
535
330
1E
100
AcDbEntity
  8
LAYER_1
  6
Continuous
 62
     7
100
AcDbPolyline
 90
        4
 70
     0
 43
0.0
 10
-3.127731999999999
 20
0.358913
 10
-3.125775999999999
 20
0.360029
 10
-3.123912999999999
 20
0.361827
 10
-3.122303
 20
0.364441
  0
LWPOLYLINE
  5
53B
330
1E
100
AcDbEntity
  8
LAYER_1
  6
Continuous
 62
     7
100
AcDbPolyline
 90
        4
 70
     0
 43
0.0
 10
-3.122303
 20
0.364441
 10
-3.121043999999999
 20
0.368114
 10
-3.120012
 20
0.37347
 10
-3.119024
 20
0.381232
  0
LWPOLYLINE
  5
541
330
1E
100
AcDbEntity
  8
LAYER_1
  6
Continuous
 62
     7
100
AcDbPolyline
 90
        4
 70
     0
 43
0.0
 10
-3.119024
 20
0.381232
 10
-3.117961999999999
 20
0.391583
 10
-3.116947
 20
0.402487
 10
-3.116160999999999
 20
0.411346
  0
LWPOLYLINE
  5
547
330
1E
100
AcDbEntity
  8
LAYER_1
  6
Continuous
 62
     7
100
AcDbPolyline
 90
        4
 70
     0
 43
0.0
 10
-3.116160999999999
 20
0.411346
 10
-3.115728999999999
 20
0.416242
 10
-3.115569999999999
 20
0.4180450000000001
 10
-3.115547
 20
0.418303
  0
LWPOLYLINE
  5
54D
330
1E
100
AcDbEntity
  8
LAYER_1
  6
Continuous
 62
     7
100
AcDbPolyline
 90
        4
 70
     0
 43
0.0
 10
-3.133361999999999
 20
0.331677
 10
-3.133327999999999
 20
0.331677
 10
-3.133089
 20
0.331677
 10
-3.132441
 20
0.331677
  0
LWPOLYLINE
  5
553
330
1E
100
AcDbEntity
  8
LAYER_1
  6
Continuous
 62
     7
100
AcDbPolyline
 90
        4
 70
     0
 43
0.0
 10
-3.132441
 20
0.331677
 10
-3.131241999999999
 20
0.331647
 10
-3.129611
 20
0.331435
 10
-3.127731999999999
 20
0.330858
  0
LWPOLYLINE
  5
559
330
1E
100
AcDbEntity
  8
LAYER_1
  6
Continuous
 62
     7
100
AcDbPolyline
 90
        4
 70
     0
 43
0.0
 10
-3.127731999999999
 20
0.330858
 10
-3.125775999999999
 20
0.329744
 10
-3.123912999999999
 20
0.327947
 10
-3.122303
 20
0.325331
  0
LWPOLYLINE
  5
55F
330
1E
100
AcDbEntity
  8
LAYER_1
  6
Continuous
 62
     7
100
AcDbPolyline
 90
        4
 70
     0
 43
0.0
 10
-3.122303
 20
0.325331
 10
-3.121043999999999
 20
0.321664
 10
-3.120012
 20
0.316311
 10
-3.119024
 20
0.308539
  0
LWPOLYLINE
  5
565
330
1E
100
AcDbEntity
  8
LAYER_1
  6
Continuous
 62
     7
100
AcDbPolyline
 90
        4
 70
     0
 43
0.0
 10
-3.119024
 20
0.308539
 10
-3.117961999999999
 20
0.29819
 10
-3.116947
 20
0.287288
 10
-3.116160999999999
 20
0.278429
  0
LWPOLYLINE
  5
56B
330
1E
100
AcDbEntity
  8
LAYER_1
  6
Continuous
 62
     7
100
AcDbPolyline
 90
        4
 70
     0
 43
0.0
 10
-3.116160999999999
 20
0.278429
 10
-3.115728999999999
 20
0.273531
 10
-3.115569999999999
 20
0.271726
 10
-3.115547
 20
0.271469
  0
LWPOLYLINE
  5
571
330
1E
100
AcDbEntity
  8
LAYER_1
  6
Continuous
 62
     7
100
AcDbPolyline
 90
        4
 70
     0
 43
0.0
 10
1.826138
 20
0.347583
 10
1.823672
 20
0.347702
 10
1.806409999999999
 20
0.348533
 10
1.759554999999999
 20
0.350791
  0
LWPOLYLINE
  5
577
330
1E
100
AcDbEntity
  8
LAYER_1
  6
Continuous
 62
     7
100
AcDbPolyline
 90
        4
 70
     0
 43
0.0
 10
1.759554999999999
 20
0.350791
 10
1.675018
 20
0.354816
 10
1.571717999999999
 20
0.359566
 10
1.475276
 20
0.363638
  0
LWPOLYLINE
  5
57D
330
1E
100
AcDbEntity
  8
LAYER_1
  6
Continuous
 62
     7
100
AcDbPolyline
 90
        4
 70
     0
 43
0.0
 10
1.475276
 20
0.363638
 10
1.405642999999999
 20
0.365846
 10
1.360160999999999
 20
0.365907
 10
1.3305
 20
0.363764
  0
LWPOLYLINE
  5
583
330
1E
100
AcDbEntity
  8
LAYER_1
  6
Continuous
 62
     7
100
AcDbPolyline
 90
        4
 70
     0
 43
0.0
 10
1.3305
 20
0.363764
 10
1.309802
 20
0.3594969999999999
 10
1.297046999999999
 20
0.353713
 10
1.292693
 20
0.34715
  0
LWPOLYLINE
  5
589
330
1E
100
AcDbEntity
  8
LAYER_1
  6
Continuous
 62
     7
100
AcDbPolyline
 90
        4
 70
     0
 43
0.0
 10
1.292693
 20
0.34715
 10
1.297046999999999
 20
0.34055
 10
1.309802
 20
0.334679
 10
1.3305
 20
0.330303
  0
LWPOLYLINE
  5
58F
330
1E
100
AcDbEntity
  8
LAYER_1
  6
Continuous
 62
     7
100
AcDbPolyline
 90
        4
 70
     0
 43
0.0
 10
1.3305
 20
0.330303
 10
1.360160999999999
 20
0.328045
 10
1.405642999999999
 20
0.32806
 10
1.475276
 20
0.330358
  0
LWPOLYLINE
  5
595
330
1E
100
AcDbEntity
  8
LAYER_1
  6
Continuous
 62
     7
100
AcDbPolyline
 90
        4
 70
     0
 43
0.0
 10
1.475276
 20
0.330358
 10
1.571717999999999
 20
0.334696
 10
1.675018
 20
0.3398
 10
1.759554999999999
 20
0.344138
  0
LWPOLYLINE
  5
59B
330
1E
100
AcDbEntity
  8
LAYER_1
  6
Continuous
 62
     7
100
AcDbPolyline
 90
        4
 70
     0
 43
0.0
 10
1.759554999999999
 20
0.344138
 10
1.806409999999999
 20
0.346562
 10
1.823672
 20
0.347455
 10
1.826138
 20
0.347583
  0
LWPOLYLINE
  5
5A1
330
1E
100
AcDbEntity
  8
LAYER_1
  6
Continuous
 62
     7
100
AcDbPolyline
 90
        5
 70
     0
 43
0.0
 10
1.534748
 20
0.357929
 10
1.673902
 20
0.275969
 10
1.797484
 20
0.202276
 10
1.667275999999999
 20
0.263539
 10
1.520566999999999
 20
0.332764
  0
LWPOLYLINE
  5
5A8
330
1E
100
AcDbEntity
  8
LAYER_1
  6
Continuous
 62
     7
100
AcDbPolyline
 90
        5
 70
     0
 43
0.0
 10
1.523484
 20
0.333303
 10
1.662621999999999
 20
0.415264
 10
1.78622
 20
0.488957
 10
1.656011999999999
 20
0.427705
 10
1.509303
 20
0.358469
  0
LWPOLYLINE
  5
5AF
330
1E
100
AcDbEntity
  8
LAYER_1
  6
Continuous
100
AcDbPolyline
 90
       48
 70
     1
 43
0.0
 10
0.9956379999999999
 20
0.345858
 10
0.9958899999999999
 20
0.34915
 10
0.997658
 20
0.372191
 10
1.002456999999999
 20
0.434732
 10
1.007271999999999
 20
0.497491
 10
1.013145999999999
 20
0.5741420000000001
 10
1.019492
 20
0.657247
 10
1.025725999999999
 20
0.739368
 10
1.031263999999999
 20
0.813067
 10
1.038181999999999
 20
0.9053399999999999
 10
1.043729999999999
 20
0.9692729999999999
 10
1.050094
 20
1.020583
 10
1.059099
 20
1.071406999999999
 10
1.071045
 20
1.119497999999999
 10
1.085874
 20
1.159028
 10
1.103115999999999
 20
1.18572
 10
1.120689999999999
 20
1.201427
 10
1.136109999999999
 20
1.209554999999999
 10
1.147567999999999
 20
1.213167
 10
1.155923
 20
1.214079
 10
1.162731999999999
 20
1.213775999999999
 10
1.169259999999999
 20
1.213492999999999
 10
1.175604
 20
1.213389
 10
1.181583
 20
1.213373999999999
 10
1.186996999999999
 20
1.213254999999999
 10
1.191573999999999
 20
1.212423
 10
1.195027999999999
 20
1.210164999999999
 10
1.197297999999999
 20
1.205181
 10
1.199203
 20
1.193824
 10
1.201791
 20
1.171858
 10
1.205838999999999
 20
1.136522999999999
 10
1.211054999999999
 20
1.090853999999999
 10
1.216874
 20
1.039358
 10
1.222952
 20
0.9848919999999999
 10
1.229754
 20
0.9236919999999999
 10
1.237969
 20
0.8503459999999998
 10
1.247881999999999
 20
0.762603
 10
1.258187999999999
 20
0.671014
 10
1.267193
 20
0.5892910000000001
 10
1.273580999999999
 20
0.5276310000000001
 10
1.277637
 20
0.482203
 10
1.280028
 20
0.445665
 10
1.281345
 20
0.412398
 10
1.281970999999999
 20
0.383751
 10
1.282204999999999
 20
0.362791
 10
1.282304
 20
0.351452
 10
1.282340999999999
 20
0.347274
 10
1.282345999999999
 20
0.346677
  0
LWPOLYLINE
  5
5E1
330
1E
100
AcDbEntity
  8
LAYER_1
  6
Continuous
 62
     7
100
AcDbPolyline
 90
        4
 70
     0
 43
0.0
 10
0.9956379999999999
 20
0.345858
 10
0.9958899999999999
 20
0.34915
 10
0.997658
 20
0.372191
 10
1.002456999999999
 20
0.434732
  0
LWPOLYLINE
  5
5E7
330
1E
100
AcDbEntity
  8
LAYER_1
  6
Continuous
 62
     7
100
AcDbPolyline
 90
        6
 70
     0
 43
0.0
 10
1.002456999999999
 20
0.434732
 10
1.007271999999999
 20
0.497491
 10
1.013145999999999
 20
0.5741420000000001
 10
1.019492
 20
0.657247
 10
1.025725999999999
 20
0.739368
 10
1.031263999999999
 20
0.813067
  0
LWPOLYLINE
  5
5EF
330
1E
100
AcDbEntity
  8
LAYER_1
  6
Continuous
 62
     7
100
AcDbPolyline
 90
        4
 70
     0
 43
0.0
 10
1.031263999999999
 20
0.813067
 10
1.038181999999999
 20
0.9053399999999999
 10
1.043729999999999
 20
0.9692729999999999
 10
1.050094
 20
1.020583
  0
LWPOLYLINE
  5
5F5
330
1E
100
AcDbEntity
  8
LAYER_1
  6
Continuous
 62
     7
100
AcDbPolyline
 90
        4
 70
     0
 43
0.0
 10
1.050094
 20
1.020583
 10
1.059099
 20
1.071406999999999
 10
1.071045
 20
1.119497999999999
 10
1.085874
 20
1.159028
  0
LWPOLYLINE
  5
5FB
330
1E
100
AcDbEntity
  8
LAYER_1
  6
Continuous
 62
     7
100
AcDbPolyline
 90
        4
 70
     0
 43
0.0
 10
1.085874
 20
1.159028
 10
1.103115999999999
 20
1.18572
 10
1.120689999999999
 20
1.201427
 10
1.136109999999999
 20
1.209554999999999
  0
LWPOLYLINE
  5
601
330
1E
100
AcDbEntity
  8
LAYER_1
  6
Continuous
 62
     7
100
AcDbPolyline
 90
        4
 70
     0
 43
0.0
 10
1.136109999999999
 20
1.209554999999999
 10
1.147567999999999
 20
1.213167
 10
1.155923
 20
1.214079
 10
1.162731999999999
 20
1.213775999999999
  0
LWPOLYLINE
  5
607
330
1E
100
AcDbEntity
  8
LAYER_1
  6
Continuous
 62
     7
100
AcDbPolyline
 90
        4
 70
     0
 43
0.0
 10
1.162731999999999
 20
1.213775999999999
 10
1.169259999999999
 20
1.213492999999999
 10
1.175604
 20
1.213389
 10
1.181583
 20
1.213373999999999
  0
LWPOLYLINE
  5
60D
330
1E
100
AcDbEntity
  8
LAYER_1
  6
Continuous
 62
     7
100
AcDbPolyline
 90
        4
 70
     0
 43
0.0
 10
1.181583
 20
1.213373999999999
 10
1.186996999999999
 20
1.213254999999999
 10
1.191573999999999
 20
1.212423
 10
1.195027999999999
 20
1.210164999999999
  0
LWPOLYLINE
  5
613
330
1E
100
AcDbEntity
  8
LAYER_1
  6
Continuous
 62
     7
100
AcDbPolyline
 90
        4
 70
     0
 43
0.0
 10
1.195027999999999
 20
1.210164999999999
 10
1.197297999999999
 20
1.205181
 10
1.199203
 20
1.193824
 10
1.201791
 20
1.171858
  0
LWPOLYLINE
  5
619
330
1E
100
AcDbEntity
  8
LAYER_1
  6
Continuous
 62
     7
100
AcDbPolyline
 90
        4
 70
     0
 43
0.0
 10
1.201791
 20
1.171858
 10
1.205838999999999
 20
1.136522999999999
 10
1.211054999999999
 20
1.090853999999999
 10
1.216874
 20
1.039358
  0
LWPOLYLINE
  5
61F
330
1E
100
AcDbEntity
  8
LAYER_1
  6
Continuous
 62
     7
100
AcDbPolyline
 90
        4
 70
     0
 43
0.0
 10
1.216874
 20
1.039358
 10
1.222952
 20
0.9848919999999999
 10
1.229754
 20
0.9236919999999999
 10
1.237969
 20
0.8503459999999998
  0
LWPOLYLINE
  5
625
330
1E
100
AcDbEntity
  8
LAYER_1
  6
Continuous
 62
     7
100
AcDbPolyline
 90
        4
 70
     0
 43
0.0
 10
1.237969
 20
0.8503459999999998
 10
1.247881999999999
 20
0.762603
 10
1.258187999999999
 20
0.671014
 10
1.267193
 20
0.5892910000000001
  0
LWPOLYLINE
  5
62B
330
1E
100
AcDbEntity
  8
LAYER_1
  6
Continuous
 62
     7
100
AcDbPolyline
 90
        4
 70
     0
 43
0.0
 10
1.267193
 20
0.5892910000000001
 10
1.273580999999999
 20
0.5276310000000001
 10
1.277637
 20
0.482203
 10
1.280028
 20
0.445665
  0
LWPOLYLINE
  5
631
330
1E
100
AcDbEntity
  8
LAYER_1
  6
Continuous
 62
     7
100
AcDbPolyline
 90
        4
 70
     0
 43
0.0
 10
1.280028
 20
0.445665
 10
1.281345
 20
0.412398
 10
1.281970999999999
 20
0.383751
 10
1.282204999999999
 20
0.362791
  0
LWPOLYLINE
  5
637
330
1E
100
AcDbEntity
  8
LAYER_1
  6
Continuous
 62
     7
100
AcDbPolyline
 90
        4
 70
     0
 43
0.0
 10
1.282204999999999
 20
0.362791
 10
1.282304
 20
0.351452
 10
1.282340999999999
 20
0.347274
 10
1.282345999999999
 20
0.346677
  0
LWPOLYLINE
  5
63D
330
1E
100
AcDbEntity
  8
LAYER_1
  6
Continuous
100
AcDbPolyline
 90
       48
 70
     1
 43
0.0
 10
0.9956379999999999
 20
0.345764
 10
0.9958899999999999
 20
0.342472
 10
0.997658
 20
0.31943
 10
1.002456999999999
 20
0.256886
 10
1.007271999999999
 20
0.194129
 10
1.013145999999999
 20
0.117479
 10
1.019492
 20
0.034375
 10
1.025725999999999
 20
-0.047744
 10
1.031263999999999
 20
-0.121441
 10
1.038181999999999
 20
-0.213714
 10
1.043729999999999
 20
-0.277651
 10
1.050094
 20
-0.328969
 10
1.059099
 20
-0.379785
 10
1.071045
 20
-0.4278750000000001
 10
1.085874
 20
-0.467413
 10
1.103115999999999
 20
-0.494097
 10
1.120689999999999
 20
-0.5098020000000001
 10
1.136109999999999
 20
-0.517929
 10
1.147567999999999
 20
-0.5215410000000001
 10
1.155923
 20
-0.522453
 10
1.162731999999999
 20
-0.52215
 10
1.169259999999999
 20
-0.521867
 10
1.175604
 20
-0.521763
 10
1.181583
 20
-0.5217480000000001
 10
1.186996999999999
 20
-0.521629
 10
1.191573999999999
 20
-0.5207970000000001
 10
1.195027999999999
 20
-0.5185390000000001
 10
1.197297999999999
 20
-0.5135550000000001
 10
1.199203
 20
-0.502198
 10
1.201791
 20
-0.480232
 10
1.205838999999999
 20
-0.444897
 10
1.211054999999999
 20
-0.399228
 10
1.216874
 20
-0.3477320000000001
 10
1.222952
 20
-0.29327
 10
1.229754
 20
-0.232073
 10
1.237969
 20
-0.15872
 10
1.247881999999999
 20
-0.070985
 10
1.258187999999999
 20
0.020605
 10
1.267193
 20
0.102331
 10
1.273580999999999
 20
0.163991
 10
1.277637
 20
0.209418
 10
1.280028
 20
0.245957
 10
1.281345
 20
0.279215
 10
1.281970999999999
 20
0.307861
 10
1.282204999999999
 20
0.328831
 10
1.282304
 20
0.340168
 10
1.282340999999999
 20
0.344344
 10
1.282345999999999
 20
0.344941
  0
LWPOLYLINE
  5
66F
330
1E
100
AcDbEntity
  8
LAYER_1
  6
Continuous
 62
     7
100
AcDbPolyline
 90
        4
 70
     0
 43
0.0
 10
0.9956379999999999
 20
0.345764
 10
0.9958899999999999
 20
0.342472
 10
0.997658
 20
0.31943
 10
1.002456999999999
 20
0.256886
  0
LWPOLYLINE
  5
675
330
1E
100
AcDbEntity
  8
LAYER_1
  6
Continuous
 62
     7
100
AcDbPolyline
 90
        6
 70
     0
 43
0.0
 10
1.002456999999999
 20
0.256886
 10
1.007271999999999
 20
0.194129
 10
1.013145999999999
 20
0.117479
 10
1.019492
 20
0.034375
 10
1.025725999999999
 20
-0.047744
 10
1.031263999999999
 20
-0.121441
  0
LWPOLYLINE
  5
67D
330
1E
100
AcDbEntity
  8
LAYER_1
  6
Continuous
 62
     7
100
AcDbPolyline
 90
        4
 70
     0
 43
0.0
 10
1.031263999999999
 20
-0.121441
 10
1.038181999999999
 20
-0.213714
 10
1.043729999999999
 20
-0.277651
 10
1.050094
 20
-0.328969
  0
LWPOLYLINE
  5
683
330
1E
100
AcDbEntity
  8
LAYER_1
  6
Continuous
 62
     7
100
AcDbPolyline
 90
        4
 70
     0
 43
0.0
 10
1.050094
 20
-0.328969
 10
1.059099
 20
-0.379785
 10
1.071045
 20
-0.4278750000000001
 10
1.085874
 20
-0.467413
  0
LWPOLYLINE
  5
689
330
1E
100
AcDbEntity
  8
LAYER_1
  6
Continuous
 62
     7
100
AcDbPolyline
 90
        4
 70
     0
 43
0.0
 10
1.085874
 20
-0.467413
 10
1.103115999999999
 20
-0.494097
 10
1.120689999999999
 20
-0.5098020000000001
 10
1.136109999999999
 20
-0.517929
  0
LWPOLYLINE
  5
68F
330
1E
100
AcDbEntity
  8
LAYER_1
  6
Continuous
 62
     7
100
AcDbPolyline
 90
        4
 70
     0
 43
0.0
 10
1.136109999999999
 20
-0.517929
 10
1.147567999999999
 20
-0.5215410000000001
 10
1.155923
 20
-0.522453
 10
1.162731999999999
 20
-0.52215
  0
LWPOLYLINE
  5
695
330
1E
100
AcDbEntity
  8
LAYER_1
  6
Continuous
 62
     7
100
AcDbPolyline
 90
        4
 70
     0
 43
0.0
 10
1.162731999999999
 20
-0.52215
 10
1.169259999999999
 20
-0.521867
 10
1.175604
 20
-0.521763
 10
1.181583
 20
-0.5217480000000001
  0
LWPOLYLINE
  5
69B
330
1E
100
AcDbEntity
  8
LAYER_1
  6
Continuous
 62
     7
100
AcDbPolyline
 90
        4
 70
     0
 43
0.0
 10
1.181583
 20
-0.5217480000000001
 10
1.186996999999999
 20
-0.521629
 10
1.191573999999999
 20
-0.5207970000000001
 10
1.195027999999999
 20
-0.5185390000000001
  0
LWPOLYLINE
  5
6A1
330
1E
100
AcDbEntity
  8
LAYER_1
  6
Continuous
 62
     7
100
AcDbPolyline
 90
        4
 70
     0
 43
0.0
 10
1.195027999999999
 20
-0.5185390000000001
 10
1.197297999999999
 20
-0.5135550000000001
 10
1.199203
 20
-0.502198
 10
1.201791
 20
-0.480232
  0
LWPOLYLINE
  5
6A7
330
1E
100
AcDbEntity
  8
LAYER_1
  6
Continuous
 62
     7
100
AcDbPolyline
 90
        4
 70
     0
 43
0.0
 10
1.201791
 20
-0.480232
 10
1.205838999999999
 20
-0.444897
 10
1.211054999999999
 20
-0.399228
 10
1.216874
 20
-0.3477320000000001
  0
LWPOLYLINE
  5
6AD
330
1E
100
AcDbEntity
  8
LAYER_1
  6
Continuous
 62
     7
100
AcDbPolyline
 90
        4
 70
     0
 43
0.0
 10
1.216874
 20
-0.3477320000000001
 10
1.222952
 20
-0.29327
 10
1.229754
 20
-0.232073
 10
1.237969
 20
-0.15872
  0
LWPOLYLINE
  5
6B3
330
1E
100
AcDbEntity
  8
LAYER_1
  6
Continuous
 62
     7
100
AcDbPolyline
 90
        4
 70
     0
 43
0.0
 10
1.237969
 20
-0.15872
 10
1.247881999999999
 20
-0.070985
 10
1.258187999999999
 20
0.020605
 10
1.267193
 20
0.102331
  0
LWPOLYLINE
  5
6B9
330
1E
100
AcDbEntity
  8
LAYER_1
  6
Continuous
 62
     7
100
AcDbPolyline
 90
        4
 70
     0
 43
0.0
 10
1.267193
 20
0.102331
 10
1.273580999999999
 20
0.163991
 10
1.277637
 20
0.209418
 10
1.280028
 20
0.245957
  0
LWPOLYLINE
  5
6BF
330
1E
100
AcDbEntity
  8
LAYER_1
  6
Continuous
 62
     7
100
AcDbPolyline
 90
        4
 70
     0
 43
0.0
 10
1.280028
 20
0.245957
 10
1.281345
 20
0.279215
 10
1.281970999999999
 20
0.307861
 10
1.282204999999999
 20
0.328831
  0
LWPOLYLINE
  5
6C5
330
1E
100
AcDbEntity
  8
LAYER_1
  6
Continuous
 62
     7
100
AcDbPolyline
 90
        4
 70
     0
 43
0.0
 10
1.282204999999999
 20
0.328831
 10
1.282304
 20
0.340168
 10
1.282340999999999
 20
0.344344
 10
1.282345999999999
 20
0.344941
  0
LWPOLYLINE
  5
6CB
330
1E
100
AcDbEntity
  8
LAYER_1
  6
Continuous
 62
     7
100
AcDbPolyline
 90
        2
 70
     0
 43
0.0
 10
-0.9877909999999999
 20
-1.751593999999999
 10
-1.571054999999999
 20
-1.751593999999999
  0
LWPOLYLINE
  5
6CF
330
1E
100
AcDbEntity
  8
LAYER_1
  6
Continuous
 62
     7
100
AcDbPolyline
 90
        2
 70
     0
 43
0.0
 10
-0.9386499999999999
 20
0.347165
 10
-1.096748
 20
0.347165
  0
LWPOLYLINE
  5
6D3
330
1E
100
AcDbEntity
  8
LAYER_1
  6
Continuous
 62
     7
100
AcDbPolyline
 90
        3
 70
     0
 43
0.0
 10
-1.095929
 20
0.347165
 10
-1.135248
 20
-1.751609999999999
 10
-1.222901999999999
 20
-4.118243999999999
  0
LWPOLYLINE
  5
6D8
330
1E
100
AcDbEntity
  8
LAYER_1
  6
Continuous
 62
     7
100
AcDbPolyline
 90
        4
 70
     0
 43
0.0
 10
-1.088567
 20
-3.322830999999999
 10
-1.088859999999999
 20
-3.326106999999999
 10
-1.090907999999999
 20
-3.349044999999999
 10
-1.096469
 20
-3.411302999999999
  0
LWPOLYLINE
  5
6DE
330
1E
100
AcDbEntity
  8
LAYER_1
  6
Continuous
 62
     7
100
AcDbPolyline
 90
        6
 70
     0
 43
0.0
 10
-1.096469
 20
-3.411302999999999
 10
-1.102076
 20
-3.473789
 10
-1.108977
 20
-3.550219999999999
 10
-1.116570999999999
 20
-3.633310999999999
 10
-1.124255
 20
-3.715773
 10
-1.131429
 20
-3.790319
  0
LWPOLYLINE
  5
6E6
330
1E
100
AcDbEntity
  8
LAYER_1
  6
Continuous
 62
     7
100
AcDbPolyline
 90
        4
 70
     0
 43
0.0
 10
-1.131429
 20
-3.790319
 10
-1.141243
 20
-3.884676
 10
-1.148965
 20
-3.948083
 10
-1.155594
 20
-3.991830999999999
  0
LWPOLYLINE
  5
6EC
330
1E
100
AcDbEntity
  8
LAYER_1
  6
Continuous
 62
     7
100
AcDbPolyline
 90
        4
 70
     0
 43
0.0
 10
-1.155594
 20
-3.991830999999999
 10
-1.161945999999999
 20
-4.025539
 10
-1.168071999999999
 20
-4.052148
 10
-1.173830999999999
 20
-4.072929
  0
LWPOLYLINE
  5
6F2
330
1E
100
AcDbEntity
  8
LAYER_1
  6
Continuous
 62
     7
100
AcDbPolyline
 90
        4
 70
     0
 43
0.0
 10
-1.173830999999999
 20
-4.072929
 10
-1.179119
 20
-4.089014999999999
 10
-1.183964999999999
 20
-4.100961999999999
 10
-1.188429
 20
-4.109176999999999
  0
LWPOLYLINE
  5
6F8
330
1E
100
AcDbEntity
  8
LAYER_1
  6
Continuous
 62
     7
100
AcDbPolyline
 90
        4
 70
     0
 43
0.0
 10
-1.188429
 20
-4.109176999999999
 10
-1.192657999999999
 20
-4.114157999999999
 10
-1.197082999999999
 20
-4.116741
 10
-1.20222
 20
-4.117849999999999
  0
LWPOLYLINE
  5
6FE
330
1E
100
AcDbEntity
  8
LAYER_1
  6
Continuous
 62
     7
100
AcDbPolyline
 90
        4
 70
     0
 43
0.0
 10
-1.20222
 20
-4.117849999999999
 10
-1.208295
 20
-4.118291999999999
 10
-1.214354
 20
-4.118386
 10
-1.219149999999999
 20
-4.118330999999999
  0
LWPOLYLINE
  5
704
330
1E
100
AcDbEntity
  8
LAYER_1
  6
Continuous
 62
     7
100
AcDbPolyline
 90
        4
 70
     0
 43
0.0
 10
-1.219149999999999
 20
-4.118330999999999
 10
-1.221797999999999
 20
-4.118280999999999
 10
-1.222774
 20
-4.118262
 10
-1.222912999999999
 20
-4.11826
  0
LWPOLYLINE
  5
70A
330
1E
100
AcDbEntity
  8
LAYER_1
  6
Continuous
 62
     7
100
AcDbPolyline
 90
        3
 70
     0
 43
0.0
 10
-0.9386379999999999
 20
0.34715
 10
-0.9877909999999999
 20
-1.751609999999999
 10
-1.088554999999999
 20
-3.318719999999999
  0
LWPOLYLINE
  5
70F
330
1E
100
AcDbEntity
  8
LAYER_1
  6
DASHED
 62
     7
100
AcDbPolyline
 90
        4
 70
     0
 43
0.0
 10
-1.448193
 20
-3.798776
 10
-1.409677
 20
-4.119898
 10
-1.160649999999999
 20
-4.119898
 10
-1.138527999999999
 20
-3.881512
  0
LWPOLYLINE
  5
715
330
1E
100
AcDbEntity
  8
LAYER_1
  6
Continuous
 62
     7
100
AcDbPolyline
 90
        4
 70
     0
 43
0.0
 10
-1.504704999999999
 20
-3.321176999999999
 10
-1.504395999999999
 20
-3.323847
 10
-1.502236
 20
-3.342535999999999
 10
-1.496373999999999
 20
-3.393263999999999
  0
LWPOLYLINE
  5
71B
330
1E
100
AcDbEntity
  8
LAYER_1
  6
Continuous
 62
     7
100
AcDbPolyline
 90
        5
 70
     0
 43
0.0
 10
-1.496373999999999
 20
-3.393263999999999
 10
-1.488752999999999
 20
-3.459033
 10
-1.479105999999999
 20
-3.540928
 10
-1.468536
 20
-3.628041999999999
 10
-1.45815
 20
-3.709469
  0
LWPOLYLINE
  5
722
330
1E
100
AcDbEntity
  8
LAYER_1
  6
Continuous
 62
     7
100
AcDbPolyline
 90
        4
 70
     0
 43
0.0
 10
-1.45815
 20
-3.709469
 10
-1.445771999999999
 20
-3.796184999999999
 10
-1.434066
 20
-3.862512999999999
 10
-1.421429
 20
-3.917555
  0
LWPOLYLINE
  5
728
330
1E
100
AcDbEntity
  8
LAYER_1
  6
Continuous
 62
     7
100
AcDbPolyline
 90
        4
 70
     0
 43
0.0
 10
-1.421429
 20
-3.917555
 10
-1.406671
 20
-3.968351
 10
-1.390433999999999
 20
-4.013716
 10
-1.373776
 20
-4.050402
  0
LWPOLYLINE
  5
72E
330
1E
100
AcDbEntity
  8
LAYER_1
  6
Continuous
 62
     7
100
AcDbPolyline
 90
        4
 70
     0
 43
0.0
 10
-1.373776
 20
-4.050402
 10
-1.357636
 20
-4.076188
 10
-1.342530999999999
 20
-4.092961999999999
 10
-1.328845999999999
 20
-4.103638
  0
LWPOLYLINE
  5
734
330
1E
100
AcDbEntity
  8
LAYER_1
  6
Continuous
 62
     7
100
AcDbPolyline
 90
        4
 70
     0
 43
0.0
 10
-1.328845999999999
 20
-4.103638
 10
-1.316567
 20
-4.110748
 10
-1.303916
 20
-4.115243
 10
-1.28872
 20
-4.117704999999999
  0
LWPOLYLINE
  5
73A
330
1E
100
AcDbEntity
  8
LAYER_1
  6
Continuous
 62
     7
100
AcDbPolyline
 90
        4
 70
     0
 43
0.0
 10
-1.28872
 20
-4.117704999999999
 10
-1.269859
 20
-4.118708999999999
 10
-1.250544
 20
-4.118801999999999
 10
-1.235055
 20
-4.118527999999999
  0
LWPOLYLINE
  5
740
330
1E
100
AcDbEntity
  8
LAYER_1
  6
Continuous
 62
     7
100
AcDbPolyline
 90
        4
 70
     0
 43
0.0
 10
-1.235055
 20
-4.118527999999999
 10
-1.226503
 20
-4.118336
 10
-1.223351999999999
 20
-4.118266
 10
-1.222901999999999
 20
-4.118255999999999
  0
LWPOLYLINE
  5
746
330
1E
100
AcDbEntity
  8
LAYER_1
  6
DASHED
 62
     7
100
AcDbPolyline
 90
        2
 70
     0
 43
0.0
 10
-1.504704999999999
 20
-3.319538999999999
 10
-1.088554999999999
 20
-3.319538999999999
  0
LWPOLYLINE
  5
74A
330
1E
100
AcDbEntity
  8
LAYER_1
  6
Continuous
 62
     7
100
AcDbPolyline
 90
        3
 70
     0
 43
0.0
 10
-1.590247999999999
 20
0.345193
 10
-1.571204999999999
 20
-1.751704999999999
 10
-1.504858
 20
-3.318412999999999
  0
LWPOLYLINE
  5
74F
330
1E
100
AcDbEntity
  8
LAYER_1
  6
Continuous
 62
     7
100
AcDbPolyline
 90
        3
 70
     0
 43
0.0
 10
-1.590247999999999
 20
0.345193
 10
-1.571204999999999
 20
2.445802999999999
 10
-1.504858
 20
4.01311
  0
LWPOLYLINE
  5
754
330
1E
100
AcDbEntity
  8
LAYER_1
  6
Continuous
 62
     7
100
AcDbPolyline
 90
        2
 70
     0
 43
0.0
 10
-1.590247999999999
 20
0.345193
 10
-0.94022
 20
0.345193
  0
LWPOLYLINE
  5
758
330
1E
100
AcDbEntity
  8
LAYER_1
  6
Continuous
 62
     7
100
AcDbPolyline
 90
        2
 70
     0
 43
0.0
 10
-2.975346
 20
2.436011999999999
 10
-3.06524
 20
0.345
  0
LWPOLYLINE
  5
75C
330
1E
100
AcDbEntity
  8
LAYER_1
  6
Continuous
 62
     7
100
AcDbPolyline
 90
        2
 70
     0
 43
0.0
 10
-3.023925
 20
2.441122
 10
-3.118097999999999
 20
0.347
  0
LWPOLYLINE
  5
760
330
1E
100
AcDbEntity
  8
LAYER_1
  6
Continuous
 62
     7
100
AcDbPolyline
 90
        2
 70
     0
 43
0.0
 10
-3.022708999999999
 20
-1.751345999999999
 10
-3.118101999999999
 20
0.343413
  0
LWPOLYLINE
  5
764
330
1E
100
AcDbEntity
  8
LAYER_1
  6
Continuous
 62
     7
100
AcDbPolyline
 90
        2
 70
     0
 43
0.0
 10
-2.974747999999999
 20
-1.746845999999999
 10
-3.06524
 20
0.346028
  0
LWPOLYLINE
  5
768
330
1E
100
AcDbEntity
  8
LAYER_1
  6
Continuous
 62
     7
100
AcDbPolyline
 90
        2
 70
     0
 43
0.0
 10
2.096902
 20
1.797984
 10
2.096902
 20
1.744913
  0
LWPOLYLINE
  5
76C
330
1E
100
AcDbEntity
  8
LAYER_1
  6
Continuous
 62
     7
100
AcDbPolyline
 90
        2
 70
     0
 43
0.0
 10
1.761747999999999
 20
1.776302999999999
 10
1.761747999999999
 20
1.743138
  0
LWPOLYLINE
  5
770
330
1E
100
AcDbEntity
  8
LAYER_1
  6
Continuous
 62
     7
100
AcDbPolyline
 90
        2
 70
     0
 43
0.0
 10
1.496412999999999
 20
1.756358
 10
1.496412999999999
 20
1.743093999999999
  0
LWPOLYLINE
  5
774
330
1E
100
AcDbEntity
  8
LAYER_1
  6
Continuous
 62
     7
100
AcDbPolyline
 90
        2
 70
     0
 43
0.0
 10
1.562748
 20
1.756358
 10
1.562748
 20
1.743093999999999
  0
LWPOLYLINE
  5
778
330
1E
100
AcDbEntity
  8
LAYER_1
  6
Continuous
 62
     7
100
AcDbPolyline
 90
        2
 70
     0
 43
0.0
 10
1.629083
 20
1.756358
 10
1.629083
 20
1.743093999999999
  0
LWPOLYLINE
  5
77C
330
1E
100
AcDbEntity
  8
LAYER_1
  6
Continuous
 62
     7
100
AcDbPolyline
 90
        2
 70
     0
 43
0.0
 10
1.695413
 20
1.756358
 10
1.695413
 20
1.743093999999999
  0
LWPOLYLINE
  5
780
330
1E
100
AcDbEntity
  8
LAYER_1
  6
Continuous
 62
     7
100
AcDbPolyline
 90
        2
 70
     0
 43
0.0
 10
1.828083
 20
1.756358
 10
1.828083
 20
1.743093999999999
  0
LWPOLYLINE
  5
784
330
1E
100
AcDbEntity
  8
LAYER_1
  6
Continuous
 62
     7
100
AcDbPolyline
 90
        2
 70
     0
 43
0.0
 10
1.896165
 20
1.756358
 10
1.896165
 20
1.743093999999999
  0
LWPOLYLINE
  5
788
330
1E
100
AcDbEntity
  8
LAYER_1
  6
Continuous
 62
     7
100
AcDbPolyline
 90
        2
 70
     0
 43
0.0
 10
1.9625
 20
1.756358
 10
1.9625
 20
1.743093999999999
  0
LWPOLYLINE
  5
78C
330
1E
100
AcDbEntity
  8
LAYER_1
  6
Continuous
 62
     7
100
AcDbPolyline
 90
        2
 70
     0
 43
0.0
 10
2.028831
 20
1.756358
 10
2.028831
 20
1.743093999999999
  0
LWPOLYLINE
  5
790
330
1E
100
AcDbEntity
  8
LAYER_1
  6
Continuous
 62
     7
100
AcDbPolyline
 90
        2
 70
     0
 43
0.0
 10
-2.570247999999999
 20
1.744165
 10
2.094205
 20
1.744165
  0
TEXT
  5
794
330
1E
100
AcDbEntity
  8
LAYER_1
 62
     7
100
AcDbText
 10
1.396929
 20
1.691831
 30
0.0
 40
0.039732
  1
60
 41
0.7828124107193867
  7
SN0
 72
     5
 11
1.451729
 21
1.691831
 31
0.0
100
AcDbText
  0
TEXT
  5
795
330
1E
100
AcDbEntity
  8
LAYER_1
 62
     7
100
AcDbText
 10
1.625275999999999
 20
1.691831
 30
0.0
 40
0.039732
  1
70 in
 41
0.6552128914892569
  7
SN0
 72
     5
 11
1.731886999999999
 21
1.691831
 31
0.0
100
AcDbText
  0
LWPOLYLINE
  5
796
330
1E
100
AcDbEntity
  8
LAYER_1
  6
Continuous
 62
     7
100
AcDbPolyline
 90
        2
 70
     0
 43
0.0
 10
-3.493558999999999
 20
5.011413
 10
-3.440491999999999
 20
5.011413
  0
LWPOLYLINE
  5
79A
330
1E
100
AcDbEntity
  8
LAYER_1
  6
Continuous
 62
     7
100
AcDbPolyline
 90
        2
 70
     0
 43
0.0
 10
-3.471873999999999
 20
4.676248
 10
-3.438708999999999
 20
4.676248
  0
LWPOLYLINE
  5
79E
330
1E
100
AcDbEntity
  8
LAYER_1
  6
Continuous
 62
     7
100
AcDbPolyline
 90
        2
 70
     0
 43
0.0
 10
-3.451925
 20
4.410912999999999
 10
-3.438657
 20
4.410912999999999
  0
LWPOLYLINE
  5
7A2
330
1E
100
AcDbEntity
  8
LAYER_1
  6
Continuous
 62
     7
100
AcDbPolyline
 90
        2
 70
     0
 43
0.0
 10
-3.451925
 20
4.477248
 10
-3.438657
 20
4.477248
  0
LWPOLYLINE
  5
7A6
330
1E
100
AcDbEntity
  8
LAYER_1
  6
Continuous
 62
     7
100
AcDbPolyline
 90
        2
 70
     0
 43
0.0
 10
-3.451925
 20
4.543582999999999
 10
-3.438657
 20
4.543582999999999
  0
LWPOLYLINE
  5
7AA
330
1E
100
AcDbEntity
  8
LAYER_1
  6
Continuous
 62
     7
100
AcDbPolyline
 90
        2
 70
     0
 43
0.0
 10
-3.451925
 20
4.609912999999999
 10
-3.438657
 20
4.609912999999999
  0
LWPOLYLINE
  5
7AE
330
1E
100
AcDbEntity
  8
LAYER_1
  6
Continuous
 62
     7
100
AcDbPolyline
 90
        2
 70
     0
 43
0.0
 10
-3.451925
 20
4.742582999999999
 10
-3.438657
 20
4.742582999999999
  0
LWPOLYLINE
  5
7B2
330
1E
100
AcDbEntity
  8
LAYER_1
  6
Continuous
 62
     7
100
AcDbPolyline
 90
        2
 70
     0
 43
0.0
 10
-3.451925
 20
4.810665
 10
-3.438657
 20
4.810665
  0
LWPOLYLINE
  5
7B6
330
1E
100
AcDbEntity
  8
LAYER_1
  6
Continuous
 62
     7
100
AcDbPolyline
 90
        2
 70
     0
 43
0.0
 10
-3.451925
 20
4.876999999999999
 10
-3.438657
 20
4.876999999999999
  0
LWPOLYLINE
  5
7BA
330
1E
100
AcDbEntity
  8
LAYER_1
  6
Continuous
 62
     7
100
AcDbPolyline
 90
        2
 70
     0
 43
0.0
 10
-3.451925
 20
4.943330999999999
 10
-3.438657
 20
4.943330999999999
  0
TEXT
  5
7BE
330
1E
100
AcDbEntity
  8
LAYER_1
 62
     7
100
AcDbText
 10
-3.387401999999999
 20
4.311441
 30
0.0
 40
0.039732
  1
60
 50
90.0
 41
0.7828124107193905
  7
SN0
 72
     5
 11
-3.387401999999999
 21
4.366241
 31
0.0
100
AcDbText
  0
TEXT
  5
7BF
330
1E
100
AcDbEntity
  8
LAYER_1
 62
     7
100
AcDbText
 10
-3.387401999999999
 20
4.539782999999999
 30
0.0
 40
0.039732
  1
70 in
 50
90.0
 41
0.6552190373174699
  7
SN0
 72
     5
 11
-3.387401999999999
 21
4.646395
 31
0.0
100
AcDbText
  0
LWPOLYLINE
  5
7C0
330
1E
100
AcDbEntity
  8
LAYER_1
  6
Continuous
 62
     7
100
AcDbPolyline
 90
        2
 70
     0
 43
0.0
 10
-3.438394
 20
0.345819
 10
-3.439012
 20
5.012109999999999
  0
LWPOLYLINE
  5
7C4
330
1E
100
AcDbEntity
  8
LAYER_1
  6
Continuous
 62
     7
100
AcDbPolyline
 90
        4
 70
     0
 43
0.0
 10
-1.137232
 20
2.464011999999999
 10
-1.071484
 20
2.475609999999999
 10
-1.070263999999999
 20
2.468693
 10
-1.136012
 20
2.457093999999999
  0
LWPOLYLINE
  5
7CA
330
1E
100
AcDbEntity
  8
LAYER_1
  6
Continuous
 62
     7
100
AcDbPolyline
 90
        4
 70
     1
 43
0.0
 10
-1.330748
 20
2.323831
 10
-1.267247999999999
 20
2.37711
 10
-1.216247999999999
 20
2.316319
 10
-1.279747999999999
 20
2.263039
  0
LWPOLYLINE
  5
7D0
330
1E
100
AcDbEntity
  8
LAYER_1
  6
Continuous
 62
     7
100
AcDbPolyline
 90
        4
 70
     1
 43
0.0
 10
-1.260731999999999
 20
2.388984
 10
-1.256429
 20
2.392583
 10
-1.223386
 20
2.353204999999999
 10
-1.227704999999999
 20
2.349593999999999
  0
LWPOLYLINE
  5
7D6
330
1E
100
AcDbEntity
  8
LAYER_1
  6
Continuous
 62
     7
100
AcDbPolyline
 90
        4
 70
     1
 43
0.0
 10
-1.252912999999999
 20
2.373291
 10
-1.246137999999999
 20
2.378983999999999
 10
-1.234874
 20
2.365566999999999
 10
-1.241665
 20
2.359874
  0
LWPOLYLINE
  5
7DC
330
1E
100
AcDbEntity
  8
LAYER_1
  6
Continuous
 62
     7
100
AcDbPolyline
 90
        2
 70
     0
 43
0.0
 10
-1.247692999999999
 20
2.391677
 10
-1.261263999999999
 20
2.380303
  0
LWPOLYLINE
  5
7E0
330
1E
100
AcDbEntity
  8
LAYER_1
  6
Continuous
 62
     7
100
AcDbPolyline
 90
        4
 70
     0
 43
0.0
 10
-1.243873999999999
 20
2.377747999999999
 10
-1.240912999999999
 20
2.380231999999999
 10
-1.232621999999999
 20
2.370357999999999
 10
-1.235441
 20
2.367983999999999
  0
LWPOLYLINE
  5
7E6
330
1E
100
AcDbEntity
  8
LAYER_1
  6
Continuous
 62
     7
100
AcDbPolyline
 90
        2
 70
     0
 43
0.0
 10
-1.227219999999999
 20
2.383554999999999
 10
-1.301204999999999
 20
2.321469
  0
LWPOLYLINE
  5
7EA
330
1E
100
AcDbEntity
  8
LAYER_1
  6
Continuous
 62
     7
100
AcDbPolyline
 90
        2
 70
     0
 43
0.0
 10
-1.225122
 20
2.385527999999999
 10
-1.132873999999999
 20
2.462940999999999
  0
LWPOLYLINE
  5
7EE
330
1E
100
AcDbEntity
  8
LAYER_1
  6
Continuous
 62
     7
100
AcDbPolyline
 90
        4
 70
     1
 43
0.0
 10
-1.239940999999999
 20
2.379913
 10
-1.153028
 20
2.452831
 10
-1.146066999999999
 20
2.444554999999999
 10
-1.232984
 20
2.371621999999999
  0
LWPOLYLINE
  5
7F4
330
1E
100
AcDbEntity
  8
LAYER_1
  6
Continuous
 62
     7
100
AcDbPolyline
 90
        4
 70
     1
 43
0.0
 10
-1.271819
 20
0.8666379999999998
 10
-1.208331
 20
0.9199129999999998
 10
-1.259330999999999
 20
0.980705
 10
-1.322818999999999
 20
0.927429
  0
LWPOLYLINE
  5
7FA
330
1E
100
AcDbEntity
  8
LAYER_1
  6
Continuous
 62
     7
100
AcDbPolyline
 90
        4
 70
     1
 43
0.0
 10
-1.195512
 20
0.924276
 10
-1.191204999999999
 20
0.9278860000000001
 10
-1.224248
 20
0.9672639999999999
 10
-1.228554999999999
 20
0.9636499999999999
  0
LWPOLYLINE
  5
800
330
1E
100
AcDbEntity
  8
LAYER_1
  6
Continuous
 62
     7
100
AcDbPolyline
 90
        4
 70
     1
 43
0.0
 10
-1.209594
 20
0.9347049999999999
 10
-1.202830999999999
 20
0.9403859999999999
 10
-1.214083
 20
0.953803
 10
-1.220857999999999
 20
0.9481219999999998
  0
LWPOLYLINE
  5
806
330
1E
100
AcDbEntity
  8
LAYER_1
  6
Continuous
 62
     7
100
AcDbPolyline
 90
        2
 70
     0
 43
0.0
 10
-1.190594
 20
0.93665
 10
-1.20415
 20
0.925276
  0
LWPOLYLINE
  5
80A
330
1E
100
AcDbEntity
  8
LAYER_1
  6
Continuous
 62
     7
100
AcDbPolyline
 90
        4
 70
     0
 43
0.0
 10
-1.203637999999999
 20
0.9428309999999999
 10
-1.200676999999999
 20
0.9453189999999999
 10
-1.208968999999999
 20
0.9552049999999999
 10
-1.211791
 20
0.9528309999999999
  0
LWPOLYLINE
  5
810
330
1E
100
AcDbEntity
  8
LAYER_1
  6
Continuous
 62
     7
100
AcDbPolyline
 90
        2
 70
     0
 43
0.0
 10
-1.195027999999999
 20
0.9582319999999999
 10
-1.269012
 20
0.89615
  0
LWPOLYLINE
  5
814
330
1E
100
AcDbEntity
  8
LAYER_1
  6
Continuous
 62
     7
100
AcDbPolyline
 90
        2
 70
     0
 43
0.0
 10
-1.209995999999999
 20
0.9452049999999999
 10
-1.067704999999999
 20
1.06461
  0
LWPOLYLINE
  5
818
330
1E
100
AcDbEntity
  8
LAYER_1
  6
Continuous
 62
     7
100
AcDbPolyline
 90
        4
 70
     1
 43
0.0
 10
-1.206484
 20
0.9559569999999999
 10
-1.119566999999999
 20
1.028874
 10
-1.112621999999999
 20
1.020594
 10
-1.199528
 20
0.9476649999999999
  0
LWPOLYLINE
  5
81E
330
1E
100
AcDbEntity
  8
LAYER_1
  6
Continuous
 62
     7
100
AcDbPolyline
 90
        4
 70
     0
 43
0.0
 10
-1.112204999999999
 20
1.031902
 10
-1.045704999999999
 20
1.037719999999999
 10
-1.045082999999999
 20
1.03072
 10
-1.111593999999999
 20
1.024901999999999
  0
LWPOLYLINE
  5
824
330
1E
100
AcDbEntity
  8
LAYER_1
  6
Continuous
 62
     7
100
AcDbPolyline
 90
        4
 70
     0
 43
0.0
 10
1.086067
 20
0.347039
 10
1.085085
 20
0.35076
 10
1.082504
 20
0.353406
 10
1.078873999999999
 20
0.354413
  0
LWPOLYLINE
  5
82A
330
1E
100
AcDbEntity
  8
LAYER_1
  6
Continuous
 62
     7
100
AcDbPolyline
 90
        4
 70
     0
 43
0.0
 10
1.078873999999999
 20
0.354413
 10
1.075232999999999
 20
0.353406
 10
1.072648
 20
0.35076
 10
1.071664999999999
 20
0.347039
  0
LWPOLYLINE
  5
830
330
1E
100
AcDbEntity
  8
LAYER_1
  6
Continuous
 62
     7
100
AcDbPolyline
 90
        4
 70
     0
 43
0.0
 10
1.071664999999999
 20
0.347039
 10
1.072648
 20
0.343309
 10
1.075232999999999
 20
0.340658
 10
1.078873999999999
 20
0.33965
  0
LWPOLYLINE
  5
836
330
1E
100
AcDbEntity
  8
LAYER_1
  6
Continuous
 62
     7
100
AcDbPolyline
 90
        4
 70
     0
 43
0.0
 10
1.078873999999999
 20
0.33965
 10
1.082504
 20
0.340658
 10
1.085085
 20
0.343309
 10
1.086067
 20
0.347039
  0
LWPOLYLINE
  5
843
330
1E
100
AcDbEntity
  8
LAYER_1
  6
Continuous
 62
     7
100
AcDbPolyline
 90
        4
 70
     1
 43
0.0
 10
-1.148790999999999
 20
2.072276
 10
-1.128196999999999
 20
2.072276
 10
-1.128196999999999
 20
2.085724
 10
-1.148790999999999
 20
2.085724
  0
LWPOLYLINE
  5
849
330
1E
100
AcDbEntity
  8
LAYER_1
  6
Continuous
 62
     7
100
AcDbPolyline
 90
        4
 70
     1
 43
0.0
 10
-1.145172999999999
 20
1.945192999999999
 10
-1.131811
 20
1.945192999999999
 10
-1.131811
 20
2.072389999999999
 10
-1.145172999999999
 20
2.072389999999999
  0
LWPOLYLINE
  5
84F
330
1E
100
AcDbEntity
  8
LAYER_1
  6
Continuous
 62
     7
100
AcDbPolyline
 90
        2
 70
     0
 43
0.0
 10
-1.132345999999999
 20
1.970345999999999
 10
-1.144637999999999
 20
1.969290999999999
  0
LWPOLYLINE
  5
853
330
1E
100
AcDbEntity
  8
LAYER_1
  6
Continuous
 62
     7
100
AcDbPolyline
 90
        2
 70
     0
 43
0.0
 10
-1.132345999999999
 20
1.968247999999999
 10
-1.144637999999999
 20
1.967192999999999
  0
LWPOLYLINE
  5
857
330
1E
100
AcDbEntity
  8
LAYER_1
  6
Continuous
 62
     7
100
AcDbPolyline
 90
        2
 70
     0
 43
0.0
 10
-1.132345999999999
 20
1.966083
 10
-1.144637999999999
 20
1.965027999999999
  0
LWPOLYLINE
  5
85B
330
1E
100
AcDbEntity
  8
LAYER_1
  6
Continuous
 62
     7
100
AcDbPolyline
 90
        2
 70
     0
 43
0.0
 10
-1.132345999999999
 20
1.963983999999999
 10
-1.144637999999999
 20
1.962858
  0
LWPOLYLINE
  5
85F
330
1E
100
AcDbEntity
  8
LAYER_1
  6
Continuous
 62
     7
100
AcDbPolyline
 90
        2
 70
     0
 43
0.0
 10
-1.132345999999999
 20
1.961802999999999
 10
-1.144637999999999
 20
1.960763999999999
  0
LWPOLYLINE
  5
863
330
1E
100
AcDbEntity
  8
LAYER_1
  6
Continuous
 62
     7
100
AcDbPolyline
 90
        2
 70
     0
 43
0.0
 10
-1.132345999999999
 20
1.959704999999999
 10
-1.144637999999999
 20
1.958593999999999
  0
LWPOLYLINE
  5
867
330
1E
100
AcDbEntity
  8
LAYER_1
  6
Continuous
 62
     7
100
AcDbPolyline
 90
        2
 70
     0
 43
0.0
 10
-1.132345999999999
 20
1.957538999999999
 10
-1.144637999999999
 20
1.956484
  0
LWPOLYLINE
  5
86B
330
1E
100
AcDbEntity
  8
LAYER_1
  6
Continuous
 62
     7
100
AcDbPolyline
 90
        2
 70
     0
 43
0.0
 10
-1.132345999999999
 20
1.955374
 10
-1.144637999999999
 20
1.954318999999999
  0
LWPOLYLINE
  5
86F
330
1E
100
AcDbEntity
  8
LAYER_1
  6
Continuous
 62
     7
100
AcDbPolyline
 90
        2
 70
     0
 43
0.0
 10
-1.132345999999999
 20
1.953275999999999
 10
-1.144637999999999
 20
1.95222
  0
LWPOLYLINE
  5
873
330
1E
100
AcDbEntity
  8
LAYER_1
  6
Continuous
 62
     7
100
AcDbPolyline
 90
        2
 70
     0
 43
0.0
 10
-1.132345999999999
 20
1.951109999999999
 10
-1.144637999999999
 20
1.950054999999999
  0
LWPOLYLINE
  5
877
330
1E
100
AcDbEntity
  8
LAYER_1
  6
Continuous
 62
     7
100
AcDbPolyline
 90
        2
 70
     0
 43
0.0
 10
-1.132345999999999
 20
1.949
 10
-1.144637999999999
 20
1.947956999999999
  0
LWPOLYLINE
  5
87B
330
1E
100
AcDbEntity
  8
LAYER_1
  6
Continuous
 62
     7
100
AcDbPolyline
 90
        2
 70
     0
 43
0.0
 10
-1.132345999999999
 20
1.972511999999999
 10
-1.144637999999999
 20
1.971468999999999
  0
LWPOLYLINE
  5
87F
330
1E
100
AcDbEntity
  8
LAYER_1
  6
Continuous
 62
     7
100
AcDbPolyline
 90
        2
 70
     0
 43
0.0
 10
-1.132345999999999
 20
1.974622
 10
-1.144637999999999
 20
1.973566999999999
  0
LWPOLYLINE
  5
883
330
1E
100
AcDbEntity
  8
LAYER_1
  6
Continuous
 62
     7
100
AcDbPolyline
 90
        2
 70
     0
 43
0.0
 10
-1.132345999999999
 20
1.976791
 10
-1.144637999999999
 20
1.975731999999999
  0
LWPOLYLINE
  5
887
330
1E
100
AcDbEntity
  8
LAYER_1
  6
Continuous
 62
     7
100
AcDbPolyline
 90
        2
 70
     0
 43
0.0
 10
-1.132345999999999
 20
2.002402
 10
-1.144637999999999
 20
2.001345999999999
  0
LWPOLYLINE
  5
88B
330
1E
100
AcDbEntity
  8
LAYER_1
  6
Continuous
 62
     7
100
AcDbPolyline
 90
        2
 70
     0
 43
0.0
 10
-1.132345999999999
 20
2.000302999999999
 10
-1.144637999999999
 20
1.999247999999999
  0
LWPOLYLINE
  5
88F
330
1E
100
AcDbEntity
  8
LAYER_1
  6
Continuous
 62
     7
100
AcDbPolyline
 90
        2
 70
     0
 43
0.0
 10
-1.132345999999999
 20
1.998138
 10
-1.144637999999999
 20
1.997083
  0
LWPOLYLINE
  5
893
330
1E
100
AcDbEntity
  8
LAYER_1
  6
Continuous
 62
     7
100
AcDbPolyline
 90
        2
 70
     0
 43
0.0
 10
-1.132345999999999
 20
1.996027999999999
 10
-1.144637999999999
 20
1.994913
  0
LWPOLYLINE
  5
897
330
1E
100
AcDbEntity
  8
LAYER_1
  6
Continuous
 62
     7
100
AcDbPolyline
 90
        2
 70
     0
 43
0.0
 10
-1.132345999999999
 20
1.993858
 10
-1.144637999999999
 20
1.992802999999999
  0
LWPOLYLINE
  5
89B
330
1E
100
AcDbEntity
  8
LAYER_1
  6
Continuous
 62
     7
100
AcDbPolyline
 90
        2
 70
     0
 43
0.0
 10
-1.132345999999999
 20
1.991763999999999
 10
-1.144637999999999
 20
1.99065
  0
LWPOLYLINE
  5
89F
330
1E
100
AcDbEntity
  8
LAYER_1
  6
Continuous
 62
     7
100
AcDbPolyline
 90
        2
 70
     0
 43
0.0
 10
-1.132345999999999
 20
1.989593999999999
 10
-1.144637999999999
 20
1.988538999999999
  0
LWPOLYLINE
  5
8A3
330
1E
100
AcDbEntity
  8
LAYER_1
  6
Continuous
 62
     7
100
AcDbPolyline
 90
        2
 70
     0
 43
0.0
 10
-1.132345999999999
 20
1.987429
 10
-1.144637999999999
 20
1.986373999999999
  0
LWPOLYLINE
  5
8A7
330
1E
100
AcDbEntity
  8
LAYER_1
  6
Continuous
 62
     7
100
AcDbPolyline
 90
        2
 70
     0
 43
0.0
 10
-1.132345999999999
 20
1.985318999999999
 10
-1.144637999999999
 20
1.984275999999999
  0
LWPOLYLINE
  5
8AB
330
1E
100
AcDbEntity
  8
LAYER_1
  6
Continuous
 62
     7
100
AcDbPolyline
 90
        2
 70
     0
 43
0.0
 10
-1.132345999999999
 20
1.983164999999999
 10
-1.144637999999999
 20
1.982109999999999
  0
LWPOLYLINE
  5
8AF
330
1E
100
AcDbEntity
  8
LAYER_1
  6
Continuous
 62
     7
100
AcDbPolyline
 90
        2
 70
     0
 43
0.0
 10
-1.132345999999999
 20
1.981054999999999
 10
-1.144637999999999
 20
1.980011999999999
  0
LWPOLYLINE
  5
8B3
330
1E
100
AcDbEntity
  8
LAYER_1
  6
Continuous
 62
     7
100
AcDbPolyline
 90
        2
 70
     0
 43
0.0
 10
-1.132345999999999
 20
1.978886
 10
-1.144637999999999
 20
1.977831
  0
LWPOLYLINE
  5
8B7
330
1E
100
AcDbEntity
  8
LAYER_1
  6
Continuous
 62
     7
100
AcDbPolyline
 90
        2
 70
     0
 43
0.0
 10
-1.132345999999999
 20
2.004566999999999
 10
-1.144637999999999
 20
2.003527999999999
  0
LWPOLYLINE
  5
8BB
330
1E
100
AcDbEntity
  8
LAYER_1
  6
Continuous
 62
     7
100
AcDbPolyline
 90
        2
 70
     0
 43
0.0
 10
-1.132345999999999
 20
2.006665
 10
-1.144637999999999
 20
2.005622
  0
LWPOLYLINE
  5
8BF
330
1E
100
AcDbEntity
  8
LAYER_1
  6
Continuous
 62
     7
100
AcDbPolyline
 90
        2
 70
     0
 43
0.0
 10
-1.132345999999999
 20
2.008831
 10
-1.144637999999999
 20
2.007791
  0
LWPOLYLINE
  5
8C3
330
1E
100
AcDbEntity
  8
LAYER_1
  6
Continuous
 62
     7
100
AcDbPolyline
 90
        4
 70
     0
 43
0.0
 10
-1.050247999999999
 20
1.986165
 10
-1.050734
 20
1.986165
 10
-1.054132999999999
 20
1.986165
 10
-1.063358
 20
1.986165
  0
LWPOLYLINE
  5
8C9
330
1E
100
AcDbEntity
  8
LAYER_1
  6
Continuous
 62
     7
100
AcDbPolyline
 90
        4
 70
     0
 43
0.0
 10
-1.063358
 20
1.986165
 10
-1.080254
 20
1.986172999999999
 10
-1.102435
 20
1.986226999999999
 10
-1.126441
 20
1.986373999999999
  0
LWPOLYLINE
  5
8CF
330
1E
100
AcDbEntity
  8
LAYER_1
  6
Continuous
 62
     7
100
AcDbPolyline
 90
        4
 70
     0
 43
0.0
 10
-1.126441
 20
1.986373999999999
 10
-1.149464
 20
1.98664
 10
-1.171397999999999
 20
1.986995999999999
 10
-1.192790999999999
 20
1.987402
  0
LWPOLYLINE
  5
8D5
330
1E
100
AcDbEntity
  8
LAYER_1
  6
Continuous
 62
     7
100
AcDbPolyline
 90
        4
 70
     0
 43
0.0
 10
-1.192790999999999
 20
1.987402
 10
-1.214070999999999
 20
1.987806999999999
 10
-1.235263999999999
 20
1.988215999999999
 10
-1.256275999999999
 20
1.988622
  0
LWPOLYLINE
  5
8DB
330
1E
100
AcDbEntity
  8
LAYER_1
  6
Continuous
 62
     7
100
AcDbPolyline
 90
        4
 70
     0
 43
0.0
 10
-1.256275999999999
 20
1.988622
 10
-1.277042
 20
1.989034999999999
 10
-1.297625999999999
 20
1.989445
 10
-1.318122
 20
1.989858
  0
LWPOLYLINE
  5
8E1
330
1E
100
AcDbEntity
  8
LAYER_1
  6
Continuous
 62
     7
100
AcDbPolyline
 90
        4
 70
     0
 43
0.0
 10
-1.318122
 20
1.989858
 10
-1.338597999999999
 20
1.990281
 10
-1.359024
 20
1.990799
 10
-1.379358
 20
1.9915
  0
LWPOLYLINE
  5
8E7
330
1E
100
AcDbEntity
  8
LAYER_1
  6
Continuous
 62
     7
100
AcDbPolyline
 90
        4
 70
     0
 43
0.0
 10
-1.379358
 20
1.9915
 10
-1.399567
 20
1.992438
 10
-1.419636
 20
1.993559
 10
-1.439567
 20
1.994775999999999
  0
LWPOLYLINE
  5
8ED
330
1E
100
AcDbEntity
  8
LAYER_1
  6
Continuous
 62
     7
100
AcDbPolyline
 90
        4
 70
     0
 43
0.0
 10
-1.439567
 20
1.994775999999999
 10
-1.459370999999999
 20
1.996016999999999
 10
-1.479087999999999
 20
1.997353999999999
 10
-1.498763999999999
 20
1.998874
  0
LWPOLYLINE
  5
8F3
330
1E
100
AcDbEntity
  8
LAYER_1
  6
Continuous
 62
     7
100
AcDbPolyline
 90
        4
 70
     0
 43
0.0
 10
-1.498763999999999
 20
1.998874
 10
-1.518418
 20
2.000631999999999
 10
-1.538078
 20
2.002568999999999
 10
-1.557731999999999
 20
2.004593999999999
  0
LWPOLYLINE
  5
8F9
330
1E
100
AcDbEntity
  8
LAYER_1
  6
Continuous
 62
     7
100
AcDbPolyline
 90
        4
 70
     0
 43
0.0
 10
-1.557731999999999
 20
2.004593999999999
 10
-1.577382
 20
2.006638999999999
 10
-1.596934
 20
2.008633999999999
 10
-1.616303
 20
2.010539
  0
LWPOLYLINE
  5
8FF
330
1E
100
AcDbEntity
  8
LAYER_1
  6
Continuous
 62
     7
100
AcDbPolyline
 90
        4
 70
     0
 43
0.0
 10
-1.616303
 20
2.010539
 10
-1.635446999999999
 20
2.012309999999999
 10
-1.654445999999999
 20
2.013895
 10
-1.673440999999999
 20
2.015248
  0
LWPOLYLINE
  5
905
330
1E
100
AcDbEntity
  8
LAYER_1
  6
Continuous
 62
     7
100
AcDbPolyline
 90
        4
 70
     0
 43
0.0
 10
-1.673440999999999
 20
2.015248
 10
-1.692568999999999
 20
2.016353
 10
-1.711874
 20
2.017225999999999
 10
-1.731402
 20
2.017913
  0
LWPOLYLINE
  5
90B
330
1E
100
AcDbEntity
  8
LAYER_1
  6
Continuous
 62
     7
100
AcDbPolyline
 90
        4
 70
     0
 43
0.0
 10
-1.731402
 20
2.017913
 10
-1.751186999999999
 20
2.018467999999999
 10
-1.771152
 20
2.018931
 10
-1.791204999999999
 20
2.019346
  0
LWPOLYLINE
  5
911
330
1E
100
AcDbEntity
  8
LAYER_1
  6
Continuous
 62
     7
100
AcDbPolyline
 90
        4
 70
     0
 43
0.0
 10
-1.791204999999999
 20
2.019346
 10
-1.811290999999999
 20
2.019751999999999
 10
-1.831468999999999
 20
2.020108
 10
-1.851831
 20
2.020374
  0
LWPOLYLINE
  5
917
330
1E
100
AcDbEntity
  8
LAYER_1
  6
Continuous
 62
     7
100
AcDbPolyline
 90
        4
 70
     0
 43
0.0
 10
-1.851831
 20
2.020374
 10
-1.872427
 20
2.020521
 10
-1.893208
 20
2.020575
 10
-1.914083
 20
2.020583
  0
LWPOLYLINE
  5
91D
330
1E
100
AcDbEntity
  8
LAYER_1
  6
Continuous
 62
     7
100
AcDbPolyline
 90
        4
 70
     0
 43
0.0
 10
-1.914083
 20
2.020583
 10
-1.93497
 20
2.020575
 10
-1.955858
 20
2.020521
 10
-1.976747999999999
 20
2.020374
  0
LWPOLYLINE
  5
923
330
1E
100
AcDbEntity
  8
LAYER_1
  6
Continuous
 62
     7
100
AcDbPolyline
 90
        4
 70
     0
 43
0.0
 10
-1.976747999999999
 20
2.020374
 10
-1.997638
 20
2.020108
 10
-2.018526
 20
2.019751999999999
 10
-2.039413
 20
2.019346
  0
LWPOLYLINE
  5
929
330
1E
100
AcDbEntity
  8
LAYER_1
  6
Continuous
 62
     7
100
AcDbPolyline
 90
        4
 70
     0
 43
0.0
 10
-2.039413
 20
2.019346
 10
-2.060302999999999
 20
2.018931
 10
-2.081192999999999
 20
2.018467999999999
 10
-2.102083
 20
2.017913
  0
LWPOLYLINE
  5
92F
330
1E
100
AcDbEntity
  8
LAYER_1
  6
Continuous
 62
     7
100
AcDbPolyline
 90
        4
 70
     0
 43
0.0
 10
-2.102083
 20
2.017913
 10
-2.122961999999999
 20
2.017240999999999
 10
-2.143797
 20
2.016477
 10
-2.164538999999999
 20
2.015665
  0
LWPOLYLINE
  5
935
330
1E
100
AcDbEntity
  8
LAYER_1
  6
Continuous
 62
     7
100
AcDbPolyline
 90
        4
 70
     0
 43
0.0
 10
-2.164538999999999
 20
2.015665
 10
-2.185167999999999
 20
2.014838999999999
 10
-2.205700999999999
 20
2.013965999999999
 10
-2.226192999999999
 20
2.012999999999999
  0
LWPOLYLINE
  5
93B
330
1E
100
AcDbEntity
  8
LAYER_1
  6
Continuous
 62
     7
100
AcDbPolyline
 90
        4
 70
     0
 43
0.0
 10
-2.226192999999999
 20
2.012999999999999
 10
-2.246661
 20
2.011911999999999
 10
-2.267088999999999
 20
2.010736
 10
-2.287428999999999
 20
2.009511999999999
  0
LWPOLYLINE
  5
941
330
1E
100
AcDbEntity
  8
LAYER_1
  6
Continuous
 62
     7
100
AcDbPolyline
 90
        4
 70
     0
 43
0.0
 10
-2.287428999999999
 20
2.009511999999999
 10
-2.307631
 20
2.008278999999999
 10
-2.327704
 20
2.006996
 10
-2.347637999999999
 20
2.005622
  0
LWPOLYLINE
  5
947
330
1E
100
AcDbEntity
  8
LAYER_1
  6
Continuous
 62
     7
100
AcDbPolyline
 90
        4
 70
     0
 43
0.0
 10
-2.347637999999999
 20
2.005622
 10
-2.367395999999999
 20
2.004122999999999
 10
-2.386791999999999
 20
2.002483999999999
 10
-2.405593999999999
 20
2.000704999999999
  0
LWPOLYLINE
  5
94D
330
1E
100
AcDbEntity
  8
LAYER_1
  6
Continuous
 62
     7
100
AcDbPolyline
 90
        4
 70
     0
 43
0.0
 10
-2.405593999999999
 20
2.000704999999999
 10
-2.423584999999999
 20
1.998808
 10
-2.440574
 20
1.996813999999999
 10
-2.456386
 20
1.994775999999999
  0
LWPOLYLINE
  5
953
330
1E
100
AcDbEntity
  8
LAYER_1
  6
Continuous
 62
     7
100
AcDbPolyline
 90
        4
 70
     0
 43
0.0
 10
-2.456386
 20
1.994775999999999
 10
-2.470842999999999
 20
1.992731
 10
-2.483843
 20
1.990736
 10
-2.495290999999999
 20
1.988831
  0
LWPOLYLINE
  5
959
330
1E
100
AcDbEntity
  8
LAYER_1
  6
Continuous
 62
     7
100
AcDbPolyline
 90
        4
 70
     0
 43
0.0
 10
-2.495290999999999
 20
1.988831
 10
-2.505161
 20
1.987054
 10
-2.513618
 20
1.985415
 10
-2.520885999999999
 20
1.983913
  0
LWPOLYLINE
  5
95F
330
1E
100
AcDbEntity
  8
LAYER_1
  6
Continuous
 62
     7
100
AcDbPolyline
 90
        4
 70
     0
 43
0.0
 10
-2.520885999999999
 20
1.983913
 10
-2.527184
 20
1.982541999999999
 10
-2.532615
 20
1.981259999999999
 10
-2.537275999999999
 20
1.980027999999999
  0
LWPOLYLINE
  5
965
330
1E
100
AcDbEntity
  8
LAYER_1
  6
Continuous
 62
     7
100
AcDbPolyline
 90
        4
 70
     0
 43
0.0
 10
-2.537275999999999
 20
1.980027999999999
 10
-2.541261999999999
 20
1.978793999999999
 10
-2.544697999999999
 20
1.977563999999999
 10
-2.547719999999999
 20
1.976331
  0
LWPOLYLINE
  5
96B
330
1E
100
AcDbEntity
  8
LAYER_1
  6
Continuous
 62
     7
100
AcDbPolyline
 90
        4
 70
     0
 43
0.0
 10
-2.547719999999999
 20
1.976331
 10
-2.550463999999999
 20
1.975108999999999
 10
-2.552976999999999
 20
1.973881999999999
 10
-2.555302999999999
 20
1.972649999999999
  0
LWPOLYLINE
  5
971
330
1E
100
AcDbEntity
  8
LAYER_1
  6
Continuous
 62
     7
100
AcDbPolyline
 90
        4
 70
     0
 43
0.0
 10
-2.555302999999999
 20
1.972649999999999
 10
-2.557477
 20
1.971424999999999
 10
-2.559467999999999
 20
1.970195999999999
 10
-2.561231999999999
 20
1.968968999999999
  0
LWPOLYLINE
  5
977
330
1E
100
AcDbEntity
  8
LAYER_1
  6
Continuous
 62
     7
100
AcDbPolyline
 90
        4
 70
     0
 43
0.0
 10
-2.561231999999999
 20
1.968968999999999
 10
-2.562745999999999
 20
1.967729
 10
-2.564029
 20
1.966450999999999
 10
-2.565122
 20
1.965083
  0
LWPOLYLINE
  5
97D
330
1E
100
AcDbEntity
  8
LAYER_1
  6
Continuous
 62
     7
100
AcDbPolyline
 90
        4
 70
     0
 43
0.0
 10
-2.565122
 20
1.965083
 10
-2.566079999999999
 20
1.963579999999999
 10
-2.566899999999999
 20
1.961991999999999
 10
-2.567583
 20
1.960358
  0
LWPOLYLINE
  5
983
330
1E
100
AcDbEntity
  8
LAYER_1
  6
Continuous
 62
     7
100
AcDbPolyline
 90
        4
 70
     0
 43
0.0
 10
-2.567583
 20
1.960358
 10
-2.568125999999999
 20
1.958729
 10
-2.568481999999999
 20
1.957093999999999
 10
-2.56861
 20
1.955457
  0
LWPOLYLINE
  5
989
330
1E
100
AcDbEntity
  8
LAYER_1
  6
Continuous
 62
     7
100
AcDbPolyline
 90
        4
 70
     0
 43
0.0
 10
-2.56861
 20
1.955457
 10
-2.56849
 20
1.953818
 10
-2.568186999999999
 20
1.952177999999999
 10
-2.567791
 20
1.950539
  0
LWPOLYLINE
  5
98F
330
1E
100
AcDbEntity
  8
LAYER_1
  6
Continuous
 62
     7
100
AcDbPolyline
 90
        4
 70
     0
 43
0.0
 10
-2.567791
 20
1.950539
 10
-2.567366999999999
 20
1.948900999999999
 10
-2.566849
 20
1.947263
 10
-2.566149999999999
 20
1.945622
  0
LWPOLYLINE
  5
995
330
1E
100
AcDbEntity
  8
LAYER_1
  6
Continuous
 62
     7
100
AcDbPolyline
 90
        4
 70
     0
 43
0.0
 10
-2.566149999999999
 20
1.945622
 10
-2.565202999999999
 20
1.943991999999999
 10
-2.564029
 20
1.942407
 10
-2.562664999999999
 20
1.940913
  0
LWPOLYLINE
  5
99B
330
1E
100
AcDbEntity
  8
LAYER_1
  6
Continuous
 62
     7
100
AcDbPolyline
 90
        4
 70
     0
 43
0.0
 10
-2.562664999999999
 20
1.940913
 10
-2.561163999999999
 20
1.939541999999999
 10
-2.55953
 20
1.938259999999999
 10
-2.557764
 20
1.937027999999999
  0
LWPOLYLINE
  5
9A1
330
1E
100
AcDbEntity
  8
LAYER_1
  6
Continuous
 62
     7
100
AcDbPolyline
 90
        4
 70
     0
 43
0.0
 10
-2.557764
 20
1.937027999999999
 10
-2.555833999999999
 20
1.935793999999999
 10
-2.553679999999999
 20
1.934563999999999
 10
-2.551204999999999
 20
1.933331
  0
LWPOLYLINE
  5
9A7
330
1E
100
AcDbEntity
  8
LAYER_1
  6
Continuous
 62
     7
100
AcDbPolyline
 90
        4
 70
     0
 43
0.0
 10
-2.551204999999999
 20
1.933331
 10
-2.548343999999999
 20
1.932106
 10
-2.545120999999999
 20
1.930876999999999
 10
-2.541583
 20
1.92965
  0
LWPOLYLINE
  5
9AD
330
1E
100
AcDbEntity
  8
LAYER_1
  6
Continuous
 62
     7
100
AcDbPolyline
 90
        4
 70
     0
 43
0.0
 10
-2.541583
 20
1.92965
 10
-2.537714999999999
 20
1.928409999999999
 10
-2.533351999999999
 20
1.927127
 10
-2.528264
 20
1.925748
  0
LWPOLYLINE
  5
9B3
330
1E
100
AcDbEntity
  8
LAYER_1
  6
Continuous
 62
     7
100
AcDbPolyline
 90
        4
 70
     0
 43
0.0
 10
-2.528264
 20
1.925748
 10
-2.522234
 20
1.924256
 10
-2.515114
 20
1.92267
 10
-2.506763999999999
 20
1.921039
  0
LWPOLYLINE
  5
9B9
330
1E
100
AcDbEntity
  8
LAYER_1
  6
Continuous
 62
     7
100
AcDbPolyline
 90
        4
 70
     0
 43
0.0
 10
-2.506763999999999
 20
1.921039
 10
-2.497052999999999
 20
1.919393999999999
 10
-2.485888
 20
1.917700999999999
 10
-2.473177
 20
1.915913
  0
LWPOLYLINE
  5
9BF
330
1E
100
AcDbEntity
  8
LAYER_1
  6
Continuous
 62
     7
100
AcDbPolyline
 90
        4
 70
     0
 43
0.0
 10
-2.473177
 20
1.915913
 10
-2.458879
 20
1.914016999999999
 10
-2.443166999999999
 20
1.912022999999999
 10
-2.426275999999999
 20
1.909983999999999
  0
LWPOLYLINE
  5
9C5
330
1E
100
AcDbEntity
  8
LAYER_1
  6
Continuous
 62
     7
100
AcDbPolyline
 90
        4
 70
     0
 43
0.0
 10
-2.426275999999999
 20
1.909983999999999
 10
-2.408431
 20
1.907948
 10
-2.389854
 20
1.906006
 10
-2.370775999999999
 20
1.904247999999999
  0
LWPOLYLINE
  5
9CB
330
1E
100
AcDbEntity
  8
LAYER_1
  6
Continuous
 62
     7
100
AcDbPolyline
 90
        4
 70
     0
 43
0.0
 10
-2.370775999999999
 20
1.904247999999999
 10
-2.351391999999999
 20
1.902731999999999
 10
-2.331732
 20
1.901398
 10
-2.311790999999999
 20
1.90015
  0
LWPOLYLINE
  5
9D1
330
1E
100
AcDbEntity
  8
LAYER_1
  6
Continuous
 62
     7
100
AcDbPolyline
 90
        4
 70
     0
 43
0.0
 10
-2.311790999999999
 20
1.90015
 10
-2.291600999999999
 20
1.898925
 10
-2.27123
 20
1.897695999999999
 10
-2.250763999999999
 20
1.896468999999999
  0
LWPOLYLINE
  5
9D7
330
1E
100
AcDbEntity
  8
LAYER_1
  6
Continuous
 62
     7
100
AcDbPolyline
 90
        4
 70
     0
 43
0.0
 10
-2.250763999999999
 20
1.896468999999999
 10
-2.23028
 20
1.895251999999999
 10
-2.209745
 20
1.894131
 10
-2.189122
 20
1.893193
  0
LWPOLYLINE
  5
9DD
330
1E
100
AcDbEntity
  8
LAYER_1
  6
Continuous
 62
     7
100
AcDbPolyline
 90
        4
 70
     0
 43
0.0
 10
-2.189122
 20
1.893193
 10
-2.168376999999999
 20
1.892486
 10
-2.147539
 20
1.891913999999999
 10
-2.126665
 20
1.891346
  0
LWPOLYLINE
  5
9E3
330
1E
100
AcDbEntity
  8
LAYER_1
  6
Continuous
 62
     7
100
AcDbPolyline
 90
        4
 70
     0
 43
0.0
 10
-2.126665
 20
1.891346
 10
-2.105773
 20
1.890679
 10
-2.084877
 20
1.889968
 10
-2.063984
 20
1.889302999999999
  0
LWPOLYLINE
  5
9E9
330
1E
100
AcDbEntity
  8
LAYER_1
  6
Continuous
 62
     7
100
AcDbPolyline
 90
        4
 70
     0
 43
0.0
 10
-2.063984
 20
1.889302999999999
 10
-2.043102
 20
1.888758
 10
-2.022209
 20
1.888345
 10
-2.001319
 20
1.888066999999999
  0
LWPOLYLINE
  5
9EF
330
1E
100
AcDbEntity
  8
LAYER_1
  6
Continuous
 62
     7
100
AcDbPolyline
 90
        4
 70
     0
 43
0.0
 10
-2.001319
 20
1.888066999999999
 10
-1.980429999999999
 20
1.887931
 10
-1.959543999999999
 20
1.887881
 10
-1.938665
 20
1.887874
  0
LWPOLYLINE
  5
9F5
330
1E
100
AcDbEntity
  8
LAYER_1
  6
Continuous
 62
     7
100
AcDbPolyline
 90
        4
 70
     0
 43
0.0
 10
-1.938665
 20
1.887874
 10
-1.917779999999999
 20
1.887874
 10
-1.896938999999999
 20
1.887874
 10
-1.876192999999999
 20
1.887874
  0
LWPOLYLINE
  5
9FB
330
1E
100
AcDbEntity
  8
LAYER_1
  6
Continuous
 62
     7
100
AcDbPolyline
 90
        4
 70
     0
 43
0.0
 10
-1.876192999999999
 20
1.887874
 10
-1.855565
 20
1.887881
 10
-1.834981999999999
 20
1.887931
 10
-1.814346
 20
1.888066999999999
  0
LWPOLYLINE
  5
A01
330
1E
100
AcDbEntity
  8
LAYER_1
  6
Continuous
 62
     7
100
AcDbPolyline
 90
        4
 70
     0
 43
0.0
 10
-1.814346
 20
1.888066999999999
 10
-1.793611
 20
1.888345
 10
-1.772829999999999
 20
1.888758
 10
-1.752093999999999
 20
1.889302999999999
  0
LWPOLYLINE
  5
A07
330
1E
100
AcDbEntity
  8
LAYER_1
  6
Continuous
 62
     7
100
AcDbPolyline
 90
        4
 70
     0
 43
0.0
 10
-1.752093999999999
 20
1.889302999999999
 10
-1.731465999999999
 20
1.889974999999999
 10
-1.710933
 20
1.890741
 10
-1.690441
 20
1.891554999999999
  0
LWPOLYLINE
  5
A0D
330
1E
100
AcDbEntity
  8
LAYER_1
  6
Continuous
 62
     7
100
AcDbPolyline
 90
        4
 70
     0
 43
0.0
 10
-1.690441
 20
1.891554999999999
 10
-1.669958
 20
1.892381999999999
 10
-1.649424999999999
 20
1.893254999999999
 10
-1.628803
 20
1.894219999999999
  0
LWPOLYLINE
  5
A13
330
1E
100
AcDbEntity
  8
LAYER_1
  6
Continuous
 62
     7
100
AcDbPolyline
 90
        4
 70
     0
 43
0.0
 10
-1.628803
 20
1.894219999999999
 10
-1.608045
 20
1.895298
 10
-1.587156
 20
1.896472999999999
 10
-1.566138
 20
1.897693
  0
LWPOLYLINE
  5
A19
330
1E
100
AcDbEntity
  8
LAYER_1
  6
Continuous
 62
     7
100
AcDbPolyline
 90
        4
 70
     0
 43
0.0
 10
-1.566138
 20
1.897693
 10
-1.54497
 20
1.898925
 10
-1.523667
 20
1.900154
 10
-1.502232
 20
1.901386
  0
LWPOLYLINE
  5
A1F
330
1E
100
AcDbEntity
  8
LAYER_1
  6
Continuous
 62
     7
100
AcDbPolyline
 90
        4
 70
     0
 43
0.0
 10
-1.502232
 20
1.901386
 10
-1.480679
 20
1.902613
 10
-1.459080999999999
 20
1.903841999999999
 10
-1.437528
 20
1.905066999999999
  0
LWPOLYLINE
  5
A25
330
1E
100
AcDbEntity
  8
LAYER_1
  6
Continuous
 62
     7
100
AcDbPolyline
 90
        4
 70
     0
 43
0.0
 10
-1.437528
 20
1.905066999999999
 10
-1.416084999999999
 20
1.9063
 10
-1.394727999999999
 20
1.907525999999999
 10
-1.373412999999999
 20
1.908747999999999
  0
LWPOLYLINE
  5
A2B
330
1E
100
AcDbEntity
  8
LAYER_1
  6
Continuous
 62
     7
100
AcDbPolyline
 90
        4
 70
     0
 43
0.0
 10
-1.373412999999999
 20
1.908747999999999
 10
-1.352119
 20
1.909972
 10
-1.330821999999999
 20
1.911147
 10
-1.309528
 20
1.912231999999999
  0
LWPOLYLINE
  5
A31
330
1E
100
AcDbEntity
  8
LAYER_1
  6
Continuous
 62
     7
100
AcDbPolyline
 90
        4
 70
     0
 43
0.0
 10
-1.309528
 20
1.912231999999999
 10
-1.288232
 20
1.913200999999999
 10
-1.266987
 20
1.914075
 10
-1.245830999999999
 20
1.914902
  0
LWPOLYLINE
  5
A37
330
1E
100
AcDbEntity
  8
LAYER_1
  6
Continuous
 62
     7
100
AcDbPolyline
 90
        4
 70
     0
 43
0.0
 10
-1.245830999999999
 20
1.914902
 10
-1.224795
 20
1.91572
 10
-1.203853
 20
1.916539
 10
-1.182957
 20
1.917358
  0
LWPOLYLINE
  5
A3D
330
1E
100
AcDbEntity
  8
LAYER_1
  6
Continuous
 62
     7
100
AcDbPolyline
 90
        4
 70
     0
 43
0.0
 10
-1.182957
 20
1.917358
 10
-1.162013999999999
 20
1.918177999999999
 10
-1.140754
 20
1.918999
 10
-1.118857999999999
 20
1.919819
  0
LWPOLYLINE
  5
A43
330
1E
100
AcDbEntity
  8
LAYER_1
  6
Continuous
 62
     7
100
AcDbPolyline
 90
        4
 70
     0
 43
0.0
 10
-1.118857999999999
 20
1.919819
 10
-1.096546
 20
1.920622
 10
-1.076241999999999
 20
1.921333
 10
-1.060902
 20
1.921858
  0
LWPOLYLINE
  5
A49
330
1E
100
AcDbEntity
  8
LAYER_1
  6
Continuous
 62
     7
100
AcDbPolyline
 90
        4
 70
     0
 43
0.0
 10
-1.060902
 20
1.921858
 10
-1.052545999999999
 20
1.922152
 10
-1.049466999999999
 20
1.922259999999999
 10
-1.049028
 20
1.922275999999999
  0
LWPOLYLINE
  5
A4F
330
1E
100
AcDbEntity
  8
LAYER_1
  6
Continuous
 62
     7
100
AcDbPolyline
 90
        2
 70
     0
 43
0.0
 10
-1.039193
 20
1.986176999999999
 10
-1.039193
 20
1.919819
  0
LWPOLYLINE
  5
A53
330
1E
100
AcDbEntity
  8
LAYER_1
  6
Continuous
 62
     7
100
AcDbPolyline
 90
        4
 70
     1
 43
0.0
 10
-1.415456999999999
 20
2.098665
 10
-1.394862
 20
2.098665
 10
-1.394862
 20
2.112114
 10
-1.415456999999999
 20
2.112114
  0
LWPOLYLINE
  5
A59
330
1E
100
AcDbEntity
  8
LAYER_1
  6
Continuous
 62
     7
100
AcDbPolyline
 90
        4
 70
     1
 43
0.0
 10
-1.411843
 20
1.907802999999999
 10
-1.398479999999999
 20
1.907802999999999
 10
-1.398479999999999
 20
2.098583
 10
-1.411843
 20
2.098583
  0
LWPOLYLINE
  5
A5F
330
1E
100
AcDbEntity
  8
LAYER_1
  6
Continuous
 62
     7
100
AcDbPolyline
 90
        2
 70
     0
 43
0.0
 10
-1.399012
 20
1.930083
 10
-1.411303
 20
1.929027999999999
  0
LWPOLYLINE
  5
A63
330
1E
100
AcDbEntity
  8
LAYER_1
  6
Continuous
 62
     7
100
AcDbPolyline
 90
        2
 70
     0
 43
0.0
 10
-1.399012
 20
1.927968999999999
 10
-1.411303
 20
1.926929
  0
LWPOLYLINE
  5
A67
330
1E
100
AcDbEntity
  8
LAYER_1
  6
Continuous
 62
     7
100
AcDbPolyline
 90
        2
 70
     0
 43
0.0
 10
-1.399012
 20
1.925802999999999
 10
-1.411303
 20
1.924747999999999
  0
LWPOLYLINE
  5
A6B
330
1E
100
AcDbEntity
  8
LAYER_1
  6
Continuous
 62
     7
100
AcDbPolyline
 90
        2
 70
     0
 43
0.0
 10
-1.399012
 20
1.923704999999999
 10
-1.411303
 20
1.922593999999999
  0
LWPOLYLINE
  5
A6F
330
1E
100
AcDbEntity
  8
LAYER_1
  6
Continuous
 62
     7
100
AcDbPolyline
 90
        2
 70
     0
 43
0.0
 10
-1.399012
 20
1.921538999999999
 10
-1.411303
 20
1.920484
  0
LWPOLYLINE
  5
A73
330
1E
100
AcDbEntity
  8
LAYER_1
  6
Continuous
 62
     7
100
AcDbPolyline
 90
        2
 70
     0
 43
0.0
 10
-1.399012
 20
1.919440999999999
 10
-1.411303
 20
1.918318999999999
  0
LWPOLYLINE
  5
A77
330
1E
100
AcDbEntity
  8
LAYER_1
  6
Continuous
 62
     7
100
AcDbPolyline
 90
        2
 70
     0
 43
0.0
 10
-1.399012
 20
1.917263999999999
 10
-1.411303
 20
1.91622
  0
LWPOLYLINE
  5
A7B
330
1E
100
AcDbEntity
  8
LAYER_1
  6
Continuous
 62
     7
100
AcDbPolyline
 90
        2
 70
     0
 43
0.0
 10
-1.399012
 20
1.915109999999999
 10
-1.411303
 20
1.914054999999999
  0
LWPOLYLINE
  5
A7F
330
1E
100
AcDbEntity
  8
LAYER_1
  6
Continuous
 62
     7
100
AcDbPolyline
 90
        2
 70
     0
 43
0.0
 10
-1.399012
 20
1.913
 10
-1.411303
 20
1.911940999999999
  0
LWPOLYLINE
  5
A83
330
1E
100
AcDbEntity
  8
LAYER_1
  6
Continuous
 62
     7
100
AcDbPolyline
 90
        2
 70
     0
 43
0.0
 10
-1.399012
 20
1.910831
 10
-1.411303
 20
1.909775999999999
  0
LWPOLYLINE
  5
A87
330
1E
100
AcDbEntity
  8
LAYER_1
  6
Continuous
 62
     7
100
AcDbPolyline
 90
        2
 70
     0
 43
0.0
 10
-1.399012
 20
1.908731999999999
 10
-1.411303
 20
1.907676999999999
  0
LWPOLYLINE
  5
A8B
330
1E
100
AcDbEntity
  8
LAYER_1
  6
Continuous
 62
     7
100
AcDbPolyline
 90
        2
 70
     0
 43
0.0
 10
-1.399012
 20
1.932231999999999
 10
-1.411303
 20
1.931193
  0
LWPOLYLINE
  5
A8F
330
1E
100
AcDbEntity
  8
LAYER_1
  6
Continuous
 62
     7
100
AcDbPolyline
 90
        2
 70
     0
 43
0.0
 10
-1.399012
 20
1.934345999999999
 10
-1.411303
 20
1.933291
  0
LWPOLYLINE
  5
A93
330
1E
100
AcDbEntity
  8
LAYER_1
  6
Continuous
 62
     7
100
AcDbPolyline
 90
        2
 70
     0
 43
0.0
 10
-1.399012
 20
1.936511999999999
 10
-1.411303
 20
1.935468999999999
  0
LWPOLYLINE
  5
A97
330
1E
100
AcDbEntity
  8
LAYER_1
  6
Continuous
 62
     7
100
AcDbPolyline
 90
        2
 70
     0
 43
0.0
 10
-1.399012
 20
1.962122
 10
-1.411303
 20
1.961083
  0
LWPOLYLINE
  5
A9B
330
1E
100
AcDbEntity
  8
LAYER_1
  6
Continuous
 62
     7
100
AcDbPolyline
 90
        2
 70
     0
 43
0.0
 10
-1.399012
 20
1.960027999999999
 10
-1.411303
 20
1.958968999999999
  0
LWPOLYLINE
  5
A9F
330
1E
100
AcDbEntity
  8
LAYER_1
  6
Continuous
 62
     7
100
AcDbPolyline
 90
        2
 70
     0
 43
0.0
 10
-1.399012
 20
1.957858
 10
-1.411303
 20
1.956802999999999
  0
LWPOLYLINE
  5
AA3
330
1E
100
AcDbEntity
  8
LAYER_1
  6
Continuous
 62
     7
100
AcDbPolyline
 90
        2
 70
     0
 43
0.0
 10
-1.399012
 20
1.955763999999999
 10
-1.411303
 20
1.954638
  0
LWPOLYLINE
  5
AA7
330
1E
100
AcDbEntity
  8
LAYER_1
  6
Continuous
 62
     7
100
AcDbPolyline
 90
        2
 70
     0
 43
0.0
 10
-1.399012
 20
1.953593999999999
 10
-1.411303
 20
1.952538999999999
  0
LWPOLYLINE
  5
AAB
330
1E
100
AcDbEntity
  8
LAYER_1
  6
Continuous
 62
     7
100
AcDbPolyline
 90
        2
 70
     0
 43
0.0
 10
-1.399012
 20
1.951483999999999
 10
-1.411303
 20
1.950374
  0
LWPOLYLINE
  5
AAF
330
1E
100
AcDbEntity
  8
LAYER_1
  6
Continuous
 62
     7
100
AcDbPolyline
 90
        2
 70
     0
 43
0.0
 10
-1.399012
 20
1.949318999999999
 10
-1.411303
 20
1.948263999999999
  0
LWPOLYLINE
  5
AB3
330
1E
100
AcDbEntity
  8
LAYER_1
  6
Continuous
 62
     7
100
AcDbPolyline
 90
        2
 70
     0
 43
0.0
 10
-1.399012
 20
1.947149999999999
 10
-1.411303
 20
1.946109999999999
  0
LWPOLYLINE
  5
AB7
330
1E
100
AcDbEntity
  8
LAYER_1
  6
Continuous
 62
     7
100
AcDbPolyline
 90
        2
 70
     0
 43
0.0
 10
-1.399012
 20
1.945054999999999
 10
-1.411303
 20
1.943999999999999
  0
LWPOLYLINE
  5
ABB
330
1E
100
AcDbEntity
  8
LAYER_1
  6
Continuous
 62
     7
100
AcDbPolyline
 90
        2
 70
     0
 43
0.0
 10
-1.399012
 20
1.942886
 10
-1.411303
 20
1.941831
  0
LWPOLYLINE
  5
ABF
330
1E
100
AcDbEntity
  8
LAYER_1
  6
Continuous
 62
     7
100
AcDbPolyline
 90
        2
 70
     0
 43
0.0
 10
-1.399012
 20
1.940775999999999
 10
-1.411303
 20
1.939732
  0
LWPOLYLINE
  5
AC3
330
1E
100
AcDbEntity
  8
LAYER_1
  6
Continuous
 62
     7
100
AcDbPolyline
 90
        2
 70
     0
 43
0.0
 10
-1.399012
 20
1.938609999999999
 10
-1.411303
 20
1.937566999999999
  0
LWPOLYLINE
  5
AC7
330
1E
100
AcDbEntity
  8
LAYER_1
  6
Continuous
 62
     7
100
AcDbPolyline
 90
        2
 70
     0
 43
0.0
 10
-1.399012
 20
1.964291
 10
-1.411303
 20
1.963247999999999
  0
LWPOLYLINE
  5
ACB
330
1E
100
AcDbEntity
  8
LAYER_1
  6
Continuous
 62
     7
100
AcDbPolyline
 90
        2
 70
     0
 43
0.0
 10
-1.399012
 20
1.966402
 10
-1.411303
 20
1.965345999999999
  0
LWPOLYLINE
  5
ACF
330
1E
100
AcDbEntity
  8
LAYER_1
  6
Continuous
 62
     7
100
AcDbPolyline
 90
        2
 70
     0
 43
0.0
 10
-1.399012
 20
1.968566999999999
 10
-1.411303
 20
1.967511999999999
  0
LWPOLYLINE
  5
AD3
330
1E
100
AcDbEntity
  8
LAYER_1
  6
Continuous
 62
     7
100
AcDbPolyline
 90
        4
 70
     0
 43
0.0
 10
-0.9376219999999999
 20
2.058845999999999
 10
-0.937701
 20
2.058858
 10
-0.9382569999999999
 20
2.058936
 10
-0.9397639999999999
 20
2.059149999999999
  0
LWPOLYLINE
  5
AD9
330
1E
100
AcDbEntity
  8
LAYER_1
  6
Continuous
 62
     7
100
AcDbPolyline
 90
        4
 70
     0
 43
0.0
 10
-0.9397639999999999
 20
2.059149999999999
 10
-0.942567
 20
2.059565999999999
 10
-0.946578
 20
2.060159999999999
 10
-0.951567
 20
2.060902
  0
LWPOLYLINE
  5
ADF
330
1E
100
AcDbEntity
  8
LAYER_1
  6
Continuous
 62
     7
100
AcDbPolyline
 90
        4
 70
     0
 43
0.0
 10
-0.951567
 20
2.060902
 10
-0.9573219999999999
 20
2.061752
 10
-0.9635899999999999
 20
2.062675
 10
-0.9701219999999999
 20
2.063638
  0
LWPOLYLINE
  5
AE5
330
1E
100
AcDbEntity
  8
LAYER_1
  6
Continuous
 62
     7
100
AcDbPolyline
 90
        4
 70
     0
 43
0.0
 10
-0.9701219999999999
 20
2.063638
 10
-0.9767239999999999
 20
2.064611
 10
-0.98336
 20
2.065586
 10
-0.990028
 20
2.066567
  0
LWPOLYLINE
  5
AEB
330
1E
100
AcDbEntity
  8
LAYER_1
  6
Continuous
 62
     7
100
AcDbPolyline
 90
        4
 70
     0
 43
0.0
 10
-0.990028
 20
2.066567
 10
-0.996695
 20
2.067558
 10
-1.003387999999999
 20
2.068550999999999
 10
-1.010094
 20
2.069538999999999
  0
LWPOLYLINE
  5
AF1
330
1E
100
AcDbEntity
  8
LAYER_1
  6
Continuous
 62
     7
100
AcDbPolyline
 90
        4
 70
     0
 43
0.0
 10
-1.010094
 20
2.069538999999999
 10
-1.016807999999999
 20
2.070537999999999
 10
-1.023527
 20
2.071531
 10
-1.030248
 20
2.072511999999999
  0
LWPOLYLINE
  5
AF7
330
1E
100
AcDbEntity
  8
LAYER_1
  6
Continuous
 62
     7
100
AcDbPolyline
 90
        4
 70
     0
 43
0.0
 10
-1.030248
 20
2.072511999999999
 10
-1.036969
 20
2.073479999999999
 10
-1.043687999999999
 20
2.074441999999999
 10
-1.050402
 20
2.075401999999999
  0
LWPOLYLINE
  5
AFD
330
1E
100
AcDbEntity
  8
LAYER_1
  6
Continuous
 62
     7
100
AcDbPolyline
 90
        4
 70
     0
 43
0.0
 10
-1.050402
 20
2.075401999999999
 10
-1.057104
 20
2.076354
 10
-1.063768999999999
 20
2.077294999999999
 10
-1.070357999999999
 20
2.078219999999999
  0
LWPOLYLINE
  5
B03
330
1E
100
AcDbEntity
  8
LAYER_1
  6
Continuous
 62
     7
100
AcDbPolyline
 90
        4
 70
     0
 43
0.0
 10
-1.070357999999999
 20
2.078219999999999
 10
-1.076842999999999
 20
2.079123
 10
-1.083128
 20
2.079993999999999
 10
-1.089121999999999
 20
2.080831
  0
LWPOLYLINE
  5
B09
330
1E
100
AcDbEntity
  8
LAYER_1
  6
Continuous
 62
     7
100
AcDbPolyline
 90
        4
 70
     0
 43
0.0
 10
-1.089121999999999
 20
2.080831
 10
-1.094781
 20
2.081652
 10
-1.100295999999999
 20
2.082472999999999
 10
-1.105929
 20
2.083331
  0
LWPOLYLINE
  5
B0F
330
1E
100
AcDbEntity
  8
LAYER_1
  6
Continuous
 62
     7
100
AcDbPolyline
 90
        4
 70
     0
 43
0.0
 10
-1.105929
 20
2.083331
 10
-1.111858999999999
 20
2.084265
 10
-1.118063
 20
2.085259999999999
 10
-1.124457
 20
2.086275999999999
  0
LWPOLYLINE
  5
B15
330
1E
100
AcDbEntity
  8
LAYER_1
  6
Continuous
 62
     7
100
AcDbPolyline
 90
        4
 70
     0
 43
0.0
 10
-1.124457
 20
2.086275999999999
 10
-1.130959999999999
 20
2.087298
 10
-1.137531999999999
 20
2.088309
 10
-1.144137999999999
 20
2.089302999999999
  0
LWPOLYLINE
  5
B1B
330
1E
100
AcDbEntity
  8
LAYER_1
  6
Continuous
 62
     7
100
AcDbPolyline
 90
        4
 70
     0
 43
0.0
 10
-1.144137999999999
 20
2.089302999999999
 10
-1.150749
 20
2.090291
 10
-1.157362999999999
 20
2.091256
 10
-1.163983999999999
 20
2.092204999999999
  0
LWPOLYLINE
  5
B21
330
1E
100
AcDbEntity
  8
LAYER_1
  6
Continuous
 62
     7
100
AcDbPolyline
 90
        4
 70
     0
 43
0.0
 10
-1.163983999999999
 20
2.092204999999999
 10
-1.170614
 20
2.093137
 10
-1.177247999999999
 20
2.094047999999999
 10
-1.183886
 20
2.094940999999999
  0
LWPOLYLINE
  5
B27
330
1E
100
AcDbEntity
  8
LAYER_1
  6
Continuous
 62
     7
100
AcDbPolyline
 90
        4
 70
     0
 43
0.0
 10
-1.183886
 20
2.094940999999999
 10
-1.190525999999999
 20
2.095822
 10
-1.197165
 20
2.096686999999999
 10
-1.203802999999999
 20
2.097538999999999
  0
LWPOLYLINE
  5
B2D
330
1E
100
AcDbEntity
  8
LAYER_1
  6
Continuous
 62
     7
100
AcDbPolyline
 90
        4
 70
     0
 43
0.0
 10
-1.203802999999999
 20
2.097538999999999
 10
-1.210442
 20
2.098368
 10
-1.217081999999999
 20
2.099184
 10
-1.22372
 20
2.099984
  0
LWPOLYLINE
  5
B33
330
1E
100
AcDbEntity
  8
LAYER_1
  6
Continuous
 62
     7
100
AcDbPolyline
 90
        4
 70
     0
 43
0.0
 10
-1.22372
 20
2.099984
 10
-1.230358999999999
 20
2.100763
 10
-1.237001
 20
2.101520999999999
 10
-1.243649999999999
 20
2.102263999999999
  0
LWPOLYLINE
  5
B39
330
1E
100
AcDbEntity
  8
LAYER_1
  6
Continuous
 62
     7
100
AcDbPolyline
 90
        4
 70
     0
 43
0.0
 10
-1.243649999999999
 20
2.102263999999999
 10
-1.250293
 20
2.10299
 10
-1.256933999999999
 20
2.103696999999999
 10
-1.263567
 20
2.104385999999999
  0
LWPOLYLINE
  5
B3F
330
1E
100
AcDbEntity
  8
LAYER_1
  6
Continuous
 62
     7
100
AcDbPolyline
 90
        4
 70
     0
 43
0.0
 10
-1.263567
 20
2.104385999999999
 10
-1.270200999999999
 20
2.105052999999999
 10
-1.276829999999999
 20
2.105696
 10
-1.283457
 20
2.106319
  0
LWPOLYLINE
  5
B45
330
1E
100
AcDbEntity
  8
LAYER_1
  6
Continuous
 62
     7
100
AcDbPolyline
 90
        4
 70
     0
 43
0.0
 10
-1.283457
 20
2.106319
 10
-1.290081999999999
 20
2.10692
 10
-1.296705999999999
 20
2.107502999999999
 10
-1.303331
 20
2.108066999999999
  0
LWPOLYLINE
  5
B4B
330
1E
100
AcDbEntity
  8
LAYER_1
  6
Continuous
 62
     7
100
AcDbPolyline
 90
        4
 70
     0
 43
0.0
 10
-1.303331
 20
2.108066999999999
 10
-1.309959
 20
2.1086
 10
-1.316587
 20
2.109113999999999
 10
-1.323204999999999
 20
2.109609999999999
  0
LWPOLYLINE
  5
B51
330
1E
100
AcDbEntity
  8
LAYER_1
  6
Continuous
 62
     7
100
AcDbPolyline
 90
        4
 70
     0
 43
0.0
 10
-1.323204999999999
 20
2.109609999999999
 10
-1.329825
 20
2.110075999999999
 10
-1.336432999999999
 20
2.110522
 10
-1.343028
 20
2.110940999999999
  0
LWPOLYLINE
  5
B57
330
1E
100
AcDbEntity
  8
LAYER_1
  6
Continuous
 62
     7
100
AcDbPolyline
 90
        4
 70
     0
 43
0.0
 10
-1.343028
 20
2.110940999999999
 10
-1.349629999999999
 20
2.111331999999999
 10
-1.356219
 20
2.111695999999999
 10
-1.362802999999999
 20
2.112038999999999
  0
LWPOLYLINE
  5
B5D
330
1E
100
AcDbEntity
  8
LAYER_1
  6
Continuous
 62
     7
100
AcDbPolyline
 90
        4
 70
     0
 43
0.0
 10
-1.362802999999999
 20
2.112038999999999
 10
-1.369381999999999
 20
2.112352
 10
-1.375952
 20
2.112643999999999
 10
-1.382512
 20
2.112902
  0
LWPOLYLINE
  5
B63
330
1E
100
AcDbEntity
  8
LAYER_1
  6
Continuous
 62
     7
100
AcDbPolyline
 90
        4
 70
     0
 43
0.0
 10
-1.382512
 20
2.112902
 10
-1.389059
 20
2.113119999999999
 10
-1.395593
 20
2.113304
 10
-1.402121999999999
 20
2.113456999999999
  0
LWPOLYLINE
  5
B69
330
1E
100
AcDbEntity
  8
LAYER_1
  6
Continuous
 62
     7
100
AcDbPolyline
 90
        4
 70
     0
 43
0.0
 10
-1.402121999999999
 20
2.113456999999999
 10
-1.408635
 20
2.113566999999999
 10
-1.415137999999999
 20
2.113643
 10
-1.421621999999999
 20
2.113677
  0
LWPOLYLINE
  5
B6F
330
1E
100
AcDbEntity
  8
LAYER_1
  6
Continuous
 62
     7
100
AcDbPolyline
 90
        4
 70
     0
 43
0.0
 10
-1.421621999999999
 20
2.113677
 10
-1.428104999999999
 20
2.1137
 10
-1.43456
 20
2.113679
 10
-1.440995999999999
 20
2.113609999999999
  0
LWPOLYLINE
  5
B75
330
1E
100
AcDbEntity
  8
LAYER_1
  6
Continuous
 62
     7
100
AcDbPolyline
 90
        4
 70
     0
 43
0.0
 10
-1.440995999999999
 20
2.113609999999999
 10
-1.447421999999999
 20
2.113488999999999
 10
-1.453828
 20
2.113322999999999
 10
-1.460205
 20
2.113109999999999
  0
LWPOLYLINE
  5
B7B
330
1E
100
AcDbEntity
  8
LAYER_1
  6
Continuous
 62
     7
100
AcDbPolyline
 90
        4
 70
     0
 43
0.0
 10
-1.460205
 20
2.113109999999999
 10
-1.466548999999999
 20
2.112854
 10
-1.472858999999999
 20
2.112550999999999
 10
-1.479137999999999
 20
2.112192999999999
  0
LWPOLYLINE
  5
B81
330
1E
100
AcDbEntity
  8
LAYER_1
  6
Continuous
 62
     7
100
AcDbPolyline
 90
        4
 70
     0
 43
0.0
 10
-1.479137999999999
 20
2.112192999999999
 10
-1.485370999999999
 20
2.111765999999999
 10
-1.491569
 20
2.111282
 10
-1.49772
 20
2.110732
  0
LWPOLYLINE
  5
B87
330
1E
100
AcDbEntity
  8
LAYER_1
  6
Continuous
 62
     7
100
AcDbPolyline
 90
        4
 70
     0
 43
0.0
 10
-1.49772
 20
2.110732
 10
-1.503814
 20
2.110116
 10
-1.509840999999999
 20
2.109431999999999
 10
-1.515803
 20
2.108677
  0
LWPOLYLINE
  5
B8D
330
1E
100
AcDbEntity
  8
LAYER_1
  6
Continuous
 62
     7
100
AcDbPolyline
 90
        4
 70
     0
 43
0.0
 10
-1.515803
 20
2.108677
 10
-1.521680999999999
 20
2.107863
 10
-1.527468999999999
 20
2.10697
 10
-1.53315
 20
2.105995999999999
  0
LWPOLYLINE
  5
B93
330
1E
100
AcDbEntity
  8
LAYER_1
  6
Continuous
 62
     7
100
AcDbPolyline
 90
        4
 70
     0
 43
0.0
 10
-1.53315
 20
2.105995999999999
 10
-1.538715999999999
 20
2.104943
 10
-1.54411
 20
2.103813
 10
-1.549303
 20
2.102609999999999
  0
LWPOLYLINE
  5
B99
330
1E
100
AcDbEntity
  8
LAYER_1
  6
Continuous
 62
     7
100
AcDbPolyline
 90
        4
 70
     0
 43
0.0
 10
-1.549303
 20
2.102609999999999
 10
-1.554273
 20
2.101334
 10
-1.558952
 20
2.100019
 10
-1.563290999999999
 20
2.098676999999999
  0
LWPOLYLINE
  5
B9F
330
1E
100
AcDbEntity
  8
LAYER_1
  6
Continuous
 62
     7
100
AcDbPolyline
 90
        4
 70
     0
 43
0.0
 10
-1.563290999999999
 20
2.098676999999999
 10
-1.567248
 20
2.097315
 10
-1.570799
 20
2.095968999999999
 10
-1.573912999999999
 20
2.094676999999999
  0
LWPOLYLINE
  5
BA5
330
1E
100
AcDbEntity
  8
LAYER_1
  6
Continuous
 62
     7
100
AcDbPolyline
 90
        4
 70
     0
 43
0.0
 10
-1.573912999999999
 20
2.094676999999999
 10
-1.576581
 20
2.093471
 10
-1.578840999999999
 20
2.09235
 10
-1.580747999999999
 20
2.091318999999999
  0
LWPOLYLINE
  5
BAB
330
1E
100
AcDbEntity
  8
LAYER_1
  6
Continuous
 62
     7
100
AcDbPolyline
 90
        4
 70
     0
 43
0.0
 10
-1.580747999999999
 20
2.091318999999999
 10
-1.58237
 20
2.090361999999999
 10
-1.583736
 20
2.089482999999999
 10
-1.584886
 20
2.088665
  0
LWPOLYLINE
  5
BB1
330
1E
100
AcDbEntity
  8
LAYER_1
  6
Continuous
 62
     7
100
AcDbPolyline
 90
        4
 70
     0
 43
0.0
 10
-1.584886
 20
2.088665
 10
-1.585862999999999
 20
2.087917
 10
-1.586702
 20
2.087220999999999
 10
-1.587429
 20
2.086566999999999
  0
LWPOLYLINE
  5
BB7
330
1E
100
AcDbEntity
  8
LAYER_1
  6
Continuous
 62
     7
100
AcDbPolyline
 90
        4
 70
     0
 43
0.0
 10
-1.587429
 20
2.086566999999999
 10
-1.588041999999999
 20
2.085954999999999
 10
-1.588575999999999
 20
2.085373
 10
-1.589038999999999
 20
2.084818999999999
  0
LWPOLYLINE
  5
BBD
330
1E
100
AcDbEntity
  8
LAYER_1
  6
Continuous
 62
     7
100
AcDbPolyline
 90
        4
 70
     0
 43
0.0
 10
-1.589038999999999
 20
2.084818999999999
 10
-1.589425
 20
2.084271999999999
 10
-1.589752
 20
2.083739
 10
-1.590028
 20
2.08322
  0
LWPOLYLINE
  5
BC3
330
1E
100
AcDbEntity
  8
LAYER_1
  6
Continuous
 62
     7
100
AcDbPolyline
 90
        4
 70
     0
 43
0.0
 10
-1.590028
 20
2.08322
 10
-1.590247999999999
 20
2.08271
 10
-1.59041
 20
2.082213
 10
-1.590512
 20
2.081732
  0
LWPOLYLINE
  5
BC9
330
1E
100
AcDbEntity
  8
LAYER_1
  6
Continuous
 62
     7
100
AcDbPolyline
 90
        4
 70
     0
 43
0.0
 10
-1.590512
 20
2.081732
 10
-1.590541999999999
 20
2.081259
 10
-1.590513999999999
 20
2.080795999999999
 10
-1.590412999999999
 20
2.080331
  0
LWPOLYLINE
  5
BCF
330
1E
100
AcDbEntity
  8
LAYER_1
  6
Continuous
 62
     7
100
AcDbPolyline
 90
        4
 70
     0
 43
0.0
 10
-1.590412999999999
 20
2.080331
 10
-1.590238999999999
 20
2.07987
 10
-1.589992999999999
 20
2.079409
 10
-1.589677
 20
2.078956999999999
  0
LWPOLYLINE
  5
BD5
330
1E
100
AcDbEntity
  8
LAYER_1
  6
Continuous
 62
     7
100
AcDbPolyline
 90
        4
 70
     0
 43
0.0
 10
-1.589677
 20
2.078956999999999
 10
-1.589283999999999
 20
2.078516
 10
-1.588818
 20
2.078081999999999
 10
-1.588276
 20
2.07765
  0
LWPOLYLINE
  5
BDB
330
1E
100
AcDbEntity
  8
LAYER_1
  6
Continuous
 62
     7
100
AcDbPolyline
 90
        4
 70
     0
 43
0.0
 10
-1.588276
 20
2.07765
 10
-1.58765
 20
2.077208
 10
-1.586938999999999
 20
2.076767999999999
 10
-1.586137999999999
 20
2.076318999999999
  0
LWPOLYLINE
  5
BE1
330
1E
100
AcDbEntity
  8
LAYER_1
  6
Continuous
 62
     7
100
AcDbPolyline
 90
        4
 70
     0
 43
0.0
 10
-1.586137999999999
 20
2.076318999999999
 10
-1.585219
 20
2.075836999999999
 10
-1.584163
 20
2.075333
 10
-1.582929
 20
2.074802999999999
  0
LWPOLYLINE
  5
BE7
330
1E
100
AcDbEntity
  8
LAYER_1
  6
Continuous
 62
     7
100
AcDbPolyline
 90
        4
 70
     0
 43
0.0
 10
-1.582929
 20
2.074802999999999
 10
-1.581476
 20
2.074231999999999
 10
-1.579739999999999
 20
2.073624
 10
-1.57765
 20
2.072969
  0
LWPOLYLINE
  5
BED
330
1E
100
AcDbEntity
  8
LAYER_1
  6
Continuous
 62
     7
100
AcDbPolyline
 90
        4
 70
     0
 43
0.0
 10
-1.57765
 20
2.072969
 10
-1.575154
 20
2.072268
 10
-1.572189999999999
 20
2.071524999999999
 10
-1.56872
 20
2.070748
  0
LWPOLYLINE
  5
BF3
330
1E
100
AcDbEntity
  8
LAYER_1
  6
Continuous
 62
     7
100
AcDbPolyline
 90
        4
 70
     0
 43
0.0
 10
-1.56872
 20
2.070748
 10
-1.564705999999999
 20
2.06996
 10
-1.560202
 20
2.069173
 10
-1.555264
 20
2.068413
  0
LWPOLYLINE
  5
BF9
330
1E
100
AcDbEntity
  8
LAYER_1
  6
Continuous
 62
     7
100
AcDbPolyline
 90
        4
 70
     0
 43
0.0
 10
-1.555264
 20
2.068413
 10
-1.549945
 20
2.067705
 10
-1.544318999999999
 20
2.067049
 10
-1.538457
 20
2.066441
  0
LWPOLYLINE
  5
BFF
330
1E
100
AcDbEntity
  8
LAYER_1
  6
Continuous
 62
     7
100
AcDbPolyline
 90
        4
 70
     0
 43
0.0
 10
-1.538457
 20
2.066441
 10
-1.53241
 20
2.065895999999999
 10
-1.526229999999999
 20
2.065392999999999
 10
-1.519941
 20
2.064929
  0
LWPOLYLINE
  5
C05
330
1E
100
AcDbEntity
  8
LAYER_1
  6
Continuous
 62
     7
100
AcDbPolyline
 90
        4
 70
     0
 43
0.0
 10
-1.519941
 20
2.064929
 10
-1.513582999999999
 20
2.064513999999999
 10
-1.507155999999999
 20
2.064132999999999
 10
-1.500677
 20
2.063791
  0
LWPOLYLINE
  5
C0B
330
1E
100
AcDbEntity
  8
LAYER_1
  6
Continuous
 62
     7
100
AcDbPolyline
 90
        4
 70
     0
 43
0.0
 10
-1.500677
 20
2.063791
 10
-1.494154999999999
 20
2.063483999999999
 10
-1.487589999999999
 20
2.063209999999999
 10
-1.480984
 20
2.062968999999999
  0
LWPOLYLINE
  5
C11
330
1E
100
AcDbEntity
  8
LAYER_1
  6
Continuous
 62
     7
100
AcDbPolyline
 90
        4
 70
     0
 43
0.0
 10
-1.480984
 20
2.062968999999999
 10
-1.474356
 20
2.062745999999999
 10
-1.467695999999999
 20
2.062543999999999
 10
-1.461012
 20
2.062358
  0
LWPOLYLINE
  5
C17
330
1E
100
AcDbEntity
  8
LAYER_1
  6
Continuous
 62
     7
100
AcDbPolyline
 90
        4
 70
     0
 43
0.0
 10
-1.461012
 20
2.062358
 10
-1.454309
 20
2.062183
 10
-1.447586
 20
2.062021
 10
-1.440845999999999
 20
2.061873999999999
  0
LWPOLYLINE
  5
C1D
330
1E
100
AcDbEntity
  8
LAYER_1
  6
Continuous
 62
     7
100
AcDbPolyline
 90
        4
 70
     0
 43
0.0
 10
-1.440845999999999
 20
2.061873999999999
 10
-1.434104999999999
 20
2.061745999999999
 10
-1.427354
 20
2.061634999999999
 10
-1.420594
 20
2.061528
  0
LWPOLYLINE
  5
C23
330
1E
100
AcDbEntity
  8
LAYER_1
  6
Continuous
 62
     7
100
AcDbPolyline
 90
        4
 70
     0
 43
0.0
 10
-1.420594
 20
2.061528
 10
-1.413828
 20
2.061427
 10
-1.407057999999999
 20
2.061325
 10
-1.400290999999999
 20
2.061231999999999
  0
LWPOLYLINE
  5
C29
330
1E
100
AcDbEntity
  8
LAYER_1
  6
Continuous
 62
     7
100
AcDbPolyline
 90
        4
 70
     0
 43
0.0
 10
-1.400290999999999
 20
2.061231999999999
 10
-1.393512
 20
2.061154999999999
 10
-1.386732999999999
 20
2.06109
 10
-1.379956999999999
 20
2.061039
  0
LWPOLYLINE
  5
C2F
330
1E
100
AcDbEntity
  8
LAYER_1
  6
Continuous
 62
     7
100
AcDbPolyline
 90
        4
 70
     0
 43
0.0
 10
-1.379956999999999
 20
2.061039
 10
-1.373161
 20
2.060988
 10
-1.366359
 20
2.060942999999999
 10
-1.359554999999999
 20
2.060902
  0
LWPOLYLINE
  5
C35
330
1E
100
AcDbEntity
  8
LAYER_1
  6
Continuous
 62
     7
100
AcDbPolyline
 90
        4
 70
     0
 43
0.0
 10
-1.359554999999999
 20
2.060902
 10
-1.352745
 20
2.060859999999999
 10
-1.345929
 20
2.060823
 10
-1.33911
 20
2.060791
  0
LWPOLYLINE
  5
C3B
330
1E
100
AcDbEntity
  8
LAYER_1
  6
Continuous
 62
     7
100
AcDbPolyline
 90
        4
 70
     0
 43
0.0
 10
-1.33911
 20
2.060791
 10
-1.332289999999999
 20
2.060756
 10
-1.32547
 20
2.060729999999999
 10
-1.31865
 20
2.060705
  0
LWPOLYLINE
  5
C41
330
1E
100
AcDbEntity
  8
LAYER_1
  6
Continuous
 62
     7
100
AcDbPolyline
 90
        4
 70
     0
 43
0.0
 10
-1.31865
 20
2.060705
 10
-1.311827
 20
2.060690999999999
 10
-1.304999999999999
 20
2.060674
 10
-1.298177
 20
2.060649999999999
  0
LWPOLYLINE
  5
C47
330
1E
100
AcDbEntity
  8
LAYER_1
  6
Continuous
 62
     7
100
AcDbPolyline
 90
        4
 70
     0
 43
0.0
 10
-1.298177
 20
2.060649999999999
 10
-1.291341999999999
 20
2.060633999999999
 10
-1.284503
 20
2.060613
 10
-1.277665
 20
2.060594
  0
LWPOLYLINE
  5
C4D
330
1E
100
AcDbEntity
  8
LAYER_1
  6
Continuous
 62
     7
100
AcDbPolyline
 90
        4
 70
     0
 43
0.0
 10
-1.277665
 20
2.060594
 10
-1.270834999999999
 20
2.060586999999999
 10
-1.264008
 20
2.060586999999999
 10
-1.257176999999999
 20
2.060594
  0
LWPOLYLINE
  5
C53
330
1E
100
AcDbEntity
  8
LAYER_1
  6
Continuous
 62
     7
100
AcDbPolyline
 90
        4
 70
     0
 43
0.0
 10
-1.257176999999999
 20
2.060594
 10
-1.250345
 20
2.060594
 10
-1.243512
 20
2.060591
 10
-1.236677
 20
2.060583
  0
LWPOLYLINE
  5
C59
330
1E
100
AcDbEntity
  8
LAYER_1
  6
Continuous
 62
     7
100
AcDbPolyline
 90
        4
 70
     0
 43
0.0
 10
-1.236677
 20
2.060583
 10
-1.229845999999999
 20
2.060575
 10
-1.223015999999999
 20
2.060558
 10
-1.216193
 20
2.060538999999999
  0
LWPOLYLINE
  5
C5F
330
1E
100
AcDbEntity
  8
LAYER_1
  6
Continuous
 62
     7
100
AcDbPolyline
 90
        4
 70
     0
 43
0.0
 10
-1.216193
 20
2.060538999999999
 10
-1.209354999999999
 20
2.060538999999999
 10
-1.202515
 20
2.060535999999999
 10
-1.195677
 20
2.060527999999999
  0
LWPOLYLINE
  5
C65
330
1E
100
AcDbEntity
  8
LAYER_1
  6
Continuous
 62
     7
100
AcDbPolyline
 90
        4
 70
     0
 43
0.0
 10
-1.195677
 20
2.060527999999999
 10
-1.188857
 20
2.060513
 10
-1.182031
 20
2.060499
 10
-1.175192999999999
 20
2.060484
  0
LWPOLYLINE
  5
C6B
330
1E
100
AcDbEntity
  8
LAYER_1
  6
Continuous
 62
     7
100
AcDbPolyline
 90
        4
 70
     0
 43
0.0
 10
-1.175192999999999
 20
2.060484
 10
-1.168366
 20
2.060472999999999
 10
-1.161529999999999
 20
2.060468999999999
 10
-1.154692999999999
 20
2.060468999999999
  0
LWPOLYLINE
  5
C71
330
1E
100
AcDbEntity
  8
LAYER_1
  6
Continuous
 62
     7
100
AcDbPolyline
 90
        4
 70
     0
 43
0.0
 10
-1.154692999999999
 20
2.060468999999999
 10
-1.147862999999999
 20
2.060455
 10
-1.141043
 20
2.060436999999999
 10
-1.134231999999999
 20
2.060413
  0
LWPOLYLINE
  5
C77
330
1E
100
AcDbEntity
  8
LAYER_1
  6
Continuous
 62
     7
100
AcDbPolyline
 90
        4
 70
     0
 43
0.0
 10
-1.134231999999999
 20
2.060413
 10
-1.127430999999999
 20
2.060397
 10
-1.120647999999999
 20
2.060372999999999
 10
-1.113901999999999
 20
2.060346
  0
LWPOLYLINE
  5
C7D
330
1E
100
AcDbEntity
  8
LAYER_1
  6
Continuous
 62
     7
100
AcDbPolyline
 90
        4
 70
     0
 43
0.0
 10
-1.113901999999999
 20
2.060346
 10
-1.107199999999999
 20
2.060318
 10
-1.100518
 20
2.060286999999999
 10
-1.093819
 20
2.060248
  0
LWPOLYLINE
  5
C83
330
1E
100
AcDbEntity
  8
LAYER_1
  6
Continuous
 62
     7
100
AcDbPolyline
 90
        4
 70
     0
 43
0.0
 10
-1.093819
 20
2.060248
 10
-1.087088999999999
 20
2.060213
 10
-1.080324999999999
 20
2.060167999999999
 10
-1.073539
 20
2.060122
  0
LWPOLYLINE
  5
C89
330
1E
100
AcDbEntity
  8
LAYER_1
  6
Continuous
 62
     7
100
AcDbPolyline
 90
        4
 70
     0
 43
0.0
 10
-1.073539
 20
2.060122
 10
-1.066736
 20
2.060064
 10
-1.059920999999999
 20
2.060001999999999
 10
-1.053109999999999
 20
2.059940999999999
  0
LWPOLYLINE
  5
C8F
330
1E
100
AcDbEntity
  8
LAYER_1
  6
Continuous
 62
     7
100
AcDbPolyline
 90
        4
 70
     0
 43
0.0
 10
-1.053109999999999
 20
2.059940999999999
 10
-1.046306999999999
 20
2.059877
 10
-1.039508
 20
2.059814999999999
 10
-1.032704999999999
 20
2.059747999999999
  0
LWPOLYLINE
  5
C95
330
1E
100
AcDbEntity
  8
LAYER_1
  6
Continuous
 62
     7
100
AcDbPolyline
 90
        4
 70
     0
 43
0.0
 10
-1.032704999999999
 20
2.059747999999999
 10
-1.025912999999999
 20
2.059681
 10
-1.019121999999999
 20
2.059613999999999
 10
-1.012330999999999
 20
2.059539
  0
LWPOLYLINE
  5
C9B
330
1E
100
AcDbEntity
  8
LAYER_1
  6
Continuous
 62
     7
100
AcDbPolyline
 90
        4
 70
     0
 43
0.0
 10
-1.012330999999999
 20
2.059539
 10
-1.005554
 20
2.059449
 10
-0.9987719999999999
 20
2.059349
 10
-0.991984
 20
2.059247999999999
  0
LWPOLYLINE
  5
CA1
330
1E
100
AcDbEntity
  8
LAYER_1
  6
Continuous
 62
     7
100
AcDbPolyline
 90
        4
 70
     0
 43
0.0
 10
-0.991984
 20
2.059247999999999
 10
-0.9851989999999998
 20
2.059136999999999
 10
-0.9784079999999999
 20
2.059022999999999
 10
-0.9716219999999999
 20
2.058902
  0
LWPOLYLINE
  5
CA7
330
1E
100
AcDbEntity
  8
LAYER_1
  6
Continuous
 62
     7
100
AcDbPolyline
 90
        4
 70
     0
 43
0.0
 10
-0.9716219999999999
 20
2.058902
 10
-0.964887
 20
2.058768999999999
 10
-0.9583969999999998
 20
2.058629999999999
 10
-0.952402
 20
2.058499999999999
  0
LWPOLYLINE
  5
CAD
330
1E
100
AcDbEntity
  8
LAYER_1
  6
Continuous
 62
     7
100
AcDbPolyline
 90
        4
 70
     0
 43
0.0
 10
-0.952402
 20
2.058499999999999
 10
-0.9471579999999999
 20
2.058393
 10
-0.9429079999999999
 20
2.058302999999999
 10
-0.9399129999999999
 20
2.058231999999999
  0
LWPOLYLINE
  5
CB3
330
1E
100
AcDbEntity
  8
LAYER_1
  6
Continuous
 62
     7
100
AcDbPolyline
 90
        4
 70
     0
 43
0.0
 10
-0.9399129999999999
 20
2.058231999999999
 10
-0.93832
 20
2.058205
 10
-0.937733
 20
2.058193999999999
 10
-0.93765
 20
2.058193
  0
LWPOLYLINE
  5
CB9
330
1E
100
AcDbEntity
  8
LAYER_1
  6
Continuous
 62
     7
100
AcDbPolyline
 90
        4
 70
     1
 43
0.0
 10
-1.341164999999999
 20
2.105831
 10
-1.341412999999999
 20
2.062527999999999
 10
-1.39272
 20
2.062831
 10
-1.392429
 20
2.107622
  0
LWPOLYLINE
  5
CBF
330
1E
100
AcDbEntity
  8
LAYER_1
  6
Continuous
 62
     7
100
AcDbPolyline
 90
        4
 70
     1
 43
0.0
 10
-1.392732
 20
2.066818999999999
 10
-1.341677
 20
2.066345999999999
 10
-1.341731999999999
 20
2.060665
 10
-1.392790999999999
 20
2.06115
  0
LWPOLYLINE
  5
CC5
330
1E
100
AcDbEntity
  8
LAYER_1
  6
Continuous
 62
     7
100
AcDbPolyline
 90
        4
 70
     1
 43
0.0
 10
-1.392082999999999
 20
2.110622
 10
-1.341028
 20
2.110149999999999
 10
-1.341083
 20
2.104468999999999
 10
-1.392137999999999
 20
2.104957
  0
LWPOLYLINE
  5
CCB
330
1E
100
AcDbEntity
  8
LAYER_1
  6
Continuous
 62
     7
100
AcDbPolyline
 90
        6
 70
     1
 43
0.0
 10
-1.392082999999999
 20
2.110484
 10
-1.392066999999999
 20
2.112413
 10
-1.374830999999999
 20
2.112264
 10
-1.374830999999999
 20
2.111302999999999
 10
-1.357803
 20
2.111149999999999
 10
-1.357819
 20
2.110177
  0
LWPOLYLINE
  5
CD3
330
1E
100
AcDbEntity
  8
LAYER_1
  6
Continuous
 62
     7
100
AcDbPolyline
 90
        4
 70
     1
 43
0.0
 10
-1.429440999999999
 20
2.097538999999999
 10
-1.340538999999999
 20
2.096763999999999
 10
-1.340637999999999
 20
2.085665
 10
-1.429538999999999
 20
2.086440999999999
  0
LWPOLYLINE
  5
CD9
330
1E
100
AcDbEntity
  8
LAYER_1
  6
Continuous
 62
     7
100
AcDbPolyline
 90
        4
 70
     0
 43
0.0
 10
-1.481554999999999
 20
2.061192999999999
 10
-1.481486999999999
 20
2.061182
 10
-1.481006999999999
 20
2.061101999999999
 10
-1.479704999999999
 20
2.060885999999999
  0
LWPOLYLINE
  5
CDF
330
1E
100
AcDbEntity
  8
LAYER_1
  6
Continuous
 62
     7
100
AcDbPolyline
 90
        4
 70
     0
 43
0.0
 10
-1.479704999999999
 20
2.060885999999999
 10
-1.477275999999999
 20
2.060468999999999
 10
-1.473748
 20
2.059854999999999
 10
-1.469263999999999
 20
2.059038999999999
  0
LWPOLYLINE
  5
CE5
330
1E
100
AcDbEntity
  8
LAYER_1
  6
Continuous
 62
     7
100
AcDbPolyline
 90
        4
 70
     0
 43
0.0
 10
-1.469263999999999
 20
2.059038999999999
 10
-1.464020999999999
 20
2.057973
 10
-1.458462
 20
2.056481
 10
-1.453082999999999
 20
2.054331
  0
LWPOLYLINE
  5
CEB
330
1E
100
AcDbEntity
  8
LAYER_1
  6
Continuous
 62
     7
100
AcDbPolyline
 90
        4
 70
     0
 43
0.0
 10
-1.453082999999999
 20
2.054331
 10
-1.448395
 20
2.051340999999999
 10
-1.44491
 20
2.047581999999999
 10
-1.443149999999999
 20
2.043165
  0
LWPOLYLINE
  5
CF1
330
1E
100
AcDbEntity
  8
LAYER_1
  6
Continuous
 62
     7
100
AcDbPolyline
 90
        4
 70
     0
 43
0.0
 10
-1.443149999999999
 20
2.043165
 10
-1.443496999999999
 20
2.038243999999999
 10
-1.445734999999999
 20
2.033141
 10
-1.4495
 20
2.02822
  0
LWPOLYLINE
  5
CF7
330
1E
100
AcDbEntity
  8
LAYER_1
  6
Continuous
 62
     7
100
AcDbPolyline
 90
        4
 70
     0
 43
0.0
 10
-1.4495
 20
2.02822
 10
-1.454476999999999
 20
2.023759
 10
-1.460570999999999
 20
2.019705
 10
-1.467731999999999
 20
2.015929
  0
LWPOLYLINE
  5
CFD
330
1E
100
AcDbEntity
  8
LAYER_1
  6
Continuous
 62
     7
100
AcDbPolyline
 90
        4
 70
     0
 43
0.0
 10
-1.467731999999999
 20
2.015929
 10
-1.475893
 20
2.012351999999999
 10
-1.484893
 20
2.009136
 10
-1.494554999999999
 20
2.006511999999999
  0
LWPOLYLINE
  5
D03
330
1E
100
AcDbEntity
  8
LAYER_1
  6
Continuous
 62
     7
100
AcDbPolyline
 90
        4
 70
     0
 43
0.0
 10
-1.494554999999999
 20
2.006511999999999
 10
-1.504501
 20
2.004643
 10
-1.513583999999999
 20
2.003430999999999
 10
-1.520456999999999
 20
2.00272
  0
LWPOLYLINE
  5
D09
330
1E
100
AcDbEntity
  8
LAYER_1
  6
Continuous
 62
     7
100
AcDbPolyline
 90
        4
 70
     0
 43
0.0
 10
-1.520456999999999
 20
2.00272
 10
-1.524211
 20
2.002358
 10
-1.525594
 20
2.002224
 10
-1.525790999999999
 20
2.002205
  0
LWPOLYLINE
  5
D0F
330
1E
100
AcDbEntity
  8
LAYER_1
  6
Continuous
 62
     7
100
AcDbPolyline
 90
        4
 70
     0
 43
0.0
 10
-1.088345999999999
 20
2.059346
 10
-1.088437
 20
2.059339
 10
-1.089073999999999
 20
2.059285
 10
-1.090802999999999
 20
2.059137999999999
  0
LWPOLYLINE
  5
D15
330
1E
100
AcDbEntity
  8
LAYER_1
  6
Continuous
 62
     7
100
AcDbPolyline
 90
        4
 70
     0
 43
0.0
 10
-1.090802999999999
 20
2.059137999999999
 10
-1.093885
 20
2.058724999999999
 10
-1.097442
 20
2.057309
 10
-1.100319
 20
2.054027999999999
  0
LWPOLYLINE
  5
D1B
330
1E
100
AcDbEntity
  8
LAYER_1
  6
Continuous
 62
     7
100
AcDbPolyline
 90
        4
 70
     0
 43
0.0
 10
-1.100319
 20
2.054027999999999
 10
-1.10145
 20
2.048233999999999
 10
-1.100146999999999
 20
2.040215
 10
-1.095819
 20
2.030469
  0
LWPOLYLINE
  5
D21
330
1E
100
AcDbEntity
  8
LAYER_1
  6
Continuous
 62
     7
100
AcDbPolyline
 90
        4
 70
     0
 43
0.0
 10
-1.095819
 20
2.030469
 10
-1.0883
 20
2.019661
 10
-1.079168
 20
2.009125999999999
 10
-1.070429
 20
2.000374
  0
LWPOLYLINE
  5
D27
330
1E
100
AcDbEntity
  8
LAYER_1
  6
Continuous
 62
     7
100
AcDbPolyline
 90
        4
 70
     0
 43
0.0
 10
-1.070429
 20
2.000374
 10
-1.063586
 20
1.994481999999999
 10
-1.058246999999999
 20
1.990931999999999
 10
-1.053528
 20
1.988790999999999
  0
LWPOLYLINE
  5
D2D
330
1E
100
AcDbEntity
  8
LAYER_1
  6
Continuous
 62
     7
100
AcDbPolyline
 90
        4
 70
     0
 43
0.0
 10
-1.053528
 20
1.988790999999999
 10
-1.048789999999999
 20
1.987284
 10
-1.044438999999999
 20
1.986204999999999
 10
-1.041137999999999
 20
1.985511999999999
  0
LWPOLYLINE
  5
D33
330
1E
100
AcDbEntity
  8
LAYER_1
  6
Continuous
 62
     7
100
AcDbPolyline
 90
        4
 70
     0
 43
0.0
 10
-1.041137999999999
 20
1.985511999999999
 10
-1.039339999999999
 20
1.985159999999999
 10
-1.038677
 20
1.985029999999999
 10
-1.038583
 20
1.985012
  0
LWPOLYLINE
  5
D39
330
1E
100
AcDbEntity
  8
LAYER_1
  6
Continuous
100
AcDbPolyline
 90
       12
 70
     1
 43
0.0
 10
-1.427830999999999
 20
0.345193
 10
-1.429537999999999
 20
0.351501
 10
-1.434023
 20
0.355986
 10
-1.440331
 20
0.357693
 10
-1.446649999999999
 20
0.355986
 10
-1.451138999999999
 20
0.351501
 10
-1.452845999999999
 20
0.345193
 10
-1.451138999999999
 20
0.3388739999999999
 10
-1.446649999999999
 20
0.334385
 10
-1.440331
 20
0.332677
 10
-1.434023
 20
0.334385
 10
-1.429537999999999
 20
0.3388739999999999
  0
LWPOLYLINE
  5
D47
330
1E
100
AcDbEntity
  8
LAYER_1
  6
Continuous
 62
     7
100
AcDbPolyline
 90
        4
 70
     0
 43
0.0
 10
-1.427830999999999
 20
0.345193
 10
-1.429537999999999
 20
0.351501
 10
-1.434023
 20
0.355986
 10
-1.440331
 20
0.357693
  0
LWPOLYLINE
  5
D4D
330
1E
100
AcDbEntity
  8
LAYER_1
  6
Continuous
 62
     7
100
AcDbPolyline
 90
        4
 70
     0
 43
0.0
 10
-1.440331
 20
0.357693
 10
-1.446649999999999
 20
0.355986
 10
-1.451138999999999
 20
0.351501
 10
-1.452845999999999
 20
0.345193
  0
LWPOLYLINE
  5
D53
330
1E
100
AcDbEntity
  8
LAYER_1
  6
Continuous
 62
     7
100
AcDbPolyline
 90
        4
 70
     0
 43
0.0
 10
-1.452845999999999
 20
0.345193
 10
-1.451138999999999
 20
0.3388739999999999
 10
-1.446649999999999
 20
0.334385
 10
-1.440331
 20
0.332677
  0
LWPOLYLINE
  5
D59
330
1E
100
AcDbEntity
  8
LAYER_1
  6
Continuous
 62
     7
100
AcDbPolyline
 90
        4
 70
     0
 43
0.0
 10
-1.440331
 20
0.332677
 10
-1.434023
 20
0.334385
 10
-1.429537999999999
 20
0.3388739999999999
 10
-1.427830999999999
 20
0.345193
  0
LWPOLYLINE
  5
D5F
330
1E
100
AcDbEntity
  8
LAYER_1
  6
Continuous
100
AcDbPolyline
 90
       12
 70
     1
 43
0.0
 10
-1.161177
 20
0.345193
 10
-1.162884
 20
0.338885
 10
-1.167369
 20
0.3344
 10
-1.173677
 20
0.3326929999999999
 10
-1.179987
 20
0.3344
 10
-1.184470999999999
 20
0.338885
 10
-1.186177
 20
0.345193
 10
-1.184470999999999
 20
0.351501
 10
-1.179987
 20
0.355986
 10
-1.173677
 20
0.357693
 10
-1.167369
 20
0.355986
 10
-1.162884
 20
0.351501
  0
LWPOLYLINE
  5
D6D
330
1E
100
AcDbEntity
  8
LAYER_1
  6
Continuous
 62
     7
100
AcDbPolyline
 90
        4
 70
     0
 43
0.0
 10
-1.161177
 20
0.345193
 10
-1.162884
 20
0.338885
 10
-1.167369
 20
0.3344
 10
-1.173677
 20
0.3326929999999999
  0
LWPOLYLINE
  5
D73
330
1E
100
AcDbEntity
  8
LAYER_1
  6
Continuous
 62
     7
100
AcDbPolyline
 90
        4
 70
     0
 43
0.0
 10
-1.173677
 20
0.3326929999999999
 10
-1.179987
 20
0.3344
 10
-1.184470999999999
 20
0.338885
 10
-1.186177
 20
0.345193
  0
LWPOLYLINE
  5
D79
330
1E
100
AcDbEntity
  8
LAYER_1
  6
Continuous
 62
     7
100
AcDbPolyline
 90
        4
 70
     0
 43
0.0
 10
-1.186177
 20
0.345193
 10
-1.184470999999999
 20
0.351501
 10
-1.179987
 20
0.355986
 10
-1.173677
 20
0.357693
  0
LWPOLYLINE
  5
D7F
330
1E
100
AcDbEntity
  8
LAYER_1
  6
Continuous
 62
     7
100
AcDbPolyline
 90
        4
 70
     0
 43
0.0
 10
-1.173677
 20
0.357693
 10
-1.167369
 20
0.355986
 10
-1.162884
 20
0.351501
 10
-1.161177
 20
0.345193
  0
LWPOLYLINE
  5
D85
330
1E
100
AcDbEntity
  8
LAYER_1
  6
Continuous
100
AcDbPolyline
 90
       12
 70
     1
 43
0.0
 10
-1.434093999999999
 20
0.345193
 10
-1.434949999999999
 20
0.348344
 10
-1.437195
 20
0.350587
 10
-1.440345999999999
 20
0.351441
 10
-1.443502999999999
 20
0.350587
 10
-1.445743
 20
0.348344
 10
-1.446594
 20
0.345193
 10
-1.445743
 20
0.342034
 10
-1.443502999999999
 20
0.339793
 10
-1.440345999999999
 20
0.338941
 10
-1.437195
 20
0.339793
 10
-1.434949999999999
 20
0.342034
  0
LWPOLYLINE
  5
D93
330
1E
100
AcDbEntity
  8
LAYER_1
  6
Continuous
 62
     7
100
AcDbPolyline
 90
        4
 70
     0
 43
0.0
 10
-1.434093999999999
 20
0.345193
 10
-1.434949999999999
 20
0.348344
 10
-1.437195
 20
0.350587
 10
-1.440345999999999
 20
0.351441
  0
LWPOLYLINE
  5
D99
330
1E
100
AcDbEntity
  8
LAYER_1
  6
Continuous
 62
     7
100
AcDbPolyline
 90
        4
 70
     0
 43
0.0
 10
-1.440345999999999
 20
0.351441
 10
-1.443502999999999
 20
0.350587
 10
-1.445743
 20
0.348344
 10
-1.446594
 20
0.345193
  0
LWPOLYLINE
  5
D9F
330
1E
100
AcDbEntity
  8
LAYER_1
  6
Continuous
 62
     7
100
AcDbPolyline
 90
        4
 70
     0
 43
0.0
 10
-1.446594
 20
0.345193
 10
-1.445743
 20
0.342034
 10
-1.443502999999999
 20
0.339793
 10
-1.440345999999999
 20
0.338941
  0
LWPOLYLINE
  5
DA5
330
1E
100
AcDbEntity
  8
LAYER_1
  6
Continuous
 62
     7
100
AcDbPolyline
 90
        4
 70
     0
 43
0.0
 10
-1.440345999999999
 20
0.338941
 10
-1.437195
 20
0.339793
 10
-1.434949999999999
 20
0.342034
 10
-1.434093999999999
 20
0.345193
  0
LWPOLYLINE
  5
DAB
330
1E
100
AcDbEntity
  8
LAYER_1
  6
Continuous
100
AcDbPolyline
 90
       12
 70
     1
 43
0.0
 10
-1.167429
 20
0.345193
 10
-1.168280999999999
 20
0.342034
 10
-1.170520999999999
 20
0.339793
 10
-1.173677
 20
0.338941
 10
-1.176829
 20
0.339793
 10
-1.179073999999999
 20
0.342034
 10
-1.179929
 20
0.345193
 10
-1.179073999999999
 20
0.348344
 10
-1.176829
 20
0.350587
 10
-1.173677
 20
0.351441
 10
-1.170520999999999
 20
0.350587
 10
-1.168280999999999
 20
0.348344
  0
LWPOLYLINE
  5
DB9
330
1E
100
AcDbEntity
  8
LAYER_1
  6
Continuous
 62
     7
100
AcDbPolyline
 90
        4
 70
     0
 43
0.0
 10
-1.167429
 20
0.345193
 10
-1.168280999999999
 20
0.342034
 10
-1.170520999999999
 20
0.339793
 10
-1.173677
 20
0.338941
  0
LWPOLYLINE
  5
DBF
330
1E
100
AcDbEntity
  8
LAYER_1
  6
Continuous
 62
     7
100
AcDbPolyline
 90
        4
 70
     0
 43
0.0
 10
-1.173677
 20
0.338941
 10
-1.176829
 20
0.339793
 10
-1.179073999999999
 20
0.342034
 10
-1.179929
 20
0.345193
  0
LWPOLYLINE
  5
DC5
330
1E
100
AcDbEntity
  8
LAYER_1
  6
Continuous
 62
     7
100
AcDbPolyline
 90
        4
 70
     0
 43
0.0
 10
-1.179929
 20
0.345193
 10
-1.179073999999999
 20
0.348344
 10
-1.176829
 20
0.350587
 10
-1.173677
 20
0.351441
  0
LWPOLYLINE
  5
DCB
330
1E
100
AcDbEntity
  8
LAYER_1
  6
Continuous
 62
     7
100
AcDbPolyline
 90
        4
 70
     0
 43
0.0
 10
-1.173677
 20
0.351441
 10
-1.170520999999999
 20
0.350587
 10
-1.168280999999999
 20
0.348344
 10
-1.167429
 20
0.345193
  0
LWPOLYLINE
  5
DD1
330
1E
100
AcDbEntity
  8
LAYER_1
  6
Continuous
 62
     7
100
AcDbPolyline
 90
        4
 70
     1
 43
0.0
 10
-2.45798
 20
0.322791
 10
-2.384987999999999
 20
0.322791
 10
-2.384987999999999
 20
0.367744
 10
-2.45798
 20
0.367744
  0
LWPOLYLINE
  5
DD7
330
1E
100
AcDbEntity
  8
LAYER_1
  6
Continuous
 62
     7
100
AcDbPolyline
 90
        4
 70
     1
 43
0.0
 10
-2.106303
 20
0.303039
 10
-2.031165
 20
0.303039
 10
-2.031165
 20
0.381531
 10
-2.106303
 20
0.381531
  0
LWPOLYLINE
  5
DDD
330
1E
100
AcDbEntity
  8
LAYER_1
  6
Continuous
 62
     7
100
AcDbPolyline
 90
        4
 70
     1
 43
0.0
 10
-2.119299
 20
0.355791
 10
-2.018661
 20
0.355791
 10
-2.018661
 20
0.361024
 10
-2.119299
 20
0.361024
  0
LWPOLYLINE
  5
DE3
330
1E
100
AcDbEntity
  8
LAYER_1
  6
Continuous
 62
     7
100
AcDbPolyline
 90
        2
 70
     0
 43
0.0
 10
-2.091318999999999
 20
0.395567
 10
-2.091318999999999
 20
0.375665
  0
LWPOLYLINE
  5
DE7
330
1E
100
AcDbEntity
  8
LAYER_1
  6
Continuous
 62
     7
100
AcDbPolyline
 90
        4
 70
     1
 43
0.0
 10
-2.115369999999999
 20
0.388319
 10
-2.067597999999999
 20
0.388319
 10
-2.067597999999999
 20
0.393681
 10
-2.115369999999999
 20
0.393681
  0
LWPOLYLINE
  5
DED
330
1E
100
AcDbEntity
  8
LAYER_1
  6
Continuous
 62
     7
100
AcDbPolyline
 90
        4
 70
     1
 43
0.0
 10
-2.102231999999999
 20
0.382764
 10
-2.080881999999999
 20
0.382764
 10
-2.080881999999999
 20
0.388098
 10
-2.102231999999999
 20
0.388098
  0
LWPOLYLINE
  5
DF3
330
1E
100
AcDbEntity
  8
LAYER_1
  6
Continuous
 62
     7
100
AcDbPolyline
 90
        4
 70
     0
 43
0.0
 10
-2.362968999999999
 20
0.32361
 10
-2.351611
 20
0.326608
 10
-2.343539999999999
 20
0.334482
 10
-2.340468999999999
 20
0.345555
  0
LWPOLYLINE
  5
DF9
330
1E
100
AcDbEntity
  8
LAYER_1
  6
Continuous
 62
     7
100
AcDbPolyline
 90
        4
 70
     0
 43
0.0
 10
-2.340468999999999
 20
0.345555
 10
-2.343539999999999
 20
0.356635
 10
-2.351611
 20
0.364513
 10
-2.362968999999999
 20
0.367512
  0
LWPOLYLINE
  5
DFF
330
1E
100
AcDbEntity
  8
LAYER_1
  6
Continuous
 62
     7
100
AcDbPolyline
 90
        4
 70
     0
 43
0.0
 10
-2.362968999999999
 20
0.367512
 10
-2.374321
 20
0.364513
 10
-2.382395
 20
0.356635
 10
-2.385469
 20
0.345555
  0
LWPOLYLINE
  5
E05
330
1E
100
AcDbEntity
  8
LAYER_1
  6
Continuous
 62
     7
100
AcDbPolyline
 90
        4
 70
     0
 43
0.0
 10
-2.385469
 20
0.345555
 10
-2.382395
 20
0.334482
 10
-2.374321
 20
0.326608
 10
-2.362968999999999
 20
0.32361
  0
LWPOLYLINE
  5
E0B
330
1E
100
AcDbEntity
  8
LAYER_1
  6
Continuous
 62
     7
100
AcDbPolyline
 90
        4
 70
     0
 43
0.0
 10
-2.317902
 20
0.324429
 10
-2.306548999999999
 20
0.327424
 10
-2.298475999999999
 20
0.3352949999999999
 10
-2.295402
 20
0.346374
  0
LWPOLYLINE
  5
E11
330
1E
100
AcDbEntity
  8
LAYER_1
  6
Continuous
 62
     7
100
AcDbPolyline
 90
        4
 70
     0
 43
0.0
 10
-2.295402
 20
0.346374
 10
-2.298475999999999
 20
0.357456
 10
-2.306548999999999
 20
0.365333
 10
-2.317902
 20
0.368331
  0
LWPOLYLINE
  5
E17
330
1E
100
AcDbEntity
  8
LAYER_1
  6
Continuous
 62
     7
100
AcDbPolyline
 90
        4
 70
     0
 43
0.0
 10
-2.317902
 20
0.368331
 10
-2.329258999999999
 20
0.365333
 10
-2.33733
 20
0.357456
 10
-2.340402
 20
0.346374
  0
LWPOLYLINE
  5
E1D
330
1E
100
AcDbEntity
  8
LAYER_1
  6
Continuous
 62
     7
100
AcDbPolyline
 90
        4
 70
     0
 43
0.0
 10
-2.340402
 20
0.346374
 10
-2.33733
 20
0.3352949999999999
 10
-2.329258999999999
 20
0.327424
 10
-2.317902
 20
0.324429
  0
LWPOLYLINE
  5
E23
330
1E
100
AcDbEntity
  8
LAYER_1
  6
Continuous
 62
     7
100
AcDbPolyline
 90
        4
 70
     0
 43
0.0
 10
-2.272858
 20
0.32361
 10
-2.261500999999999
 20
0.326608
 10
-2.253429999999999
 20
0.334482
 10
-2.250358
 20
0.345555
  0
LWPOLYLINE
  5
E29
330
1E
100
AcDbEntity
  8
LAYER_1
  6
Continuous
 62
     7
100
AcDbPolyline
 90
        4
 70
     0
 43
0.0
 10
-2.250358
 20
0.345555
 10
-2.253429999999999
 20
0.356635
 10
-2.261500999999999
 20
0.364513
 10
-2.272858
 20
0.367512
  0
LWPOLYLINE
  5
E2F
330
1E
100
AcDbEntity
  8
LAYER_1
  6
Continuous
 62
     7
100
AcDbPolyline
 90
        4
 70
     0
 43
0.0
 10
-2.272858
 20
0.367512
 10
-2.284209999999999
 20
0.364513
 10
-2.292283999999999
 20
0.356635
 10
-2.295358
 20
0.345555
  0
LWPOLYLINE
  5
E35
330
1E
100
AcDbEntity
  8
LAYER_1
  6
Continuous
 62
     7
100
AcDbPolyline
 90
        4
 70
     0
 43
0.0
 10
-2.295358
 20
0.345555
 10
-2.292283999999999
 20
0.334482
 10
-2.284209999999999
 20
0.326608
 10
-2.272858
 20
0.32361
  0
LWPOLYLINE
  5
E3B
330
1E
100
AcDbEntity
  8
LAYER_1
  6
Continuous
 62
     7
100
AcDbPolyline
 90
        4
 70
     1
 43
0.0
 10
-2.018121999999999
 20
0.297012
 10
-1.942984
 20
0.297012
 10
-1.942984
 20
0.375504
 10
-2.018121999999999
 20
0.375504
  0
LWPOLYLINE
  5
E41
330
1E
100
AcDbEntity
  8
LAYER_1
  6
Continuous
 62
     7
100
AcDbPolyline
 90
        4
 70
     1
 43
0.0
 10
-2.031118
 20
0.349764
 10
-1.93048
 20
0.349764
 10
-1.93048
 20
0.354996
 10
-2.031118
 20
0.354996
  0
LWPOLYLINE
  5
E47
330
1E
100
AcDbEntity
  8
LAYER_1
  6
Continuous
 62
     7
100
AcDbPolyline
 90
        2
 70
     0
 43
0.0
 10
-2.003138
 20
0.389539
 10
-2.003138
 20
0.369638
  0
LWPOLYLINE
  5
E4B
330
1E
100
AcDbEntity
  8
LAYER_1
  6
Continuous
 62
     7
100
AcDbPolyline
 90
        4
 70
     1
 43
0.0
 10
-2.027188999999999
 20
0.382291
 10
-1.979416999999999
 20
0.382291
 10
-1.979416999999999
 20
0.387654
 10
-2.027188999999999
 20
0.387654
  0
LWPOLYLINE
  5
E51
330
1E
100
AcDbEntity
  8
LAYER_1
  6
Continuous
 62
     7
100
AcDbPolyline
 90
        4
 70
     1
 43
0.0
 10
-2.014054999999999
 20
0.376732
 10
-1.992704999999999
 20
0.376732
 10
-1.992704999999999
 20
0.382067
 10
-2.014054999999999
 20
0.382067
  0
LWPOLYLINE
  5
E57
330
1E
100
AcDbEntity
  8
LAYER_1
  6
Continuous
 62
     7
100
AcDbPolyline
 90
        4
 70
     1
 43
0.0
 10
-2.237937
 20
0.314512
 10
-2.121818999999999
 20
0.314512
 10
-2.121818999999999
 20
0.374965
 10
-2.237937
 20
0.374965
  0
LWPOLYLINE
  5
E5D
330
1E
100
AcDbEntity
  8
LAYER_1
  6
Continuous
 62
     7
100
AcDbPolyline
 90
        4
 70
     1
 43
0.0
 10
-2.460936999999999
 20
1.940676999999999
 10
-2.387945
 20
1.940676999999999
 10
-2.387945
 20
1.98563
 10
-2.460936999999999
 20
1.98563
  0
LWPOLYLINE
  5
E63
330
1E
100
AcDbEntity
  8
LAYER_1
  6
Continuous
 62
     7
100
AcDbPolyline
 90
        4
 70
     1
 43
0.0
 10
-2.386452999999999
 20
1.915204999999999
 10
-2.341499999999999
 20
1.915204999999999
 10
-2.341499999999999
 20
1.988197
 10
-2.386452999999999
 20
1.988197
  0
LWPOLYLINE
  5
E69
330
1E
100
AcDbEntity
  8
LAYER_1
  6
Continuous
 62
     7
100
AcDbPolyline
 90
        4
 70
     1
 43
0.0
 10
-2.340743999999999
 20
1.915204999999999
 10
-2.295790999999999
 20
1.915204999999999
 10
-2.295790999999999
 20
1.988197
 10
-2.340743999999999
 20
1.988197
  0
LWPOLYLINE
  5
E6F
330
1E
100
AcDbEntity
  8
LAYER_1
  6
Continuous
 62
     7
100
AcDbPolyline
 90
        4
 70
     1
 43
0.0
 10
-2.295034999999999
 20
1.915204999999999
 10
-2.250083
 20
1.915204999999999
 10
-2.250083
 20
1.988197
 10
-2.295034999999999
 20
1.988197
  0
LWPOLYLINE
  5
E75
330
1E
100
AcDbEntity
  8
LAYER_1
  6
Continuous
 62
     7
100
AcDbPolyline
 90
        4
 70
     1
 43
0.0
 10
-2.238759999999999
 20
1.902345999999999
 10
-2.122641999999999
 20
1.902345999999999
 10
-2.122641999999999
 20
1.94265
 10
-2.238759999999999
 20
1.94265
  0
LWPOLYLINE
  5
E7B
330
1E
100
AcDbEntity
  8
LAYER_1
  6
Continuous
 62
     7
100
AcDbPolyline
 90
        4
 70
     0
 43
0.0
 10
-2.00265
 20
1.972622
 10
-1.985738999999999
 20
1.968045
 10
-1.973715
 20
1.956020999999999
 10
-1.969138
 20
1.939109999999999
  0
LWPOLYLINE
  5
E81
330
1E
100
AcDbEntity
  8
LAYER_1
  6
Continuous
 62
     7
100
AcDbPolyline
 90
        4
 70
     0
 43
0.0
 10
-1.969138
 20
1.939109999999999
 10
-1.973715
 20
1.922188999999999
 10
-1.985738999999999
 20
1.910159999999999
 10
-2.00265
 20
1.905583
  0
LWPOLYLINE
  5
E87
330
1E
100
AcDbEntity
  8
LAYER_1
  6
Continuous
 62
     7
100
AcDbPolyline
 90
        4
 70
     0
 43
0.0
 10
-2.00265
 20
1.905583
 10
-2.019571
 20
1.910159999999999
 10
-2.031599
 20
1.922188999999999
 10
-2.036176999999999
 20
1.939109999999999
  0
LWPOLYLINE
  5
E8D
330
1E
100
AcDbEntity
  8
LAYER_1
  6
Continuous
 62
     7
100
AcDbPolyline
 90
        4
 70
     0
 43
0.0
 10
-2.036176999999999
 20
1.939109999999999
 10
-2.031599
 20
1.956020999999999
 10
-2.019571
 20
1.968045
 10
-2.00265
 20
1.972622
  0
LWPOLYLINE
  5
E93
330
1E
100
AcDbEntity
  8
LAYER_1
  6
Continuous
 62
     7
100
AcDbPolyline
 90
        2
 70
     0
 43
0.0
 10
-2.00265
 20
1.939
 10
-2.00265
 20
1.977704999999999
  0
LWPOLYLINE
  5
E97
330
1E
100
AcDbEntity
  8
LAYER_1
  6
Continuous
 62
     7
100
AcDbPolyline
 90
        2
 70
     0
 43
0.0
 10
-2.002704999999999
 20
1.939054999999999
 10
-1.975345999999999
 20
1.966413
  0
LWPOLYLINE
  5
E9B
330
1E
100
AcDbEntity
  8
LAYER_1
  6
Continuous
 62
     7
100
AcDbPolyline
 90
        2
 70
     0
 43
0.0
 10
-2.002609999999999
 20
1.939054999999999
 10
-2.029968999999999
 20
1.966413
  0
LWPOLYLINE
  5
E9F
330
1E
100
AcDbEntity
  8
LAYER_1
  6
Continuous
 62
     7
100
AcDbPolyline
 90
        4
 70
     1
 43
0.0
 10
-2.016952999999999
 20
1.922719999999999
 10
-1.942638
 20
1.922719999999999
 10
-1.942638
 20
1.955893999999999
 10
-2.016952999999999
 20
1.955893999999999
  0
LWPOLYLINE
  5
EA5
330
1E
100
AcDbEntity
  8
LAYER_1
  6
Continuous
 62
     7
100
AcDbPolyline
 90
        4
 70
     1
 43
0.0
 10
-1.942562999999999
 20
1.922719999999999
 10
-1.929845999999999
 20
1.922719999999999
 10
-1.929845999999999
 20
1.955893999999999
 10
-1.942562999999999
 20
1.955893999999999
  0
LWPOLYLINE
  5
EAB
330
1E
100
AcDbEntity
  8
LAYER_1
  6
Continuous
 62
     7
100
AcDbPolyline
 90
        4
 70
     1
 43
0.0
 10
-2.029924999999999
 20
1.922719999999999
 10
-2.017208999999999
 20
1.922719999999999
 10
-2.017208999999999
 20
1.955893999999999
 10
-2.029924999999999
 20
1.955893999999999
  0
LWPOLYLINE
  5
EB1
330
1E
100
AcDbEntity
  8
LAYER_1
  6
Continuous
 62
     7
100
AcDbPolyline
 90
        4
 70
     0
 43
0.0
 10
-2.00265
 20
1.940122
 10
-2.002216999999999
 20
1.940004
 10
-2.001908999999999
 20
1.939695
 10
-2.001790999999999
 20
1.939263999999999
  0
LWPOLYLINE
  5
EB7
330
1E
100
AcDbEntity
  8
LAYER_1
  6
Continuous
 62
     7
100
AcDbPolyline
 90
        4
 70
     0
 43
0.0
 10
-2.001790999999999
 20
1.939263999999999
 10
-2.001908999999999
 20
1.938829999999999
 10
-2.002216999999999
 20
1.93852
 10
-2.00265
 20
1.938401999999999
  0
LWPOLYLINE
  5
EBD
330
1E
100
AcDbEntity
  8
LAYER_1
  6
Continuous
 62
     7
100
AcDbPolyline
 90
        4
 70
     0
 43
0.0
 10
-2.00265
 20
1.938401999999999
 10
-2.003086999999999
 20
1.93852
 10
-2.003404999999999
 20
1.938829999999999
 10
-2.003527999999999
 20
1.939263999999999
  0
LWPOLYLINE
  5
EC3
330
1E
100
AcDbEntity
  8
LAYER_1
  6
Continuous
 62
     7
100
AcDbPolyline
 90
        4
 70
     0
 43
0.0
 10
-2.003527999999999
 20
1.939263999999999
 10
-2.003404999999999
 20
1.939695
 10
-2.003086999999999
 20
1.940004
 10
-2.00265
 20
1.940122
  0
LWPOLYLINE
  5
EC9
330
1E
100
AcDbEntity
  8
LAYER_1
  6
Continuous
 62
     7
100
AcDbPolyline
 90
        4
 70
     0
 43
0.0
 10
-2.089901999999999
 20
1.972901999999999
 10
-2.072983
 20
1.968327
 10
-2.060959999999999
 20
1.956304
 10
-2.056386
 20
1.939386
  0
LWPOLYLINE
  5
ECF
330
1E
100
AcDbEntity
  8
LAYER_1
  6
Continuous
 62
     7
100
AcDbPolyline
 90
        4
 70
     0
 43
0.0
 10
-2.056386
 20
1.939386
 10
-2.060959999999999
 20
1.92247
 10
-2.072983
 20
1.910449
 10
-2.089901999999999
 20
1.905874
  0
LWPOLYLINE
  5
ED5
330
1E
100
AcDbEntity
  8
LAYER_1
  6
Continuous
 62
     7
100
AcDbPolyline
 90
        4
 70
     0
 43
0.0
 10
-2.089901999999999
 20
1.905874
 10
-2.106816999999999
 20
1.910449
 10
-2.118838999999999
 20
1.92247
 10
-2.123413
 20
1.939386
  0
LWPOLYLINE
  5
EDB
330
1E
100
AcDbEntity
  8
LAYER_1
  6
Continuous
 62
     7
100
AcDbPolyline
 90
        4
 70
     0
 43
0.0
 10
-2.123413
 20
1.939386
 10
-2.118838999999999
 20
1.956304
 10
-2.106816999999999
 20
1.968327
 10
-2.089901999999999
 20
1.972901999999999
  0
LWPOLYLINE
  5
EE1
330
1E
100
AcDbEntity
  8
LAYER_1
  6
Continuous
 62
     7
100
AcDbPolyline
 90
        2
 70
     0
 43
0.0
 10
-2.089901999999999
 20
1.939275999999999
 10
-2.089901999999999
 20
1.977968999999999
  0
LWPOLYLINE
  5
EE5
330
1E
100
AcDbEntity
  8
LAYER_1
  6
Continuous
 62
     7
100
AcDbPolyline
 90
        2
 70
     0
 43
0.0
 10
-2.089957
 20
1.939331
 10
-2.062583
 20
1.966693
  0
LWPOLYLINE
  5
EE9
330
1E
100
AcDbEntity
  8
LAYER_1
  6
Continuous
 62
     7
100
AcDbPolyline
 90
        2
 70
     0
 43
0.0
 10
-2.089857999999999
 20
1.939331
 10
-2.11722
 20
1.966693
  0
LWPOLYLINE
  5
EED
330
1E
100
AcDbEntity
  8
LAYER_1
  6
Continuous
 62
     7
100
AcDbPolyline
 90
        4
 70
     1
 43
0.0
 10
-2.104200999999999
 20
1.923011999999999
 10
-2.029885999999999
 20
1.923011999999999
 10
-2.029885999999999
 20
1.956184999999999
 10
-2.104200999999999
 20
1.956184999999999
  0
LWPOLYLINE
  5
EF3
330
1E
100
AcDbEntity
  8
LAYER_1
  6
Continuous
 62
     7
100
AcDbPolyline
 90
        4
 70
     1
 43
0.0
 10
-2.029815
 20
1.923
 10
-2.017097999999999
 20
1.923
 10
-2.017097999999999
 20
1.956172999999999
 10
-2.029815
 20
1.956172999999999
  0
LWPOLYLINE
  5
EF9
330
1E
100
AcDbEntity
  8
LAYER_1
  6
Continuous
 62
     7
100
AcDbPolyline
 90
        4
 70
     1
 43
0.0
 10
-2.117188999999999
 20
1.923
 10
-2.104471999999999
 20
1.923
 10
-2.104471999999999
 20
1.956172999999999
 10
-2.117188999999999
 20
1.956172999999999
  0
LWPOLYLINE
  5
EFF
330
1E
100
AcDbEntity
  8
LAYER_1
  6
Continuous
 62
     7
100
AcDbPolyline
 90
        4
 70
     0
 43
0.0
 10
-2.089901999999999
 20
1.940413
 10
-2.089468
 20
1.940296
 10
-2.089158
 20
1.939987999999999
 10
-2.089039
 20
1.939555
  0
LWPOLYLINE
  5
F05
330
1E
100
AcDbEntity
  8
LAYER_1
  6
Continuous
 62
     7
100
AcDbPolyline
 90
        4
 70
     0
 43
0.0
 10
-2.089039
 20
1.939555
 10
-2.089158
 20
1.939122
 10
-2.089468
 20
1.938811
 10
-2.089901999999999
 20
1.938692999999999
  0
LWPOLYLINE
  5
F0B
330
1E
100
AcDbEntity
  8
LAYER_1
  6
Continuous
 62
     7
100
AcDbPolyline
 90
        4
 70
     0
 43
0.0
 10
-2.089901999999999
 20
1.938692999999999
 10
-2.090338
 20
1.938811
 10
-2.090654
 20
1.939122
 10
-2.090775999999999
 20
1.939555
  0
LWPOLYLINE
  5
F11
330
1E
100
AcDbEntity
  8
LAYER_1
  6
Continuous
 62
     7
100
AcDbPolyline
 90
        4
 70
     0
 43
0.0
 10
-2.090775999999999
 20
1.939555
 10
-2.090654
 20
1.939987999999999
 10
-2.090338
 20
1.940296
 10
-2.089901999999999
 20
1.940413
  0
LWPOLYLINE
  5
F17
330
1E
100
AcDbEntity
  8
LAYER_1
  6
Continuous
 62
     7
100
AcDbPolyline
 90
        2
 70
     0
 43
0.0
 10
-1.206303
 20
1.922331
 10
1.524038999999999
 20
1.935857999999999
  0
LWPOLYLINE
  5
F1B
330
1E
100
AcDbEntity
  8
LAYER_1
  6
Continuous
 62
     7
100
AcDbPolyline
 90
        2
 70
     0
 43
0.0
 10
1.523637999999999
 20
2.834913
 10
1.523637999999999
 20
1.935456999999999
  0
LWPOLYLINE
  5
F1F
330
1E
100
AcDbEntity
  8
LAYER_1
  6
Continuous
 62
     7
100
AcDbPolyline
 90
        4
 70
     0
 43
0.0
 10
1.307358
 20
1.96822
 10
1.307782999999999
 20
1.971422
 10
1.310758
 20
1.993829
 10
1.318830999999999
 20
2.05465
  0
LWPOLYLINE
  5
F25
330
1E
100
AcDbEntity
  8
LAYER_1
  6
Continuous
 62
     7
100
AcDbPolyline
 90
        6
 70
     0
 43
0.0
 10
1.318830999999999
 20
2.05465
 10
1.326934999999999
 20
2.115708999999999
 10
1.336867
 20
2.190525999999999
 10
1.347704
 20
2.272115
 10
1.358522999999999
 20
2.353485
 10
1.368402
 20
2.427649999999999
  0
LWPOLYLINE
  5
F2D
330
1E
100
AcDbEntity
  8
LAYER_1
  6
Continuous
 62
     7
100
AcDbPolyline
 90
        4
 70
     0
 43
0.0
 10
1.368402
 20
2.427649999999999
 10
1.381256
 20
2.523433999999999
 10
1.390712
 20
2.590399999999999
 10
1.398567
 20
2.639137999999999
  0
LWPOLYLINE
  5
F33
330
1E
100
AcDbEntity
  8
LAYER_1
  6
Continuous
 62
     7
100
AcDbPolyline
 90
        4
 70
     0
 43
0.0
 10
1.398567
 20
2.639137999999999
 10
1.406349
 20
2.678638
 10
1.41455
 20
2.71159
 10
1.423412999999999
 20
2.739083
  0
LWPOLYLINE
  5
F39
330
1E
100
AcDbEntity
  8
LAYER_1
  6
Continuous
 62
     7
100
AcDbPolyline
 90
        4
 70
     0
 43
0.0
 10
1.423412999999999
 20
2.739083
 10
1.433181
 20
2.762093999999999
 10
1.444009
 20
2.781228
 10
1.456054999999999
 20
2.796968999999999
  0
LWPOLYLINE
  5
F3F
330
1E
100
AcDbEntity
  8
LAYER_1
  6
Continuous
 62
     7
100
AcDbPolyline
 90
        4
 70
     0
 43
0.0
 10
1.456054999999999
 20
2.796968999999999
 10
1.469257999999999
 20
2.809720999999999
 10
1.482795
 20
2.819622999999999
 10
1.495638
 20
2.826731999999999
  0
LWPOLYLINE
  5
F45
330
1E
100
AcDbEntity
  8
LAYER_1
  6
Continuous
 62
     7
100
AcDbPolyline
 90
        4
 70
     0
 43
0.0
 10
1.495638
 20
2.826731999999999
 10
1.507082
 20
2.831215999999999
 10
1.517735
 20
2.833666999999999
 10
1.528538999999999
 20
2.834791
  0
LWPOLYLINE
  5
F4B
330
1E
100
AcDbEntity
  8
LAYER_1
  6
Continuous
 62
     7
100
AcDbPolyline
 90
        4
 70
     0
 43
0.0
 10
1.528538999999999
 20
2.834791
 10
1.540137
 20
2.835191
 10
1.551951
 20
2.835198
 10
1.563093999999999
 20
2.835055
  0
LWPOLYLINE
  5
F51
330
1E
100
AcDbEntity
  8
LAYER_1
  6
Continuous
 62
     7
100
AcDbPolyline
 90
        4
 70
     0
 43
0.0
 10
1.563093999999999
 20
2.835055
 10
1.573174999999999
 20
2.834954999999999
 10
1.583807999999999
 20
2.834918999999999
 10
1.597083
 20
2.834913
  0
LWPOLYLINE
  5
F57
330
1E
100
AcDbEntity
  8
LAYER_1
  6
Continuous
 62
     7
100
AcDbPolyline
 90
        4
 70
     0
 43
0.0
 10
1.597083
 20
2.834913
 10
1.614108
 20
2.834696
 10
1.632074999999999
 20
2.833177999999999
 10
1.647193
 20
2.829054999999999
  0
LWPOLYLINE
  5
F5D
330
1E
100
AcDbEntity
  8
LAYER_1
  6
Continuous
 62
     7
100
AcDbPolyline
 90
        4
 70
     0
 43
0.0
 10
1.647193
 20
2.829054999999999
 10
1.656759
 20
2.821038999999999
 10
1.662436999999999
 20
2.808021
 10
1.666984
 20
2.788912999999999
  0
LWPOLYLINE
  5
F63
330
1E
100
AcDbEntity
  8
LAYER_1
  6
Continuous
 62
     7
100
AcDbPolyline
 90
        4
 70
     0
 43
0.0
 10
1.666984
 20
2.788912999999999
 10
1.672741
 20
2.762621999999999
 10
1.680254999999999
 20
2.728136
 10
1.68965
 20
2.684457
  0
LWPOLYLINE
  5
F69
330
1E
100
AcDbEntity
  8
LAYER_1
  6
Continuous
 62
     7
100
AcDbPolyline
 90
        4
 70
     0
 43
0.0
 10
1.68965
 20
2.684457
 10
1.701008999999999
 20
2.630904999999999
 10
1.71425
 20
2.568035
 10
1.729247999999999
 20
2.496732
  0
LWPOLYLINE
  5
F6F
330
1E
100
AcDbEntity
  8
LAYER_1
  6
Continuous
 62
     7
100
AcDbPolyline
 90
        4
 70
     0
 43
0.0
 10
1.729247999999999
 20
2.496732
 10
1.745734999999999
 20
2.418498
 10
1.762859999999999
 20
2.337315999999999
 10
1.779621999999999
 20
2.257803
  0
LWPOLYLINE
  5
F75
330
1E
100
AcDbEntity
  8
LAYER_1
  6
Continuous
 62
     7
100
AcDbPolyline
 90
        4
 70
     0
 43
0.0
 10
1.779621999999999
 20
2.257803
 10
1.795030999999999
 20
2.184450999999999
 10
1.808131
 20
2.121261999999999
 10
1.817984
 20
2.072122
  0
LWPOLYLINE
  5
F7B
330
1E
100
AcDbEntity
  8
LAYER_1
  6
Continuous
 62
     7
100
AcDbPolyline
 90
        4
 70
     0
 43
0.0
 10
1.817984
 20
2.072122
 10
1.823761999999999
 20
2.039422
 10
1.825013
 20
2.019583
 10
1.821401999999999
 20
2.007538999999999
  0
LWPOLYLINE
  5
F81
330
1E
100
AcDbEntity
  8
LAYER_1
  6
Continuous
 62
     7
100
AcDbPolyline
 90
        4
 70
     0
 43
0.0
 10
1.821401999999999
 20
2.007538999999999
 10
1.812631
 20
1.998970999999999
 10
1.798454999999999
 20
1.992461
 10
1.778665
 20
1.987345999999999
  0
LWPOLYLINE
  5
F87
330
1E
100
AcDbEntity
  8
LAYER_1
  6
Continuous
 62
     7
100
AcDbPolyline
 90
        4
 70
     0
 43
0.0
 10
1.778665
 20
1.987345999999999
 10
1.753461
 20
1.982990999999999
 10
1.724679
 20
1.978945
 10
1.694566999999999
 20
1.974775999999999
  0
LWPOLYLINE
  5
F8D
330
1E
100
AcDbEntity
  8
LAYER_1
  6
Continuous
 62
     7
100
AcDbPolyline
 90
        4
 70
     0
 43
0.0
 10
1.694566999999999
 20
1.974775999999999
 10
1.664959
 20
1.970268999999999
 10
1.636111999999999
 20
1.966
 10
1.607873999999999
 20
1.962763999999999
  0
LWPOLYLINE
  5
F93
330
1E
100
AcDbEntity
  8
LAYER_1
  6
Continuous
 62
     7
100
AcDbPolyline
 90
        4
 70
     0
 43
0.0
 10
1.607873999999999
 20
1.962763999999999
 10
1.580594
 20
1.961109999999999
 10
1.556648
 20
1.960641999999999
 10
1.538912999999999
 20
1.96072
  0
LWPOLYLINE
  5
F99
330
1E
100
AcDbEntity
  8
LAYER_1
  6
Continuous
 62
     7
100
AcDbPolyline
 90
        4
 70
     0
 43
0.0
 10
1.538912999999999
 20
1.96072
 10
1.529315999999999
 20
1.960816999999999
 10
1.525781
 20
1.960853
 10
1.525276
 20
1.960858
  0
TEXT
  5
F9F
330
1E
100
AcDbEntity
  8
LAYER_1
 62
     7
100
AcDbText
 10
0.763705
 20
3.072
 30
0.0
 40
0.111888
  1
Sv = 75 inò
 41
0.6670465321781113
  7
SN1
 72
     5
 11
1.506495999999999
 21
3.072
 31
0.0
100
AcDbText
  0
TEXT
  5
FA0
330
1E
100
AcDbEntity
  8
LAYER_1
 62
     7
100
AcDbText
 10
0.763705
 20
2.936831
 30
0.0
 40
0.111888
  1
Cv = 0.022
 41
0.6423444929304303
  7
SN1
 72
     5
 11
1.420808
 21
2.936831
 31
0.0
100
AcDbText
  0
TEXT
  5
FA1
330
1E
100
AcDbEntity
  8
LAYER_1
 62
     7
100
AcDbText
 10
1.93078
 20
-3.296819
 30
0.0
 40
0.142486
  1
Supra F3J/TD 3.4m
 41
0.6701576422819207
  7
SN2
 72
     5
 11
3.431306999999999
 21
-3.296819
 31
0.0
100
AcDbText
  0
LWPOLYLINE
  5
FA2
330
1E
100
AcDbEntity
  8
LAYER_1
  6
Continuous
 62
     7
100
AcDbPolyline
 90
        4
 70
     1
 43
0.0
 10
1.795609999999999
 20
-3.730555
 10
3.663358
 20
-3.730555
 10
3.663358
 20
-3.042441
 10
1.795609999999999
 20
-3.042441
  0
TEXT
  5
FA8
330
1E
100
AcDbEntity
  8
LAYER_1
 62
     7
100
AcDbText
 10
1.987846
 20
-3.535928999999999
 30
0.0
 40
0.111888
  1
Mark Drela   10 July 04
 41
0.6133788199964665
  7
SN3
 72
     5
 11
3.376780999999999
 21
-3.535928999999999
 31
0.0
100
AcDbText
  0
LWPOLYLINE
  5
FA9
330
1E
100
AcDbEntity
  8
LAYER_1
  6
Continuous
 62
     7
100
AcDbPolyline
 90
        2
 70
     0
 43
0.0
 10
-1.884913
 20
2.018609999999999
 10
-1.884913
 20
1.889593999999999
  0
LWPOLYLINE
  5
FAD
330
1E
100
AcDbEntity
  8
LAYER_1
  6
Continuous
 62
     7
100
AcDbPolyline
 90
        2
 70
     0
 43
0.0
 10
-1.88722
 20
0.415819
 10
-1.88722
 20
0.279886
  0
LWPOLYLINE
  5
FB1
330
1E
100
AcDbEntity
  8
LAYER_1
  6
Continuous
 62
     7
100
AcDbPolyline
 90
       12
 70
     1
 43
0.0
 10
-1.328873999999999
 20
2.033528
 10
-1.325379
 20
2.034443
 10
-1.322889999999999
 20
2.036852
 10
-1.321941
 20
2.040248
 10
-1.322889999999999
 20
2.043638999999999
 10
-1.325379
 20
2.04605
 10
-1.328873999999999
 20
2.046968999999999
 10
-1.332377
 20
2.04605
 10
-1.33487
 20
2.043638999999999
 10
-1.335819
 20
2.040248
 10
-1.33487
 20
2.036852
 10
-1.332377
 20
2.034443
  0
LWPOLYLINE
  5
FBF
330
1E
100
AcDbEntity
  8
LAYER_1
  6
Continuous
 62
     7
100
AcDbPolyline
 90
        4
 70
     0
 43
0.0
 10
-1.328873999999999
 20
2.033528
 10
-1.325379
 20
2.034443
 10
-1.322889999999999
 20
2.036852
 10
-1.321941
 20
2.040248
  0
LWPOLYLINE
  5
FC5
330
1E
100
AcDbEntity
  8
LAYER_1
  6
Continuous
 62
     7
100
AcDbPolyline
 90
        4
 70
     0
 43
0.0
 10
-1.321941
 20
2.040248
 10
-1.322889999999999
 20
2.043638999999999
 10
-1.325379
 20
2.04605
 10
-1.328873999999999
 20
2.046968999999999
  0
LWPOLYLINE
  5
FCB
330
1E
100
AcDbEntity
  8
LAYER_1
  6
Continuous
 62
     7
100
AcDbPolyline
 90
        4
 70
     0
 43
0.0
 10
-1.328873999999999
 20
2.046968999999999
 10
-1.332377
 20
2.04605
 10
-1.33487
 20
2.043638999999999
 10
-1.335819
 20
2.040248
  0
LWPOLYLINE
  5
FD1
330
1E
100
AcDbEntity
  8
LAYER_1
  6
Continuous
 62
     7
100
AcDbPolyline
 90
        4
 70
     0
 43
0.0
 10
-1.335819
 20
2.040248
 10
-1.33487
 20
2.036852
 10
-1.332377
 20
2.034443
 10
-1.328873999999999
 20
2.033528
  0
SOLID
  5
FD7
330
1E
100
AcDbEntity
  8
LAYER_1
  6
Continuous
100
AcDbTrace
 10
-1.328869999999999
 20
2.040248
 30
0.0
 11
-1.322145999999999
 21
2.040248
 31
0.0
 12
-1.328869999999999
 22
2.047181
 32
0.0
 13
-1.322145999999999
 23
2.047181
 33
0.0
  0
LWPOLYLINE
  5
FD8
330
1E
100
AcDbEntity
  8
LAYER_1
  6
Continuous
100
AcDbPolyline
 90
        4
 70
     1
 43
0.0
 10
-1.328869999999999
 20
2.040248
 10
-1.322145999999999
 20
2.040248
 10
-1.322145999999999
 20
2.047181
 10
-1.328869999999999
 20
2.047181
  0
SOLID
  5
FDE
330
1E
100
AcDbEntity
  8
LAYER_1
  6
Continuous
100
AcDbTrace
 10
-1.335819
 20
2.033528
 30
0.0
 11
-1.328886
 21
2.033528
 31
0.0
 12
-1.335819
 22
2.040252
 32
0.0
 13
-1.328886
 23
2.040252
 33
0.0
  0
LWPOLYLINE
  5
FDF
330
1E
100
AcDbEntity
  8
LAYER_1
  6
Continuous
100
AcDbPolyline
 90
        4
 70
     1
 43
0.0
 10
-1.335819
 20
2.033528
 10
-1.328886
 20
2.033528
 10
-1.328886
 20
2.040252
 10
-1.335819
 20
2.040252
  0
LWPOLYLINE
  5
FE5
330
1E
100
AcDbEntity
  8
LAYER_1
  6
Continuous
 62
     7
100
AcDbPolyline
 90
        4
 70
     0
 43
0.0
 10
-1.328873999999999
 20
2.033528
 10
-1.325379
 20
2.034443
 10
-1.322889999999999
 20
2.036852
 10
-1.321941
 20
2.040248
  0
LWPOLYLINE
  5
FEB
330
1E
100
AcDbEntity
  8
LAYER_1
  6
Continuous
 62
     7
100
AcDbPolyline
 90
        4
 70
     0
 43
0.0
 10
-1.321941
 20
2.040248
 10
-1.322889999999999
 20
2.043638999999999
 10
-1.325379
 20
2.04605
 10
-1.328873999999999
 20
2.046968999999999
  0
LWPOLYLINE
  5
FF1
330
1E
100
AcDbEntity
  8
LAYER_1
  6
Continuous
 62
     7
100
AcDbPolyline
 90
        4
 70
     0
 43
0.0
 10
-1.328873999999999
 20
2.046968999999999
 10
-1.332377
 20
2.04605
 10
-1.33487
 20
2.043638999999999
 10
-1.335819
 20
2.040248
  0
LWPOLYLINE
  5
FF7
330
1E
100
AcDbEntity
  8
LAYER_1
  6
Continuous
 62
     7
100
AcDbPolyline
 90
        4
 70
     0
 43
0.0
 10
-1.335819
 20
2.040248
 10
-1.33487
 20
2.036852
 10
-1.332377
 20
2.034443
 10
-1.328873999999999
 20
2.033528
  0
LWPOLYLINE
  5
FFD
330
1E
100
AcDbEntity
  8
LAYER_1
  6
Continuous
 62
     7
100
AcDbPolyline
 90
        4
 70
     0
 43
0.0
 10
-1.343177
 20
1.910331
 10
-1.343177
 20
1.910274
 10
-1.343177
 20
1.909874999999999
 10
-1.343177
 20
1.908790999999999
  0
LWPOLYLINE
  5
1003
330
1E
100
AcDbEntity
  8
LAYER_1
  6
Continuous
 62
     7
100
AcDbPolyline
 90
        4
 70
     0
 43
0.0
 10
-1.343177
 20
1.908790999999999
 10
-1.343166999999999
 20
1.906804999999999
 10
-1.343099
 20
1.904194999999999
 10
-1.342913
 20
1.901358
  0
LWPOLYLINE
  5
1009
330
1E
100
AcDbEntity
  8
LAYER_1
  6
Continuous
 62
     7
100
AcDbPolyline
 90
        4
 70
     0
 43
0.0
 10
-1.342913
 20
1.901358
 10
-1.342565
 20
1.898639
 10
-1.342021999999999
 20
1.896113
 10
-1.341247999999999
 20
1.893818999999999
  0
LWPOLYLINE
  5
100F
330
1E
100
AcDbEntity
  8
LAYER_1
  6
Continuous
 62
     7
100
AcDbPolyline
 90
        4
 70
     0
 43
0.0
 10
-1.341247999999999
 20
1.893818999999999
 10
-1.340238999999999
 20
1.891758
 10
-1.339026
 20
1.889897
 10
-1.337664999999999
 20
1.888176999999999
  0
LWPOLYLINE
  5
1015
330
1E
100
AcDbEntity
  8
LAYER_1
  6
Continuous
 62
     7
100
AcDbPolyline
 90
        4
 70
     0
 43
0.0
 10
-1.337664999999999
 20
1.888176999999999
 10
-1.336203
 20
1.886570999999999
 10
-1.334567
 20
1.885138
 10
-1.332677
 20
1.883956999999999
  0
LWPOLYLINE
  5
101B
330
1E
100
AcDbEntity
  8
LAYER_1
  6
Continuous
 62
     7
100
AcDbPolyline
 90
        4
 70
     0
 43
0.0
 10
-1.332677
 20
1.883956999999999
 10
-1.330412
 20
1.883109999999999
 10
-1.327554999999999
 20
1.882663
 10
-1.323845999999999
 20
1.882676999999999
  0
LWPOLYLINE
  5
1021
330
1E
100
AcDbEntity
  8
LAYER_1
  6
Continuous
 62
     7
100
AcDbPolyline
 90
        4
 70
     0
 43
0.0
 10
-1.323845999999999
 20
1.882676999999999
 10
-1.319166999999999
 20
1.883159
 10
-1.313976
 20
1.883984999999999
 10
-1.308873999999999
 20
1.884984
  0
LWPOLYLINE
  5
1027
330
1E
100
AcDbEntity
  8
LAYER_1
  6
Continuous
 62
     7
100
AcDbPolyline
 90
        4
 70
     0
 43
0.0
 10
-1.308873999999999
 20
1.884984
 10
-1.304349999999999
 20
1.886008999999999
 10
-1.300540999999999
 20
1.887031
 10
-1.297468999999999
 20
1.888054999999999
  0
LWPOLYLINE
  5
102D
330
1E
100
AcDbEntity
  8
LAYER_1
  6
Continuous
 62
     7
100
AcDbPolyline
 90
        4
 70
     0
 43
0.0
 10
-1.297468999999999
 20
1.888054999999999
 10
-1.295155999999999
 20
1.889077999999999
 10
-1.293520999999999
 20
1.890068999999999
 10
-1.292483999999999
 20
1.891
  0
LWPOLYLINE
  5
1033
330
1E
100
AcDbEntity
  8
LAYER_1
  6
Continuous
 62
     7
100
AcDbPolyline
 90
        4
 70
     0
 43
0.0
 10
-1.292483999999999
 20
1.891
 10
-1.291946999999999
 20
1.891839
 10
-1.291749
 20
1.892540999999999
 10
-1.291719999999999
 20
1.893038999999999
  0
LWPOLYLINE
  5
1039
330
1E
100
AcDbEntity
  8
LAYER_1
  6
Continuous
 62
     7
100
AcDbPolyline
 90
        4
 70
     0
 43
0.0
 10
-1.291719999999999
 20
1.893038999999999
 10
-1.291719999999999
 20
1.893313999999999
 10
-1.291719999999999
 20
1.893415
 10
-1.291719999999999
 20
1.893429
  0
LWPOLYLINE
  5
103F
330
1E
100
AcDbEntity
  8
LAYER_1
  6
Continuous
 62
     7
100
AcDbPolyline
 90
        4
 70
     0
 43
0.0
 10
-1.33011
 20
1.910331
 10
-1.33011
 20
1.910263999999999
 10
-1.33011
 20
1.909795999999999
 10
-1.33011
 20
1.908527999999999
  0
LWPOLYLINE
  5
1045
330
1E
100
AcDbEntity
  8
LAYER_1
  6
Continuous
 62
     7
100
AcDbPolyline
 90
        4
 70
     0
 43
0.0
 10
-1.33011
 20
1.908527999999999
 10
-1.330100999999999
 20
1.906258
 10
-1.330035999999999
 20
1.90347
 10
-1.329857999999999
 20
1.900858
  0
LWPOLYLINE
  5
104B
330
1E
100
AcDbEntity
  8
LAYER_1
  6
Continuous
 62
     7
100
AcDbPolyline
 90
        4
 70
     0
 43
0.0
 10
-1.329857999999999
 20
1.900858
 10
-1.329531
 20
1.898938
 10
-1.329085999999999
 20
1.897611
 10
-1.328583
 20
1.896621999999999
  0
LWPOLYLINE
  5
1051
330
1E
100
AcDbEntity
  8
LAYER_1
  6
Continuous
 62
     7
100
AcDbPolyline
 90
        4
 70
     0
 43
0.0
 10
-1.328583
 20
1.896621999999999
 10
-1.328049
 20
1.895779
 10
-1.327405999999999
 20
1.895048
 10
-1.326538999999999
 20
1.894457
  0
LWPOLYLINE
  5
1057
330
1E
100
AcDbEntity
  8
LAYER_1
  6
Continuous
 62
     7
100
AcDbPolyline
 90
        4
 70
     0
 43
0.0
 10
-1.326538999999999
 20
1.894457
 10
-1.325344999999999
 20
1.894021
 10
-1.323839999999999
 20
1.893727999999999
 10
-1.322054999999999
 20
1.893554999999999
  0
LWPOLYLINE
  5
105D
330
1E
100
AcDbEntity
  8
LAYER_1
  6
Continuous
 62
     7
100
AcDbPolyline
 90
        4
 70
     0
 43
0.0
 10
-1.322054999999999
 20
1.893554999999999
 10
-1.319951
 20
1.893475999999999
 10
-1.317248999999999
 20
1.893506999999999
 10
-1.313609999999999
 20
1.893677
  0
LWPOLYLINE
  5
1063
330
1E
100
AcDbEntity
  8
LAYER_1
  6
Continuous
 62
     7
100
AcDbPolyline
 90
        4
 70
     0
 43
0.0
 10
-1.313609999999999
 20
1.893677
 10
-1.308889999999999
 20
1.894006
 10
-1.303806
 20
1.894386999999999
 10
-1.299263999999999
 20
1.894704999999999
  0
LWPOLYLINE
  5
1069
330
1E
100
AcDbEntity
  8
LAYER_1
  6
Continuous
 62
     7
100
AcDbPolyline
 90
        4
 70
     0
 43
0.0
 10
-1.299263999999999
 20
1.894704999999999
 10
-1.295978999999999
 20
1.894875999999999
 10
-1.293855999999999
 20
1.894843999999999
 10
-1.29261
 20
1.894583
  0
LWPOLYLINE
  5
106F
330
1E
100
AcDbEntity
  8
LAYER_1
  6
Continuous
 62
     7
100
AcDbPolyline
 90
        4
 70
     0
 43
0.0
 10
-1.29261
 20
1.894583
 10
-1.291984
 20
1.894096
 10
-1.291753
 20
1.893525999999999
 10
-1.291719999999999
 20
1.893038999999999
  0
LWPOLYLINE
  5
1075
330
1E
100
AcDbEntity
  8
LAYER_1
  6
Continuous
 62
     7
100
AcDbPolyline
 90
        4
 70
     0
 43
0.0
 10
-1.291719999999999
 20
1.893038999999999
 10
-1.291719999999999
 20
1.892775999999999
 10
-1.291719999999999
 20
1.892679
 10
-1.291719999999999
 20
1.892665
  0
LWPOLYLINE
  5
107B
330
1E
100
AcDbEntity
  8
LAYER_1
  6
Continuous
 62
     7
100
AcDbPolyline
 90
        2
 70
     0
 43
0.0
 10
-1.206303
 20
1.986232
 10
1.522819
 20
1.972719999999999
  0
SOLID
  5
107F
330
1E
100
AcDbEntity
  8
LAYER_1
  6
Continuous
100
AcDbTrace
 10
1.079790999999999
 20
2.084192999999999
 30
0.0
 11
1.055204999999999
 21
1.933054999999999
 31
0.0
 12
1.094528
 22
2.085412999999999
 32
0.0
 13
1.119094
 23
1.933054999999999
 33
0.0
  0
LWPOLYLINE
  5
1080
330
1E
100
AcDbEntity
  8
LAYER_1
  6
Continuous
100
AcDbPolyline
 90
        4
 70
     1
 43
0.0
 10
1.079790999999999
 20
2.084192999999999
 10
1.055204999999999
 20
1.933054999999999
 10
1.119094
 20
1.933054999999999
 10
1.094528
 20
2.085412999999999
  0
LWPOLYLINE
  5
1086
330
1E
100
AcDbEntity
  8
LAYER_1
  6
Continuous
 62
     7
100
AcDbPolyline
 90
        4
 70
     0
 43
0.0
 10
1.079790999999999
 20
2.084192999999999
 10
1.055204999999999
 20
1.933054999999999
 10
1.119094
 20
1.933054999999999
 10
1.094528
 20
2.085412999999999
  0
LWPOLYLINE
  5
108C
330
1E
100
AcDbEntity
  8
LAYER_1
  6
Continuous
 62
     7
100
AcDbPolyline
 90
        4
 70
     0
 43
0.0
 10
1.309177
 20
2.093345999999999
 10
1.307792
 20
2.093412999999999
 10
1.298094999999999
 20
2.093876999999999
 10
1.271776
 20
2.095137999999999
  0
LWPOLYLINE
  5
1092
330
1E
100
AcDbEntity
  8
LAYER_1
  6
Continuous
 62
     7
100
AcDbPolyline
 90
        4
 70
     0
 43
0.0
 10
1.271776
 20
2.095137999999999
 10
1.224301
 20
2.097399
 10
1.166274999999999
 20
2.100070999999999
 10
1.112094
 20
2.102358
  0
LWPOLYLINE
  5
1098
330
1E
100
AcDbEntity
  8
LAYER_1
  6
Continuous
 62
     7
100
AcDbPolyline
 90
        4
 70
     0
 43
0.0
 10
1.112094
 20
2.102358
 10
1.072991
 20
2.1036
 10
1.047449
 20
2.103634
 10
1.030791
 20
2.102428999999999
  0
LWPOLYLINE
  5
109E
330
1E
100
AcDbEntity
  8
LAYER_1
  6
Continuous
 62
     7
100
AcDbPolyline
 90
        4
 70
     0
 43
0.0
 10
1.030791
 20
2.102428999999999
 10
1.019160999999999
 20
2.100029999999999
 10
1.011998999999999
 20
2.096779999999999
 10
1.009554999999999
 20
2.093093999999999
  0
LWPOLYLINE
  5
10A4
330
1E
100
AcDbEntity
  8
LAYER_1
  6
Continuous
 62
     7
100
AcDbPolyline
 90
        4
 70
     0
 43
0.0
 10
1.009554999999999
 20
2.093093999999999
 10
1.011998999999999
 20
2.089389
 10
1.019160999999999
 20
2.086088
 10
1.030791
 20
2.083622
  0
LWPOLYLINE
  5
10AA
330
1E
100
AcDbEntity
  8
LAYER_1
  6
Continuous
 62
     7
100
AcDbPolyline
 90
        4
 70
     0
 43
0.0
 10
1.030791
 20
2.083622
 10
1.047449
 20
2.082364
 10
1.072991
 20
2.082374999999999
 10
1.112094
 20
2.083665
  0
LWPOLYLINE
  5
10B0
330
1E
100
AcDbEntity
  8
LAYER_1
  6
Continuous
 62
     7
100
AcDbPolyline
 90
        4
 70
     0
 43
0.0
 10
1.112094
 20
2.083665
 10
1.166274999999999
 20
2.086099
 10
1.224301
 20
2.088964999999999
 10
1.271776
 20
2.091401999999999
  0
LWPOLYLINE
  5
10B6
330
1E
100
AcDbEntity
  8
LAYER_1
  6
Continuous
 62
     7
100
AcDbPolyline
 90
        4
 70
     0
 43
0.0
 10
1.271776
 20
2.091401999999999
 10
1.298094999999999
 20
2.09277
 10
1.307792
 20
2.093274
 10
1.309177
 20
2.093345999999999
  0
LWPOLYLINE
  5
10BC
330
1E
100
AcDbEntity
  8
LAYER_1
  6
Continuous
 62
     7
100
AcDbPolyline
 90
        4
 70
     0
 43
0.0
 10
1.302621999999999
 20
2.035232
 10
1.301301
 20
2.035654999999999
 10
1.292054999999999
 20
2.038615
 10
1.266956999999999
 20
2.04665
  0
LWPOLYLINE
  5
10C2
330
1E
100
AcDbEntity
  8
LAYER_1
  6
Continuous
 62
     7
100
AcDbPolyline
 90
        4
 70
     0
 43
0.0
 10
1.266956999999999
 20
2.04665
 10
1.221673999999999
 20
2.061123999999999
 10
1.166317
 20
2.078717999999999
 10
1.114583
 20
2.094940999999999
  0
LWPOLYLINE
  5
10C8
330
1E
100
AcDbEntity
  8
LAYER_1
  6
Continuous
 62
     7
100
AcDbPolyline
 90
        4
 70
     0
 43
0.0
 10
1.114583
 20
2.094940999999999
 10
1.077126999999999
 20
2.106263999999999
 10
1.052462999999999
 20
2.112908
 10
1.036054999999999
 20
2.116054999999999
  0
LWPOLYLINE
  5
10CE
330
1E
100
AcDbEntity
  8
LAYER_1
  6
Continuous
 62
     7
100
AcDbPolyline
 90
        4
 70
     0
 43
0.0
 10
1.036054999999999
 20
2.116054999999999
 10
1.024212
 20
2.116758
 10
1.016453
 20
2.115479999999999
 10
1.013137999999999
 20
2.112554999999999
  0
LWPOLYLINE
  5
10D4
330
1E
100
AcDbEntity
  8
LAYER_1
  6
Continuous
 62
     7
100
AcDbPolyline
 90
        4
 70
     0
 43
0.0
 10
1.013137999999999
 20
2.112554999999999
 10
1.014534
 20
2.108338
 10
1.020599999999999
 20
2.103291999999999
 10
1.031193
 20
2.097901999999999
  0
LWPOLYLINE
  5
10DA
330
1E
100
AcDbEntity
  8
LAYER_1
  6
Continuous
 62
     7
100
AcDbPolyline
 90
        4
 70
     0
 43
0.0
 10
1.031193
 20
2.097901999999999
 10
1.04696
 20
2.092372999999999
 10
1.071637
 20
2.085766999999999
 10
1.109747999999999
 20
2.076886
  0
LWPOLYLINE
  5
10E0
330
1E
100
AcDbEntity
  8
LAYER_1
  6
Continuous
 62
     7
100
AcDbPolyline
 90
        4
 70
     0
 43
0.0
 10
1.109747999999999
 20
2.076886
 10
1.162704999999999
 20
2.065224999999999
 10
1.219492
 20
2.052977999999999
 10
1.265983999999999
 20
2.043038999999999
  0
LWPOLYLINE
  5
10E6
330
1E
100
AcDbEntity
  8
LAYER_1
  6
Continuous
 62
     7
100
AcDbPolyline
 90
        4
 70
     0
 43
0.0
 10
1.265983999999999
 20
2.043038999999999
 10
1.291765999999999
 20
2.037545
 10
1.301264999999999
 20
2.035520999999999
 10
1.302621999999999
 20
2.035232
  0
LWPOLYLINE
  5
10EC
330
1E
100
AcDbEntity
  8
LAYER_1
  6
Continuous
 62
     7
100
AcDbPolyline
 90
        4
 70
     0
 43
0.0
 10
1.293790999999999
 20
2.167193
 10
1.292512
 20
2.166656
 10
1.283555999999999
 20
2.1629
 10
1.259247999999999
 20
2.152705
  0
LWPOLYLINE
  5
10F2
330
1E
100
AcDbEntity
  8
LAYER_1
  6
Continuous
 62
     7
100
AcDbPolyline
 90
        4
 70
     0
 43
0.0
 10
1.259247999999999
 20
2.152705
 10
1.215404999999999
 20
2.13434
 10
1.161795
 20
2.111991
 10
1.111664999999999
 20
2.091318999999999
  0
LWPOLYLINE
  5
10F8
330
1E
100
AcDbEntity
  8
LAYER_1
  6
Continuous
 62
     7
100
AcDbPolyline
 90
        4
 70
     0
 43
0.0
 10
1.111664999999999
 20
2.091318999999999
 10
1.075340999999999
 20
2.076772999999999
 10
1.051352999999999
 20
2.068004999999999
 10
1.035290999999999
 20
2.063441
  0
LWPOLYLINE
  5
10FE
330
1E
100
AcDbEntity
  8
LAYER_1
  6
Continuous
 62
     7
100
AcDbPolyline
 90
        4
 70
     0
 43
0.0
 10
1.035290999999999
 20
2.063441
 10
1.023544
 20
2.061709999999999
 10
1.015698999999999
 20
2.062311999999999
 10
1.012137999999999
 20
2.064941
  0
LWPOLYLINE
  5
1104
330
1E
100
AcDbEntity
  8
LAYER_1
  6
Continuous
 62
     7
100
AcDbPolyline
 90
        4
 70
     0
 43
0.0
 10
1.012137999999999
 20
2.064941
 10
1.013166999999999
 20
2.069259
 10
1.018774
 20
2.074805
 10
1.028858
 20
2.081093999999999
  0
LWPOLYLINE
  5
110A
330
1E
100
AcDbEntity
  8
LAYER_1
  6
Continuous
 62
     7
100
AcDbPolyline
 90
        4
 70
     0
 43
0.0
 10
1.028858
 20
2.081093999999999
 10
1.044078
 20
2.087984
 10
1.068084999999999
 20
2.096713999999999
 10
1.105275999999999
 20
2.108874
  0
LWPOLYLINE
  5
1110
330
1E
100
AcDbEntity
  8
LAYER_1
  6
Continuous
 62
     7
100
AcDbPolyline
 90
        4
 70
     0
 43
0.0
 10
1.105275999999999
 20
2.108874
 10
1.157018
 20
2.125115
 10
1.212525
 20
2.142265999999999
 10
1.257969
 20
2.15622
  0
LWPOLYLINE
  5
1116
330
1E
100
AcDbEntity
  8
LAYER_1
  6
Continuous
 62
     7
100
AcDbPolyline
 90
        4
 70
     0
 43
0.0
 10
1.257969
 20
2.15622
 10
1.283177
 20
2.163942
 10
1.292464999999999
 20
2.166786999999999
 10
1.293790999999999
 20
2.167193
  0
TEXT
  5
111C
330
1E
100
AcDbEntity
  8
LAYER_1
 62
     7
100
AcDbText
 10
2.440109999999999
 20
-0.5449570000000001
 30
0.0
 40
0.111888
  1
Item weights
 41
0.6908319120090973
  7
SN1
 72
     5
 11
3.198345
 21
-0.5449570000000001
 31
0.0
100
AcDbText
  0
TEXT
  5
111D
330
1E
100
AcDbEntity
  8
LAYER_1
 62
     7
100
AcDbText
 10
2.440109999999999
 20
-0.680122
 30
0.0
 40
0.111888
  1
------------
 41
0.341159149013879
  7
SN1
 72
     5
 11
2.978148
 21
-0.680122
 31
0.0
100
AcDbText
  0
TEXT
  5
111E
330
1E
100
AcDbEntity
  8
LAYER_1
 62
     7
100
AcDbText
 10
2.440109999999999
 20
-0.815291
 30
0.0
 40
0.111888
  1
1100mAh    90 g
 41
0.5963806354431352
  7
SN1
 72
     5
 11
3.431494999999999
 21
-0.815291
 31
0.0
100
AcDbText
  0
TEXT
  5
111F
330
1E
100
AcDbEntity
  8
LAYER_1
 62
     7
100
AcDbText
 10
2.440109999999999
 20
-0.9504569999999999
 30
0.0
 40
0.111888
  1
6 DS386   138 g
 41
0.6068396625101925
  7
SN1
 72
     5
 11
3.416548999999999
 21
-0.9504569999999999
 31
0.0
100
AcDbText
  0
TEXT
  5
1120
330
1E
100
AcDbEntity
  8
LAYER_1
 62
     7
100
AcDbText
 10
2.440109999999999
 20
-1.085625999999999
 30
0.0
 40
0.111888
  1
RDS        29 g
 41
0.5197660896190313
  7
SN1
 72
     5
 11
3.287519999999999
 21
-1.085625999999999
 31
0.0
100
AcDbText
  0
TEXT
  5
1121
330
1E
100
AcDbEntity
  8
LAYER_1
 62
     7
100
AcDbText
 10
2.440109999999999
 20
-1.220790999999999
 30
0.0
 40
0.111888
  1
Berg-6     19 g
 41
0.5369380668293714
  7
SN1
 72
     5
 11
3.295491
 21
-1.220790999999999
 31
0.0
100
AcDbText
  0
TEXT
  5
1122
330
1E
100
AcDbEntity
  8
LAYER_1
 62
     7
100
AcDbText
 10
2.440109999999999
 20
-1.355960999999999
 30
0.0
 40
0.111888
  1
wiring     25 g
 41
0.5418455775919807
  7
SN1
 72
     5
 11
3.242682999999999
 21
-1.355960999999999
 31
0.0
100
AcDbText
  0
TEXT
  5
1123
330
1E
100
AcDbEntity
  8
LAYER_1
 62
     7
100
AcDbText
 10
2.440109999999999
 20
-1.491125999999999
 30
0.0
 40
0.111888
  1
fuse      238 g
 41
0.5257935589699289
  7
SN1
 72
     5
 11
3.258126999999999
 21
-1.491125999999999
 31
0.0
100
AcDbText
  0
TEXT
  5
1124
330
1E
100
AcDbEntity
  8
LAYER_1
 62
     7
100
AcDbText
 10
2.440109999999999
 20
-1.626290999999999
 30
0.0
 40
0.111888
  1
stab       24 g
 41
0.5014571506437946
  7
SN1
 72
     5
 11
3.220264999999999
 21
-1.626290999999999
 31
0.0
100
AcDbText
  0
TEXT
  5
1125
330
1E
100
AcDbEntity
  8
LAYER_1
 62
     7
100
AcDbText
 10
2.440109999999999
 20
-1.761461
 30
0.0
 40
0.111888
  1
rudder     30 g
 41
0.5477059090340339
  7
SN1
 72
     5
 11
3.280544999999999
 21
-1.761461
 31
0.0
100
AcDbText
  0
TEXT
  5
1126
330
1E
100
AcDbEntity
  8
LAYER_1
 62
     7
100
AcDbText
 10
2.440109999999999
 20
-1.896625999999999
 30
0.0
 40
0.111888
  1
wing cen. 500 g
 41
0.6367577254674032
  7
SN1
 72
     5
 11
3.386658
 21
-1.896625999999999
 31
0.0
100
AcDbText
  0
TEXT
  5
1127
330
1E
100
AcDbEntity
  8
LAYER_1
 62
     7
100
AcDbText
 10
2.440109999999999
 20
-2.031795
 30
0.0
 40
0.111888
  1
wing tips 238 g
 41
0.6287977103497557
  7
SN1
 72
     5
 11
3.341323
 21
-2.031795
 31
0.0
100
AcDbText
  0
TEXT
  5
1128
330
1E
100
AcDbEntity
  8
LAYER_1
 62
     7
100
AcDbText
 10
2.440109999999999
 20
-2.166961
 30
0.0
 40
0.111888
  1
joiners    29 g
 41
0.5697720192102212
  7
SN1
 72
     5
 11
3.250653999999999
 21
-2.166961
 31
0.0
100
AcDbText
  0
TEXT
  5
1129
330
1E
100
AcDbEntity
  8
LAYER_1
 62
     7
100
AcDbText
 10
2.440109999999999
 20
-2.30213
 30
0.0
 40
0.111888
  1
nosewt.    10 g
 41
0.5866389075908648
  7
SN1
 72
     5
 11
3.318407
 21
-2.30213
 31
0.0
100
AcDbText
  0
TEXT
  5
112A
330
1E
100
AcDbEntity
  8
LAYER_1
 62
     7
100
AcDbText
 10
2.440109999999999
 20
-2.572456999999999
 30
0.0
 40
0.111888
  1
TOTAL    1370 g
 41
0.6376638117709545
  7
SN1
 72
     5
 11
3.438966999999999
 21
-2.572456999999999
 31
0.0
100
AcDbText
  0
TEXT
  5
112B
330
1E
100
AcDbEntity
  8
LAYER_1
 62
     7
100
AcDbText
 10
2.440109999999999
 20
-2.707625999999999
 30
0.0
 40
0.111888
  1
           48 oz
 41
0.4270729702094734
  7
SN1
 72
     5
 11
3.181904999999999
 21
-2.707625999999999
 31
0.0
100
AcDbText
  0
ENDSEC
  0
SECTION
  2
OBJECTS
  0
DICTIONARY
  5
C
330
0
100
AcDbDictionary
281
     1
  3
ACAD_GROUP
350
D
  3
ACAD_LAYOUT
350
19
  3
ACAD_MLINESTYLE
350
16
  3
ACAD_PLOTSETTINGS
350
18
  3
ACAD_PLOTSTYLENAME
350
E
  0
DICTIONARY
  5
D
102
{ACAD_REACTORS
330
C
102
}
330
C
100
AcDbDictionary
281
     1
  0
DICTIONARY
  5
19
102
{ACAD_REACTORS
330
C
102
}
330
C
100
AcDbDictionary
281
     1
  3
Layout1
350
1D
  3
Model
350
21
  0
DICTIONARY
  5
16
102
{ACAD_REACTORS
330
C
102
}
330
C
100
AcDbDictionary
281
     1
  3
Standard
350
17
  0
DICTIONARY
  5
18
102
{ACAD_REACTORS
330
C
102
}
330
C
100
AcDbDictionary
281
     1
  0
ACDBDICTIONARYWDFLT
  5
E
102
{ACAD_REACTORS
330
C
102
}
330
C
100
AcDbDictionary
281
     1
  3
Normal
350
F
100
AcDbDictionaryWithDefault
340
F
  0
LAYOUT
  5
1D
102
{ACAD_REACTORS
330
19
102
}
330
19
100
AcDbPlotSettings
  1

  2
Epson FX-80
  4

  6

 40
0.0
 41
0.0
 42
0.0
 43
0.0
 44
0.0
 45
0.0
 46
0.0
 47
0.0
 48
0.0
 49
0.0
140
0.0
141
0.0
142
1.0
143
1.0
 70
   688
 72
     0
 73
     0
 74
     5
  7

 75
    16
147
1.0
148
0.0
149
0.0
100
AcDbLayout
  1
Layout1
 70
     1
 71
     1
 10
0.0
 20
0.0
 11
12.0
 21
9.0
 12
0.0
 22
0.0
 32
0.0
 14
1.000000000000000E+20
 24
1.000000000000000E+20
 34
1.000000000000000E+20
 15
-1.000000000000000E+20
 25
-1.000000000000000E+20
 35
-1.000000000000000E+20
146
0.0
 13
0.0
 23
0.0
 33
0.0
 16
1.0
 26
0.0
 36
0.0
 17
0.0
 27
1.0
 37
0.0
 76
     0
330
1A
  0
LAYOUT
  5
21
102
{ACAD_REACTORS
330
19
102
}
330
19
100
AcDbPlotSettings
  1

  2
Epson FX-80
  4

  6

 40
0.0
 41
0.0
 42
0.0
 43
0.0
 44
0.0
 45
0.0
 46
0.0
 47
0.0
 48
0.0
 49
0.0
140
0.0
141
0.0
142
1.0
143
1.0
 70
  1712
 72
     0
 73
     0
 74
     0
  7

 75
     0
147
1.0
148
0.0
149
0.0
100
AcDbLayout
  1
Model
 70
     1
 71
     0
 10
0.0
 20
0.0
 11
12.0
 21
9.0
 12
0.0
 22
0.0
 32
0.0
 14
0.0
 24
0.0
 34
0.0
 15
0.0
 25
0.0
 35
0.0
146
0.0
 13
0.0
 23
0.0
 33
0.0
 16
1.0
 26
0.0
 36
0.0
 17
0.0
 27
1.0
 37
0.0
 76
     0
330
1E
  0
MLINESTYLE
  5
17
102
{ACAD_REACTORS
330
16
102
}
330
16
100
AcDbMlineStyle
  2
STANDARD
 70
     0
  3

 62
   256
 51
90.0
 52
90.0
 71
     2
 49
0.5
 62
   256
  6
BYLAYER
 49
-0.5
 62
   256
  6
BYLAYER
  0
ACDBPLACEHOLDER
  5
F
102
{ACAD_REACTORS
330
E
102
}
330
E
  0
ENDSEC
  0
EOF
