  0
SECTION
  2
HEADER
  9
$ACADVER
  1
AC1015
  9
$ACADMAINTVER
 70
    10
  9
$DWGCODEPAGE
  3
ANSI_1252
  9
$INSBASE
 10
0.0
 20
0.0
 30
0.0
  9
$EXTMIN
 10
-7.511902
 20
-4.738457
 30
0.0
  9
$EXTMAX
 10
4.848330999999999
 20
6.379637999999999
 30
0.0
  9
$LIMMIN
 10
0.0
 20
0.0
  9
$LIMMAX
 10
12.0
 20
9.0
  9
$ORTHOMODE
 70
     0
  9
$REGENMODE
 70
     1
  9
$FILLMODE
 70
     1
  9
$QTEXTMODE
 70
     0
  9
$MIRRTEXT
 70
     1
  9
$LTSCALE
 40
0.000394
  9
$ATTMODE
 70
     1
  9
$TEXTSIZE
 40
0.2
  9
$TRACEWID
 40
0.05
  9
$TEXTSTYLE
  7
Standard
  9
$CLAYER
  8
0
  9
$CELTYPE
  6
CONTINUOUS
  9
$CECOLOR
 62
   256
  9
$CELTSCALE
 40
1.0
  9
$DISPSILH
 70
     0
  9
$DIMSCALE
 40
1.0
  9
$DIMASZ
 40
0.18
  9
$DIMEXO
 40
0.0625
  9
$DIMDLI
 40
0.38
  9
$DIMRND
 40
0.0
  9
$DIMDLE
 40
0.0
  9
$DIMEXE
 40
0.18
  9
$DIMTP
 40
0.0
  9
$DIMTM
 40
0.0
  9
$DIMTXT
 40
0.18
  9
$DIMCEN
 40
0.09
  9
$DIMTSZ
 40
0.0
  9
$DIMTOL
 70
     0
  9
$DIMLIM
 70
     0
  9
$DIMTIH
 70
     1
  9
$DIMTOH
 70
     1
  9
$DIMSE1
 70
     0
  9
$DIMSE2
 70
     0
  9
$DIMTAD
 70
     0
  9
$DIMZIN
 70
     0
  9
$DIMBLK
  1

  9
$DIMASO
 70
     1
  9
$DIMSHO
 70
     1
  9
$DIMPOST
  1

  9
$DIMAPOST
  1

  9
$DIMALT
 70
     0
  9
$DIMALTD
 70
     2
  9
$DIMALTF
 40
25.4
  9
$DIMLFAC
 40
1.0
  9
$DIMTOFL
 70
     0
  9
$DIMTVP
 40
0.0
  9
$DIMTIX
 70
     0
  9
$DIMSOXD
 70
     0
  9
$DIMSAH
 70
     0
  9
$DIMBLK1
  1

  9
$DIMBLK2
  1

  9
$DIMSTYLE
  2
Standard
  9
$DIMCLRD
 70
     0
  9
$DIMCLRE
 70
     0
  9
$DIMCLRT
 70
     0
  9
$DIMTFAC
 40
1.0
  9
$DIMGAP
 40
0.09
  9
$DIMJUST
 70
     0
  9
$DIMSD1
 70
     0
  9
$DIMSD2
 70
     0
  9
$DIMTOLJ
 70
     1
  9
$DIMTZIN
 70
     0
  9
$DIMALTZ
 70
     0
  9
$DIMALTTZ
 70
     0
  9
$DIMUPT
 70
     0
  9
$DIMDEC
 70
     4
  9
$DIMTDEC
 70
     4
  9
$DIMALTU
 70
     2
  9
$DIMALTTD
 70
     2
  9
$DIMTXSTY
  7
Standard
  9
$DIMAUNIT
 70
     0
  9
$DIMADEC
 70
     0
  9
$DIMALTRND
 40
0.0
  9
$DIMAZIN
 70
     0
  9
$DIMDSEP
 70
    46
  9
$DIMATFIT
 70
     3
  9
$DIMFRAC
 70
     0
  9
$DIMLDRBLK
  1

  9
$DIMLUNIT
 70
     2
  9
$DIMLWD
 70
    -2
  9
$DIMLWE
 70
    -2
  9
$DIMTMOVE
 70
     0
  9
$LUNITS
 70
     2
  9
$LUPREC
 70
     4
  9
$SKETCHINC
 40
0.1
  9
$FILLETRAD
 40
0.0
  9
$AUNITS
 70
     0
  9
$AUPREC
 70
     0
  9
$MENU
  1
.
  9
$ELEVATION
 40
0.0
  9
$PELEVATION
 40
0.0
  9
$THICKNESS
 40
0.0
  9
$LIMCHECK
 70
     0
  9
$CHAMFERA
 40
0.0
  9
$CHAMFERB
 40
0.0
  9
$CHAMFERC
 40
0.0
  9
$CHAMFERD
 40
0.0
  9
$SKPOLY
 70
     0
  9
$TDCREATE
 40
2453215.877710347
  9
$TDUCREATE
 40
2453216.044377014
  9
$TDUPDATE
 40
2453215.878037546
  9
$TDUUPDATE
 40
2453216.044704213
  9
$TDINDWG
 40
0.0003276620
  9
$TDUSRTIMER
 40
0.0003276620
  9
$USRTIMER
 70
     1
  9
$ANGBASE
 50
0.0
  9
$ANGDIR
 70
     0
  9
$PDMODE
 70
    35
  9
$PDSIZE
 40
0.000315
  9
$PLINEWID
 40
0.0
  9
$SPLFRAME
 70
     0
  9
$SPLINETYPE
 70
     6
  9
$SPLINESEGS
 70
     8
  9
$HANDSEED
  5
AD3
  9
$SURFTAB1
 70
     6
  9
$SURFTAB2
 70
     6
  9
$SURFTYPE
 70
     6
  9
$SURFU
 70
     6
  9
$SURFV
 70
     6
  9
$UCSBASE
  2

  9
$UCSNAME
  2

  9
$UCSORG
 10
0.0
 20
0.0
 30
0.0
  9
$UCSXDIR
 10
1.0
 20
0.0
 30
0.0
  9
$UCSYDIR
 10
0.0
 20
1.0
 30
0.0
  9
$UCSORTHOREF
  2

  9
$UCSORTHOVIEW
 70
     0
  9
$UCSORGTOP
 10
0.0
 20
0.0
 30
0.0
  9
$UCSORGBOTTOM
 10
0.0
 20
0.0
 30
0.0
  9
$UCSORGLEFT
 10
0.0
 20
0.0
 30
0.0
  9
$UCSORGRIGHT
 10
0.0
 20
0.0
 30
0.0
  9
$UCSORGFRONT
 10
0.0
 20
0.0
 30
0.0
  9
$UCSORGBACK
 10
0.0
 20
0.0
 30
0.0
  9
$PUCSBASE
  2

  9
$PUCSNAME
  2

  9
$PUCSORG
 10
0.0
 20
0.0
 30
0.0
  9
$PUCSXDIR
 10
1.0
 20
0.0
 30
0.0
  9
$PUCSYDIR
 10
0.0
 20
1.0
 30
0.0
  9
$PUCSORTHOREF
  2

  9
$PUCSORTHOVIEW
 70
     0
  9
$PUCSORGTOP
 10
0.0
 20
0.0
 30
0.0
  9
$PUCSORGBOTTOM
 10
0.0
 20
0.0
 30
0.0
  9
$PUCSORGLEFT
 10
0.0
 20
0.0
 30
0.0
  9
$PUCSORGRIGHT
 10
0.0
 20
0.0
 30
0.0
  9
$PUCSORGFRONT
 10
0.0
 20
0.0
 30
0.0
  9
$PUCSORGBACK
 10
0.0
 20
0.0
 30
0.0
  9
$USERI1
 70
     0
  9
$USERI2
 70
     0
  9
$USERI3
 70
     0
  9
$USERI4
 70
     0
  9
$USERI5
 70
     0
  9
$USERR1
 40
0.0
  9
$USERR2
 40
0.0
  9
$USERR3
 40
0.0
  9
$USERR4
 40
0.0
  9
$USERR5
 40
0.0
  9
$WORLDVIEW
 70
     1
  9
$SHADEDGE
 70
     3
  9
$SHADEDIF
 70
    70
  9
$TILEMODE
 70
     1
  9
$MAXACTVP
 70
    64
  9
$PINSBASE
 10
0.0
 20
0.0
 30
0.0
  9
$PLIMCHECK
 70
     0
  9
$PEXTMIN
 10
1.000000000000000E+20
 20
1.000000000000000E+20
 30
1.000000000000000E+20
  9
$PEXTMAX
 10
-1.000000000000000E+20
 20
-1.000000000000000E+20
 30
-1.000000000000000E+20
  9
$PLIMMIN
 10
0.0
 20
0.0
  9
$PLIMMAX
 10
12.0
 20
9.0
  9
$UNITMODE
 70
     0
  9
$VISRETAIN
 70
     1
  9
$PLINEGEN
 70
     0
  9
$PSLTSCALE
 70
     1
  9
$TREEDEPTH
 70
  3020
  9
$CMLSTYLE
  2
Standard
  9
$CMLJUST
 70
     0
  9
$CMLSCALE
 40
1.0
  9
$PROXYGRAPHICS
 70
     1
  9
$MEASUREMENT
 70
     0
  9
$CELWEIGHT
370
    -1
  9
$ENDCAPS
280
     0
  9
$JOINSTYLE
280
     0
  9
$LWDISPLAY
290
     0
  9
$INSUNITS
 70
     0
  9
$HYPERLINKBASE
  1

  9
$STYLESHEET
  1

  9
$XEDIT
290
     1
  9
$CEPSNTYPE
380
     0
  9
$PSTYLEMODE
290
     1
  9
$FINGERPRINTGUID
  2
{864850D9-EF96-440A-83D7-236287A1E996}
  9
$VERSIONGUID
  2
{69A7D6DD-F5CB-4448-8C30-C3B3D1413A9B}
  9
$EXTNAMES
290
     1
  9
$PSVPSCALE
 40
0.0
  9
$OLESTARTUP
290
     0
  0
ENDSEC
  0
SECTION
  2
CLASSES
  0
CLASS
  1
ACDBDICTIONARYWDFLT
  2
AcDbDictionaryWithDefault
  3
AutoCAD 2000
 90
        0
280
     0
281
     0
  0
CLASS
  1
ACDBPLACEHOLDER
  2
AcDbPlaceHolder
  3
AutoCAD 2000
 90
        0
280
     0
281
     0
  0
CLASS
  1
LAYOUT
  2
AcDbLayout
  3
AutoCAD 2000
 90
        0
280
     0
281
     0
  0
ENDSEC
  0
SECTION
  2
TABLES
  0
TABLE
  2
VPORT
  5
8
330
0
100
AcDbSymbolTable
 70
     2
  0
VPORT
  5
AD2
330
8
100
AcDbSymbolTableRecord
100
AcDbViewportTableRecord
  2
*Active
 70
     0
 10
0.0
 20
0.0
 11
1.0
 21
1.0
 12
5.295125675123864
 22
-0.1274536915677107
 13
0.0
 23
0.0
 14
1.0
 24
1.0
 15
0.0
 25
0.0
 16
0.0
 26
0.0
 36
1.0
 17
0.0
 27
0.0
 37
0.0
 40
14.84433540014459
 41
1.760330578512396
 42
50.0
 43
0.0
 44
0.0
 50
0.0
 51
0.0
 71
     0
 72
   100
 73
     1
 74
     1
 75
     0
 76
     0
 77
     0
 78
     0
281
     0
 65
     1
110
0.0
120
0.0
130
0.0
111
1.0
121
0.0
131
0.0
112
0.0
122
1.0
132
0.0
 79
     0
146
0.0
  0
ENDTAB
  0
TABLE
  2
LTYPE
  5
5
330
0
100
AcDbSymbolTable
 70
    10
  0
LTYPE
  5
13
330
5
100
AcDbSymbolTableRecord
100
AcDbLinetypeTableRecord
  2
ByBlock
 70
     0
  3

 72
    65
 73
     0
 40
0.0
  0
LTYPE
  5
14
330
5
100
AcDbSymbolTableRecord
100
AcDbLinetypeTableRecord
  2
ByLayer
 70
     0
  3

 72
    65
 73
     0
 40
0.0
  0
LTYPE
  5
15
330
5
100
AcDbSymbolTableRecord
100
AcDbLinetypeTableRecord
  2
CONTINUOUS
 70
     0
  3
Solid line
 72
    65
 73
     0
 40
0.0
  0
LTYPE
  5
22
330
5
100
AcDbSymbolTableRecord
100
AcDbLinetypeTableRecord
  2
DASHED
 70
     0
  3
__ __ __ __ __ __ __ __ __ __ __ __ __ __ __
 72
    65
 73
     2
 40
0.000003
 49
0.000002
 74
     0
 49
-0.000001
 74
     0
  0
LTYPE
  5
23
330
5
100
AcDbSymbolTableRecord
100
AcDbLinetypeTableRecord
  2
HIDDEN
 70
     0
  3
 _ _ _ _ _ _ _ _ _ _ _ _ _ _ _ _ _ _ _ _ _ _
 72
    65
 73
     2
 40
0.000001
 49
0.000001
 74
     0
 49
0.0
 74
     0
  0
LTYPE
  5
24
330
5
100
AcDbSymbolTableRecord
100
AcDbLinetypeTableRecord
  2
CENTER
 70
     0
  3
____ _ ____ _ ____ _ ____ _ ____ _ ____ _ ____
 72
    65
 73
     4
 40
0.000008
 49
0.000005
 74
     0
 49
-0.000001
 74
     0
 49
0.000001
 74
     0
 49
-0.000001
 74
     0
  0
LTYPE
  5
25
330
5
100
AcDbSymbolTableRecord
100
AcDbLinetypeTableRecord
  2
PHANTOM
 70
     0
  3
_____ _ _ _____ _ _ _____ _ _ _____ _ _ ____
 72
    65
 73
     6
 40
0.00001
 49
0.000005
 74
     0
 49
-0.000001
 74
     0
 49
0.000001
 74
     0
 49
-0.000001
 74
     0
 49
0.000001
 74
     0
 49
-0.000001
 74
     0
  0
LTYPE
  5
26
330
5
100
AcDbSymbolTableRecord
100
AcDbLinetypeTableRecord
  2
DOT
 70
     0
  3
...............................................
 72
    65
 73
     2
 40
0.000001
 49
0.0
 74
     0
 49
-0.000001
 74
     0
  0
LTYPE
  5
27
330
5
100
AcDbSymbolTableRecord
100
AcDbLinetypeTableRecord
  2
DASHDOT
 70
     0
  3
__ . __ . __ . __ . __ . __ . __ . __ . __ . __
 72
    65
 73
     4
 40
0.000004
 49
0.000002
 74
     0
 49
-0.000001
 74
     0
 49
0.0
 74
     0
 49
-0.000001
 74
     0
  0
LTYPE
  5
28
330
5
100
AcDbSymbolTableRecord
100
AcDbLinetypeTableRecord
  2
BORDER
 70
     0
  3
__ __ . __ __ . __ __ . __ __ . __ __ . __ __
 72
    65
 73
     6
 40
0.000007
 49
0.000002
 74
     0
 49
-0.000001
 74
     0
 49
0.000002
 74
     0
 49
-0.000001
 74
     0
 49
0.0
 74
     0
 49
-0.000001
 74
     0
  0
LTYPE
  5
29
330
5
100
AcDbSymbolTableRecord
100
AcDbLinetypeTableRecord
  2
DIVIDE
 70
     0
  3
__ . . __ . . __ . . __ . . __ . . __ . . __
 72
    65
 73
     6
 40
0.000005
 49
0.000002
 74
     0
 49
-0.000001
 74
     0
 49
0.0
 74
     0
 49
-0.000001
 74
     0
 49
0.0
 74
     0
 49
-0.000001
 74
     0
  0
LTYPE
  5
2A
330
5
100
AcDbSymbolTableRecord
100
AcDbLinetypeTableRecord
  2
DOTDOT
 70
     0
  3
 . .  . .  . .  . .  . .  . . 
 72
    65
 73
     5
 40
0.000002
 49
-0.000001
 74
     0
 49
0.0
 74
     0
 49
-0.000001
 74
     0
 49
0.0
 74
     0
 49
-0.000001
 74
     0
  0
ENDTAB
  0
TABLE
  2
LAYER
  5
2
330
0
100
AcDbSymbolTable
 70
     4
  0
LAYER
  5
10
330
2
100
AcDbSymbolTableRecord
100
AcDbLayerTableRecord
  2
0
 70
     0
 62
     7
  6
CONTINUOUS
370
    -3
390
F
  0
LAYER
  5
35
330
2
100
AcDbSymbolTableRecord
100
AcDbLayerTableRecord
  2
FOREGROUND
 70
     0
 62
     7
  6
CONTINUOUS
370
    -3
390
F
  0
LAYER
  5
36
330
2
100
AcDbSymbolTableRecord
100
AcDbLayerTableRecord
  2
BACKGROUND
 70
     1
 62
    -7
  6
CONTINUOUS
370
    -3
390
F
  0
LAYER
  5
37
330
2
100
AcDbSymbolTableRecord
100
AcDbLayerTableRecord
  2
LAYER_1
 70
     0
 62
     7
  6
CONTINUOUS
370
    -3
390
F
  0
ENDTAB
  0
TABLE
  2
STYLE
  5
3
330
0
100
AcDbSymbolTable
 70
    11
  0
STYLE
  5
11
330
3
100
AcDbSymbolTableRecord
100
AcDbTextStyleTableRecord
  2
Standard
 70
     0
 40
0.0
 41
1.0
 50
0.0
 71
     0
 42
0.2
  3
txt
  4

  0
STYLE
  5
2B
330
3
100
AcDbSymbolTableRecord
100
AcDbTextStyleTableRecord
  2
SN0
 70
     0
 40
0.0
 41
0.000004
 50
0.0
 71
     0
 42
0.0
  3
ROMAND
  4

  0
STYLE
  5
2C
330
3
100
AcDbSymbolTableRecord
100
AcDbTextStyleTableRecord
  2
SV0
 70
     4
 40
0.0
 41
0.000004
 50
0.0
 71
     0
 42
0.0
  3
ROMAND
  4

  0
STYLE
  5
2D
330
3
100
AcDbSymbolTableRecord
100
AcDbTextStyleTableRecord
  2
SN1
 70
     0
 40
0.0
 41
0.000004
 50
0.0
 71
     0
 42
0.0
  3
ROMAND
  4

  0
STYLE
  5
2E
330
3
100
AcDbSymbolTableRecord
100
AcDbTextStyleTableRecord
  2
SV1
 70
     4
 40
0.0
 41
0.000004
 50
0.0
 71
     0
 42
0.0
  3
ROMAND
  4

  0
STYLE
  5
2F
330
3
100
AcDbSymbolTableRecord
100
AcDbTextStyleTableRecord
  2
SN2
 70
     0
 40
0.0
 41
0.000004
 50
0.0
 71
     0
 42
0.0
  3
ROMAND
  4

  0
STYLE
  5
30
330
3
100
AcDbSymbolTableRecord
100
AcDbTextStyleTableRecord
  2
SV2
 70
     4
 40
0.0
 41
0.000004
 50
0.0
 71
     0
 42
0.0
  3
ROMAND
  4

  0
STYLE
  5
31
330
3
100
AcDbSymbolTableRecord
100
AcDbTextStyleTableRecord
  2
SN3
 70
     0
 40
0.0
 41
0.000004
 50
0.0
 71
     0
 42
0.0
  3
ROMAND
  4

  0
STYLE
  5
32
330
3
100
AcDbSymbolTableRecord
100
AcDbTextStyleTableRecord
  2
SV3
 70
     4
 40
0.0
 41
0.000004
 50
0.0
 71
     0
 42
0.0
  3
ROMAND
  4

  0
STYLE
  5
33
330
3
100
AcDbSymbolTableRecord
100
AcDbTextStyleTableRecord
  2
SN4
 70
     0
 40
0.0
 41
0.000004
 50
0.0
 71
     0
 42
0.0
  3
ROMAND
  4

  0
STYLE
  5
34
330
3
100
AcDbSymbolTableRecord
100
AcDbTextStyleTableRecord
  2
SV4
 70
     4
 40
0.0
 41
0.000004
 50
0.0
 71
     0
 42
0.0
  3
ROMAND
  4

  0
ENDTAB
  0
TABLE
  2
VIEW
  5
6
330
0
100
AcDbSymbolTable
 70
     0
  0
ENDTAB
  0
TABLE
  2
UCS
  5
7
330
0
100
AcDbSymbolTable
 70
     0
  0
ENDTAB
  0
TABLE
  2
APPID
  5
9
330
0
100
AcDbSymbolTable
 70
     1
  0
APPID
  5
12
330
9
100
AcDbSymbolTableRecord
100
AcDbRegAppTableRecord
  2
ACAD
 70
     0
  0
ENDTAB
  0
TABLE
  2
DIMSTYLE
  5
A
330
0
100
AcDbSymbolTable
 70
     1
100
AcDbDimStyleTable
 71
     0
  0
DIMSTYLE
105
AD0
330
A
100
AcDbSymbolTableRecord
100
AcDbDimStyleTableRecord
  2
Standard
 70
     0
340
11
  0
ENDTAB
  0
TABLE
  2
BLOCK_RECORD
  5
1
330
0
100
AcDbSymbolTable
 70
     0
  0
BLOCK_RECORD
  5
1E
330
1
100
AcDbSymbolTableRecord
100
AcDbBlockTableRecord
  2
*Model_Space
340
21
  0
BLOCK_RECORD
  5
1A
330
1
100
AcDbSymbolTableRecord
100
AcDbBlockTableRecord
  2
*Paper_Space
340
1D
  0
ENDTAB
  0
ENDSEC
  0
SECTION
  2
BLOCKS
  0
BLOCK
  5
1F
330
1E
100
AcDbEntity
  8
0
100
AcDbBlockBegin
  2
*Model_Space
 70
     0
 10
0.0
 20
0.0
 30
0.0
  3
*Model_Space
  1

  0
ENDBLK
  5
20
330
1E
100
AcDbEntity
  8
0
100
AcDbBlockEnd
  0
BLOCK
  5
1B
330
1A
100
AcDbEntity
 67
     1
  8
0
100
AcDbBlockBegin
  2
*Paper_Space
 70
     0
 10
0.0
 20
0.0
 30
0.0
  3
*Paper_Space
  1

  0
ENDBLK
  5
1C
330
1A
100
AcDbEntity
 67
     1
  8
0
100
AcDbBlockEnd
  0
ENDSEC
  0
SECTION
  2
ENTITIES
  0
SOLID
  5
3B
330
1E
100
AcDbEntity
  8
LAYER_1
  6
Continuous
 62
   253
100
AcDbTrace
 10
-0.4254840000000001
 20
0.217193
 30
0.0
 11
-0.166441
 21
0.4345550000000001
 31
0.0
 12
-0.678232
 22
0.5184020000000001
 32
0.0
 13
-0.4191930000000001
 23
0.735776
 33
0.0
  0
LWPOLYLINE
  5
3C
330
1E
100
AcDbEntity
  8
LAYER_1
  6
Continuous
 62
   253
100
AcDbPolyline
 90
        4
 70
     1
 43
0.0
 10
-0.4254840000000001
 20
0.217193
 10
-0.166441
 20
0.4345550000000001
 10
-0.4191930000000001
 20
0.735776
 10
-0.678232
 20
0.5184020000000001
  0
LWPOLYLINE
  5
42
330
1E
100
AcDbEntity
  8
LAYER_1
  6
Continuous
 62
     7
100
AcDbPolyline
 90
        4
 70
     1
 43
0.0
 10
-0.4254840000000001
 20
0.217193
 10
-0.166441
 20
0.4345550000000001
 10
-0.4191930000000001
 20
0.735776
 10
-0.678232
 20
0.5184020000000001
  0
SOLID
  5
48
330
1E
100
AcDbEntity
  8
LAYER_1
  6
Continuous
 62
   253
100
AcDbTrace
 10
-1.396231999999999
 20
1.384538999999999
 30
0.0
 11
-1.137177
 21
1.601901999999999
 31
0.0
 12
-1.648984
 22
1.685748
 32
0.0
 13
-1.389929
 23
1.903122
 33
0.0
  0
LWPOLYLINE
  5
49
330
1E
100
AcDbEntity
  8
LAYER_1
  6
Continuous
 62
   253
100
AcDbPolyline
 90
        4
 70
     1
 43
0.0
 10
-1.396231999999999
 20
1.384538999999999
 10
-1.137177
 20
1.601901999999999
 10
-1.389929
 20
1.903122
 10
-1.648984
 20
1.685748
  0
LWPOLYLINE
  5
4F
330
1E
100
AcDbEntity
  8
LAYER_1
  6
Continuous
 62
     7
100
AcDbPolyline
 90
        4
 70
     1
 43
0.0
 10
-1.396231999999999
 20
1.384538999999999
 10
-1.137177
 20
1.601901999999999
 10
-1.389929
 20
1.903122
 10
-1.648984
 20
1.685748
  0
LWPOLYLINE
  5
55
330
1E
100
AcDbEntity
  8
LAYER_1
  6
Continuous
 62
     7
100
AcDbPolyline
 90
        4
 70
     1
 43
0.0
 10
-2.066319
 20
0.8254839999999999
 10
-1.164331
 20
1.582330999999999
 10
-0.4398310000000001
 20
0.7189020000000001
 10
-1.341819
 20
-0.037957
  0
LWPOLYLINE
  5
5B
330
1E
100
AcDbEntity
  8
LAYER_1
  6
Continuous
 62
     7
100
AcDbPolyline
 90
        4
 70
     1
 43
0.0
 10
-1.520583
 20
1.528138
 10
-1.58072
 20
1.477677
 10
-0.610386
 20
0.321291
 10
-0.5502640000000002
 20
0.371748
  0
LWPOLYLINE
  5
61
330
1E
100
AcDbEntity
  8
LAYER_1
  6
Continuous
 62
     7
100
AcDbPolyline
 90
        2
 70
     0
 43
0.0
 10
-0.4213189999999999
 20
1.04865
 10
-0.6500550000000001
 20
0.8567199999999999
  0
LWPOLYLINE
  5
65
330
1E
100
AcDbEntity
  8
LAYER_1
  6
Continuous
 62
     7
100
AcDbPolyline
 90
        4
 70
     1
 43
0.0
 10
-0.733122
 20
1.251290999999999
 10
-0.6714570000000001
 20
1.303038999999999
 10
-0.210819
 20
0.7540670000000001
 10
-0.272484
 20
0.702319
  0
LWPOLYLINE
  5
6B
330
1E
100
AcDbEntity
  8
LAYER_1
  6
Continuous
 62
     7
100
AcDbPolyline
 90
        4
 70
     1
 43
0.0
 10
-0.6689689999999999
 20
1.044969
 10
-0.6076380000000001
 20
1.096429
 10
-0.401776
 20
0.851083
 10
-0.46311
 20
0.7996220000000001
  0
LWPOLYLINE
  5
71
330
1E
100
AcDbEntity
  8
LAYER_1
  6
Continuous
 62
     7
100
AcDbPolyline
 90
        6
 70
     1
 43
0.0
 10
1.001457
 20
2.346858
 10
1.05865
 20
2.358763999999999
 10
1.125776
 20
2.278747999999999
 10
1.106109999999999
 20
2.222138
 10
-0.286429
 20
1.053665
 10
-0.391083
 20
1.178374
  0
LWPOLYLINE
  5
79
330
1E
100
AcDbEntity
  8
LAYER_1
  6
Continuous
 62
     7
100
AcDbPolyline
 90
        2
 70
     0
 43
0.0
 10
1.009276
 20
6.272109999999999
 10
1.181302999999999
 20
-4.516605999999999
  0
SOLID
  5
7D
330
1E
100
AcDbEntity
  8
LAYER_1
100
AcDbTrace
 10
1.044512
 20
-1.630873999999999
 30
0.0
 11
1.215
 21
-1.630873999999999
 31
0.0
 12
1.044512
 22
-0.999591
 32
0.0
 13
1.215
 23
-0.999591
 33
0.0
  0
LWPOLYLINE
  5
7E
330
1E
100
AcDbEntity
  8
LAYER_1
  6
Continuous
100
AcDbPolyline
 90
        4
 70
     1
 43
0.0
 10
1.044512
 20
-1.630873999999999
 10
1.215
 20
-1.630873999999999
 10
1.215
 20
-0.999591
 10
1.044512
 20
-0.999591
  0
TEXT
  5
84
330
1E
100
AcDbEntity
  8
LAYER_1
 62
     7
100
AcDbText
 10
2.794093999999999
 20
2.963874
 30
0.0
 40
0.11104
  1
50 deg
 41
0.6819638829720587
  7
SN0
 72
     5
 11
3.208779999999999
 21
2.963874
 31
0.0
100
AcDbText
  0
LWPOLYLINE
  5
85
330
1E
100
AcDbEntity
  8
LAYER_1
  6
DASHED
 62
     7
100
AcDbPolyline
 90
        2
 70
     0
 43
0.0
 10
-0.762528
 20
0.7660670000000001
 10
3.618858
 20
4.425469
  0
LWPOLYLINE
  5
89
330
1E
100
AcDbEntity
  8
LAYER_1
  6
Continuous
 62
     7
100
AcDbPolyline
 90
        4
 70
     0
 43
0.0
 10
2.387901999999999
 20
3.401121999999999
 10
2.38832
 20
3.400602999999999
 10
2.391251
 20
3.396969999999999
 10
2.399204999999999
 20
3.387109999999999
  0
LWPOLYLINE
  5
8F
330
1E
100
AcDbEntity
  8
LAYER_1
  6
Continuous
 62
     7
100
AcDbPolyline
 90
        4
 70
     0
 43
0.0
 10
2.399204999999999
 20
3.387109999999999
 10
2.413965
 20
3.368597
 10
2.434431
 20
3.341779
 10
2.458763999999999
 20
3.307692999999999
  0
LWPOLYLINE
  5
95
330
1E
100
AcDbEntity
  8
LAYER_1
  6
Continuous
 62
     7
100
AcDbPolyline
 90
        4
 70
     0
 43
0.0
 10
2.458763999999999
 20
3.307692999999999
 10
2.485288
 20
3.267373
 10
2.512961999999999
 20
3.221938
 10
2.540885999999999
 20
3.172499999999999
  0
LWPOLYLINE
  5
9B
330
1E
100
AcDbEntity
  8
LAYER_1
  6
Continuous
 62
     7
100
AcDbPolyline
 90
        4
 70
     0
 43
0.0
 10
2.540885999999999
 20
3.172499999999999
 10
2.568183
 20
3.120174
 10
2.594036
 20
3.066183999999999
 10
2.617637999999999
 20
3.011747999999999
  0
LWPOLYLINE
  5
A1
330
1E
100
AcDbEntity
  8
LAYER_1
  6
Continuous
 62
     7
100
AcDbPolyline
 90
        4
 70
     0
 43
0.0
 10
2.617637999999999
 20
3.011747999999999
 10
2.638379
 20
2.957859
 10
2.656426999999999
 20
2.904577
 10
2.672149999999999
 20
2.851732
  0
LWPOLYLINE
  5
A7
330
1E
100
AcDbEntity
  8
LAYER_1
  6
Continuous
 62
     7
100
AcDbPolyline
 90
        4
 70
     0
 43
0.0
 10
2.672149999999999
 20
2.851732
 10
2.685858
 20
2.799296
 10
2.697659999999999
 20
2.747625999999999
 10
2.707609999999999
 20
2.697232
  0
LWPOLYLINE
  5
AD
330
1E
100
AcDbEntity
  8
LAYER_1
  6
Continuous
 62
     7
100
AcDbPolyline
 90
        4
 70
     0
 43
0.0
 10
2.707609999999999
 20
2.697232
 10
2.715772999999999
 20
2.648468999999999
 10
2.722278999999999
 20
2.600994
 10
2.727275999999999
 20
2.554331
  0
LWPOLYLINE
  5
B3
330
1E
100
AcDbEntity
  8
LAYER_1
  6
Continuous
 62
     7
100
AcDbPolyline
 90
        4
 70
     0
 43
0.0
 10
2.727275999999999
 20
2.554331
 10
2.730865999999999
 20
2.507970999999999
 10
2.733048
 20
2.46123
 10
2.733775999999999
 20
2.413413
  0
LWPOLYLINE
  5
B9
330
1E
100
AcDbEntity
  8
LAYER_1
  6
Continuous
 62
     7
100
AcDbPolyline
 90
        4
 70
     0
 43
0.0
 10
2.733775999999999
 20
2.413413
 10
2.733038
 20
2.364244999999999
 10
2.730856
 20
2.315100999999999
 10
2.727275999999999
 20
2.267776
  0
LWPOLYLINE
  5
BF
330
1E
100
AcDbEntity
  8
LAYER_1
  6
Continuous
 62
     7
100
AcDbPolyline
 90
        4
 70
     0
 43
0.0
 10
2.727275999999999
 20
2.267776
 10
2.722513999999999
 20
2.224302999999999
 10
2.717548999999999
 20
2.187734999999999
 10
2.713527999999999
 20
2.161345999999999
  0
LWPOLYLINE
  5
C5
330
1E
100
AcDbEntity
  8
LAYER_1
  6
Continuous
 62
     7
100
AcDbPolyline
 90
        4
 70
     0
 43
0.0
 10
2.713527999999999
 20
2.161345999999999
 10
2.711297
 20
2.147133999999999
 10
2.710475999999999
 20
2.141897999999999
 10
2.710358
 20
2.14115
  0
SOLID
  5
CB
330
1E
100
AcDbEntity
  8
LAYER_1
  6
Continuous
 62
     7
100
AcDbTrace
 10
2.757803
 20
2.245665
 30
0.0
 11
2.710374
 21
2.14115
 31
0.0
 12
2.757803
 22
2.245665
 32
0.0
 13
2.697093999999999
 23
2.255149999999999
 33
0.0
  0
LWPOLYLINE
  5
CC
330
1E
100
AcDbEntity
  8
LAYER_1
  6
Continuous
 62
     7
100
AcDbPolyline
 90
        3
 70
     1
 43
0.0
 10
2.757803
 20
2.245665
 10
2.710374
 20
2.14115
 10
2.697093999999999
 20
2.255149999999999
  0
LWPOLYLINE
  5
D1
330
1E
100
AcDbEntity
  8
LAYER_1
  6
Continuous
 62
     7
100
AcDbPolyline
 90
        3
 70
     0
 43
0.0
 10
2.757803
 20
2.245665
 10
2.710374
 20
2.14115
 10
2.697093999999999
 20
2.255149999999999
  0
TEXT
  5
D6
330
1E
100
AcDbEntity
  8
LAYER_1
 62
     7
100
AcDbText
 10
1.906302999999999
 20
3.996055
 30
0.0
 40
0.11104
  1
50 deg
 41
0.6819638829720587
  7
SN0
 72
     5
 11
2.320988999999999
 21
3.996055
 31
0.0
100
AcDbText
  0
LWPOLYLINE
  5
D7
330
1E
100
AcDbEntity
  8
LAYER_1
  6
DASHED
 62
     7
100
AcDbPolyline
 90
        2
 70
     0
 43
0.0
 10
1.162873999999999
 20
1.946054999999999
 10
1.162873999999999
 20
4.646302999999999
  0
LWPOLYLINE
  5
DB
330
1E
100
AcDbEntity
  8
LAYER_1
  6
Continuous
 62
     7
100
AcDbPolyline
 90
        4
 70
     0
 43
0.0
 10
1.171637999999999
 20
4.010763999999999
 10
1.172484999999999
 20
4.010737
 10
1.178412
 20
4.010545999999999
 10
1.194499999999999
 20
4.010028
  0
LWPOLYLINE
  5
E1
330
1E
100
AcDbEntity
  8
LAYER_1
  6
Continuous
 62
     7
100
AcDbPolyline
 90
        4
 70
     0
 43
0.0
 10
1.194499999999999
 20
4.010028
 10
1.224291999999999
 20
4.008963999999999
 10
1.265221999999999
 20
4.006914
 10
1.313193
 20
4.003385999999999
  0
LWPOLYLINE
  5
E7
330
1E
100
AcDbEntity
  8
LAYER_1
  6
Continuous
 62
     7
100
AcDbPolyline
 90
        4
 70
     0
 43
0.0
 10
1.313193
 20
4.003385999999999
 10
1.364748999999999
 20
3.997929
 10
1.418927
 20
3.990176
 10
1.475402
 20
3.979803
  0
LWPOLYLINE
  5
ED
330
1E
100
AcDbEntity
  8
LAYER_1
  6
Continuous
 62
     7
100
AcDbPolyline
 90
        4
 70
     0
 43
0.0
 10
1.475402
 20
3.979803
 10
1.533614
 20
3.966612
 10
1.592159999999999
 20
3.950966
 10
1.649402
 20
3.933345999999999
  0
LWPOLYLINE
  5
F3
330
1E
100
AcDbEntity
  8
LAYER_1
  6
Continuous
 62
     7
100
AcDbPolyline
 90
        4
 70
     0
 43
0.0
 10
1.649402
 20
3.933345999999999
 10
1.704038
 20
3.914205
 10
1.756218
 20
3.893752999999999
 10
1.806428999999999
 20
3.872149999999999
  0
LWPOLYLINE
  5
F9
330
1E
100
AcDbEntity
  8
LAYER_1
  6
Continuous
 62
     7
100
AcDbPolyline
 90
        4
 70
     0
 43
0.0
 10
1.806428999999999
 20
3.872149999999999
 10
1.855036
 20
3.849571
 10
1.901838999999999
 20
3.826169
 10
1.946511999999999
 20
3.802109999999999
  0
LWPOLYLINE
  5
FF
330
1E
100
AcDbEntity
  8
LAYER_1
  6
Continuous
 62
     7
100
AcDbPolyline
 90
        4
 70
     0
 43
0.0
 10
1.946511999999999
 20
3.802109999999999
 10
1.988865999999999
 20
3.777514
 10
2.029255
 20
3.752255999999999
 10
2.068165
 20
3.726176999999999
  0
LWPOLYLINE
  5
105
330
1E
100
AcDbEntity
  8
LAYER_1
  6
Continuous
 62
     7
100
AcDbPolyline
 90
        4
 70
     0
 43
0.0
 10
2.068165
 20
3.726176999999999
 10
2.10609
 20
3.699063999999999
 10
2.143526
 20
3.670473
 10
2.180968999999999
 20
3.639912999999999
  0
LWPOLYLINE
  5
10B
330
1E
100
AcDbEntity
  8
LAYER_1
  6
Continuous
 62
     7
100
AcDbPolyline
 90
        4
 70
     0
 43
0.0
 10
2.180968999999999
 20
3.639912999999999
 10
2.218566999999999
 20
3.607225
 10
2.255183999999999
 20
3.573558
 10
2.289346
 20
3.540386
  0
LWPOLYLINE
  5
111
330
1E
100
AcDbEntity
  8
LAYER_1
  6
Continuous
 62
     7
100
AcDbPolyline
 90
        4
 70
     0
 43
0.0
 10
2.289346
 20
3.540386
 10
2.319542999999999
 20
3.509364
 10
2.344174999999999
 20
3.482930999999999
 10
2.361593999999999
 20
3.463705
  0
LWPOLYLINE
  5
117
330
1E
100
AcDbEntity
  8
LAYER_1
  6
Continuous
 62
     7
100
AcDbPolyline
 90
        4
 70
     0
 43
0.0
 10
2.361593999999999
 20
3.463705
 10
2.370938999999999
 20
3.453326
 10
2.374381999999999
 20
3.449502999999999
 10
2.374874
 20
3.448957
  0
SOLID
  5
11D
330
1E
100
AcDbEntity
  8
LAYER_1
  6
Continuous
 62
     7
100
AcDbTrace
 10
2.32372
 20
3.551705
 30
0.0
 11
2.374874
 21
3.448969
 31
0.0
 12
2.32372
 22
3.551705
 32
0.0
 13
2.278054999999999
 23
3.510622
 33
0.0
  0
LWPOLYLINE
  5
11E
330
1E
100
AcDbEntity
  8
LAYER_1
  6
Continuous
 62
     7
100
AcDbPolyline
 90
        3
 70
     1
 43
0.0
 10
2.32372
 20
3.551705
 10
2.374874
 20
3.448969
 10
2.278054999999999
 20
3.510622
  0
LWPOLYLINE
  5
123
330
1E
100
AcDbEntity
  8
LAYER_1
  6
Continuous
 62
     7
100
AcDbPolyline
 90
        3
 70
     0
 43
0.0
 10
2.32372
 20
3.551705
 10
2.374874
 20
3.448969
 10
2.278054999999999
 20
3.510622
  0
TEXT
  5
128
330
1E
100
AcDbEntity
  8
LAYER_1
 62
     7
100
AcDbText
 10
-0.5574130000000001
 20
4.118776
 30
0.0
 40
0.11104
  1
Wiper arm
 41
0.6991983804546153
  7
SN0
 72
     5
 11
0.067396
 21
4.118776
 31
0.0
100
AcDbText
  0
TEXT
  5
129
330
1E
100
AcDbEntity
  8
LAYER_1
 62
     7
100
AcDbText
 10
-0.5574130000000001
 20
3.983609999999999
 30
0.0
 40
0.11104
  1
insertion
 41
0.7293943386925529
  7
SN0
 72
     5
 11
-0.044464
 21
3.983609999999999
 31
0.0
100
AcDbText
  0
TEXT
  5
12A
330
1E
100
AcDbEntity
  8
LAYER_1
 62
     7
100
AcDbText
 10
-0.5574130000000001
 20
3.848441
 30
0.0
 40
0.11104
  1
position
 41
0.7373104286743519
  7
SN0
 72
     5
 11
-0.089579
 21
3.848441
 31
0.0
100
AcDbText
  0
TEXT
  5
12B
330
1E
100
AcDbEntity
  8
LAYER_1
 62
     7
100
AcDbText
 10
-0.5574130000000001
 20
3.713276
 30
0.0
 40
0.11104
  1
with 180 deg
 41
0.6608972196751379
  7
SN0
 72
     5
 11
0.211393
 21
3.713276
 31
0.0
100
AcDbText
  0
TEXT
  5
12C
330
1E
100
AcDbEntity
  8
LAYER_1
 62
     7
100
AcDbText
 10
-0.5574130000000001
 20
3.578105999999999
 30
0.0
 40
0.11104
  1
shaft rotation
 41
0.6681049926006696
  7
SN0
 72
     5
 11
0.226843
 21
3.578105999999999
 31
0.0
100
AcDbText
  0
TEXT
  5
12D
330
1E
100
AcDbEntity
  8
LAYER_1
 62
     7
100
AcDbText
 10
-1.736331
 20
2.173941
 30
0.0
 40
0.11104
  1
+50/-50
 41
0.5843953530259367
  7
SN0
 72
     5
 11
-1.272821999999999
 21
2.173941
 31
0.0
100
AcDbText
  0
TEXT
  5
12E
330
1E
100
AcDbEntity
  8
LAYER_1
 62
     7
100
AcDbText
 10
-1.736331
 20
2.038775999999999
 30
0.0
 40
0.11104
  1
servo rotation
 41
0.6939695154899134
  7
SN0
 72
     5
 11
-0.914375
 21
2.038775999999999
 31
0.0
100
AcDbText
  0
TEXT
  5
12F
330
1E
100
AcDbEntity
  8
LAYER_1
 62
     7
100
AcDbText
 10
3.635386
 20
-1.484164999999999
 30
0.0
 40
0.100276
  1
0
 41
0.8374539212948683
  7
SN0
 72
     5
 11
3.703366999999999
 21
-1.484164999999999
 31
0.0
100
AcDbText
  0
TEXT
  5
130
330
1E
100
AcDbEntity
  8
LAYER_1
 62
     7
100
AcDbText
 10
3.584109999999999
 20
-1.004004
 30
0.0
 40
0.100276
  1
-10 ail
 41
0.5813345167338151
  7
SN0
 72
     5
 11
3.917218
 21
-1.004004
 31
0.0
100
AcDbText
  0
TEXT
  5
131
330
1E
100
AcDbEntity
  8
LAYER_1
 62
     7
100
AcDbText
 10
2.396748
 20
-2.757783
 30
0.0
 40
0.100276
  1
+50 brake
 41
0.6582831385376366
  7
SN0
 72
     5
 11
2.943688
 21
-2.757783
 31
0.0
100
AcDbText
  0
LWPOLYLINE
  5
132
330
1E
100
AcDbEntity
  8
LAYER_1
  6
Continuous
 62
     7
100
AcDbPolyline
 90
        2
 70
     0
 43
0.0
 10
1.115094
 20
-1.467775999999999
 10
1.124846
 20
-1.145776
  0
LWPOLYLINE
  5
136
330
1E
100
AcDbEntity
  8
LAYER_1
  6
Continuous
 62
     7
100
AcDbPolyline
 90
        2
 70
     0
 43
0.0
 10
1.127012
 20
-1.468093999999999
 10
1.189583
 20
-1.155429
  0
LWPOLYLINE
  5
13A
330
1E
100
AcDbEntity
  8
LAYER_1
  6
Continuous
 62
     7
100
AcDbPolyline
 90
        9
 70
     0
 43
0.0
 10
1.130649999999999
 20
-1.465538999999999
 10
1.643831
 20
-1.383469
 10
2.236483999999999
 20
-1.294901999999999
 10
2.832330999999999
 20
-1.209873999999999
 10
3.499583
 20
-1.118192999999999
 10
3.498401999999999
 20
-1.110330999999999
 10
2.403345999999999
 20
-1.119845999999999
 10
1.754483999999999
 20
-1.128330999999999
 10
1.184054999999999
 20
-1.141205
  0
LWPOLYLINE
  5
145
330
1E
100
AcDbEntity
  8
LAYER_1
  6
Continuous
 62
     7
100
AcDbPolyline
 90
        9
 70
     0
 43
0.0
 10
1.129677
 20
-1.468412999999999
 10
1.457345999999999
 20
-1.871818999999999
 10
1.830358
 20
-2.340775999999999
 10
2.201929
 20
-2.814290999999999
 10
2.614940999999999
 20
-3.346291
 10
2.621164999999999
 20
-3.341345999999999
 10
2.065402
 20
-2.397747999999999
 10
1.733622
 20
-1.840083
 10
1.437247999999999
 20
-1.3525
  0
SOLID
  5
150
330
1E
100
AcDbEntity
  8
LAYER_1
  6
Continuous
 62
   253
100
AcDbTrace
 10
-2.5015
 20
-0.8351649999999999
 30
0.0
 11
-2.499290999999999
 21
-1.458137999999999
 31
0.0
 12
-3.250795
 22
-0.815441
 32
0.0
 13
-3.249134
 23
-1.459567
 33
0.0
  0
LWPOLYLINE
  5
151
330
1E
100
AcDbEntity
  8
LAYER_1
  6
Continuous
 62
   253
100
AcDbPolyline
 90
        4
 70
     1
 43
0.0
 10
-2.5015
 20
-0.8351649999999999
 10
-2.499290999999999
 20
-1.458137999999999
 10
-3.249134
 20
-1.459567
 10
-3.250795
 20
-0.815441
  0
LWPOLYLINE
  5
157
330
1E
100
AcDbEntity
  8
LAYER_1
  6
Continuous
 62
     7
100
AcDbPolyline
 90
        4
 70
     1
 43
0.0
 10
-2.5015
 20
-0.8351649999999999
 10
-2.499290999999999
 20
-1.458137999999999
 10
-3.249134
 20
-1.459567
 10
-3.250795
 20
-0.815441
  0
SOLID
  5
15D
330
1E
100
AcDbEntity
  8
LAYER_1
  6
Continuous
 62
     7
100
AcDbTrace
 10
-3.249673
 20
-1.402319
 30
0.0
 11
-2.503441
 21
-1.403248
 31
0.0
 12
-3.249591
 22
-1.483940999999999
 32
0.0
 13
-2.503357999999999
 23
-1.484874
 33
0.0
  0
LWPOLYLINE
  5
15E
330
1E
100
AcDbEntity
  8
LAYER_1
  6
Continuous
 62
     7
100
AcDbPolyline
 90
        4
 70
     1
 43
0.0
 10
-3.249673
 20
-1.402319
 10
-2.503441
 20
-1.403248
 10
-2.503357999999999
 20
-1.484874
 10
-3.249591
 20
-1.483940999999999
  0
LWPOLYLINE
  5
164
330
1E
100
AcDbEntity
  8
LAYER_1
  6
Continuous
 62
     7
100
AcDbPolyline
 90
        4
 70
     1
 43
0.0
 10
-3.249673
 20
-1.402319
 10
-2.503441
 20
-1.403248
 10
-2.503357999999999
 20
-1.484874
 10
-3.249591
 20
-1.483940999999999
  0
SOLID
  5
16A
330
1E
100
AcDbEntity
  8
LAYER_1
  6
Continuous
 62
     7
100
AcDbTrace
 10
-3.250933
 20
-0.772819
 30
0.0
 11
-2.504693
 21
-0.773732
 31
0.0
 12
-3.250849999999999
 22
-0.8544409999999999
 32
0.0
 13
-2.50461
 23
-0.855358
 33
0.0
  0
LWPOLYLINE
  5
16B
330
1E
100
AcDbEntity
  8
LAYER_1
  6
Continuous
 62
     7
100
AcDbPolyline
 90
        4
 70
     1
 43
0.0
 10
-3.250933
 20
-0.772819
 10
-2.504693
 20
-0.773732
 10
-2.50461
 20
-0.855358
 10
-3.250849999999999
 20
-0.8544409999999999
  0
LWPOLYLINE
  5
171
330
1E
100
AcDbEntity
  8
LAYER_1
  6
Continuous
 62
     7
100
AcDbPolyline
 90
        4
 70
     1
 43
0.0
 10
-3.250933
 20
-0.772819
 10
-2.504693
 20
-0.773732
 10
-2.50461
 20
-0.855358
 10
-3.250849999999999
 20
-0.8544409999999999
  0
SOLID
  5
177
330
1E
100
AcDbEntity
  8
LAYER_1
  6
Continuous
 62
     7
100
AcDbTrace
 10
-3.251268
 20
-0.763791
 30
0.0
 11
-2.626138
 21
-0.764138
 31
0.0
 12
-3.251268
 22
-0.77165
 32
0.0
 13
-2.626138
 23
-0.7720000000000001
 33
0.0
  0
LWPOLYLINE
  5
178
330
1E
100
AcDbEntity
  8
LAYER_1
  6
Continuous
 62
     7
100
AcDbPolyline
 90
        4
 70
     1
 43
0.0
 10
-3.251268
 20
-0.763791
 10
-2.626138
 20
-0.764138
 10
-2.626138
 20
-0.7720000000000001
 10
-3.251268
 20
-0.77165
  0
LWPOLYLINE
  5
17E
330
1E
100
AcDbEntity
  8
LAYER_1
  6
Continuous
 62
     7
100
AcDbPolyline
 90
        4
 70
     1
 43
0.0
 10
-3.251268
 20
-0.763791
 10
-2.626138
 20
-0.764138
 10
-2.626138
 20
-0.7720000000000001
 10
-3.251268
 20
-0.77165
  0
SOLID
  5
184
330
1E
100
AcDbEntity
  8
LAYER_1
  6
Continuous
 62
     7
100
AcDbTrace
 10
-3.250302999999999
 20
-0.75561
 30
0.0
 11
-2.813511999999999
 21
-0.755858
 31
0.0
 12
-3.250302999999999
 22
-0.7634689999999999
 32
0.0
 13
-2.813511999999999
 23
-0.76372
 33
0.0
  0
LWPOLYLINE
  5
185
330
1E
100
AcDbEntity
  8
LAYER_1
  6
Continuous
 62
     7
100
AcDbPolyline
 90
        4
 70
     1
 43
0.0
 10
-3.250302999999999
 20
-0.75561
 10
-2.813511999999999
 20
-0.755858
 10
-2.813511999999999
 20
-0.76372
 10
-3.250302999999999
 20
-0.7634689999999999
  0
LWPOLYLINE
  5
18B
330
1E
100
AcDbEntity
  8
LAYER_1
  6
Continuous
 62
     7
100
AcDbPolyline
 90
        4
 70
     1
 43
0.0
 10
-3.250302999999999
 20
-0.75561
 10
-2.813511999999999
 20
-0.755858
 10
-2.813511999999999
 20
-0.76372
 10
-3.250302999999999
 20
-0.7634689999999999
  0
SOLID
  5
191
330
1E
100
AcDbEntity
  8
LAYER_1
  6
Continuous
 62
     7
100
AcDbTrace
 10
-3.250823
 20
-0.747512
 30
0.0
 11
-3.001996
 21
-0.7476500000000001
 31
0.0
 12
-3.250823
 22
-0.755374
 32
0.0
 13
-3.001996
 23
-0.755512
 33
0.0
  0
LWPOLYLINE
  5
192
330
1E
100
AcDbEntity
  8
LAYER_1
  6
Continuous
 62
     7
100
AcDbPolyline
 90
        4
 70
     1
 43
0.0
 10
-3.250823
 20
-0.747512
 10
-3.001996
 20
-0.7476500000000001
 10
-3.001996
 20
-0.755512
 10
-3.250823
 20
-0.755374
  0
LWPOLYLINE
  5
198
330
1E
100
AcDbEntity
  8
LAYER_1
  6
Continuous
 62
     7
100
AcDbPolyline
 90
        4
 70
     1
 43
0.0
 10
-3.250823
 20
-0.747512
 10
-3.001996
 20
-0.7476500000000001
 10
-3.001996
 20
-0.755512
 10
-3.250823
 20
-0.755374
  0
LWPOLYLINE
  5
19E
330
1E
100
AcDbEntity
  8
LAYER_1
  6
Continuous
 62
     7
100
AcDbPolyline
 90
        2
 70
     0
 43
0.0
 10
-3.233487999999999
 20
-4.170971999999999
 10
-2.514874
 20
-4.148865999999999
  0
LWPOLYLINE
  5
1A2
330
1E
100
AcDbEntity
  8
LAYER_1
  6
Continuous
 62
     7
100
AcDbPolyline
 90
        2
 70
     0
 43
0.0
 10
-3.233327
 20
-4.098912999999999
 10
-2.514704999999999
 20
-4.076802999999999
  0
LWPOLYLINE
  5
1A6
330
1E
100
AcDbEntity
  8
LAYER_1
  6
Continuous
 62
     7
100
AcDbPolyline
 90
        2
 70
     0
 43
0.0
 10
-3.233160999999999
 20
-4.026857999999999
 10
-2.514555
 20
-4.004748
  0
LWPOLYLINE
  5
1AA
330
1E
100
AcDbEntity
  8
LAYER_1
  6
Continuous
 62
     7
100
AcDbPolyline
 90
        2
 70
     0
 43
0.0
 10
-3.237146
 20
-3.954705
 10
-2.518527999999999
 20
-3.932594
  0
LWPOLYLINE
  5
1AE
330
1E
100
AcDbEntity
  8
LAYER_1
  6
Continuous
 62
     7
100
AcDbPolyline
 90
        2
 70
     0
 43
0.0
 10
-3.236984
 20
-3.882649999999999
 10
-2.518374
 20
-3.860538999999999
  0
LWPOLYLINE
  5
1B2
330
1E
100
AcDbEntity
  8
LAYER_1
  6
DASHED
 62
     7
100
AcDbPolyline
 90
        2
 70
     0
 43
0.0
 10
4.848330999999999
 20
-4.501583
 10
-7.511902
 20
-4.501583
  0
LWPOLYLINE
  5
1B6
330
1E
100
AcDbEntity
  8
LAYER_1
  6
Continuous
 62
     7
100
AcDbPolyline
 90
        2
 70
     0
 43
0.0
 10
3.609901999999999
 20
-4.495972
 10
1.238345999999999
 20
-4.495972
  0
LWPOLYLINE
  5
1BA
330
1E
100
AcDbEntity
  8
LAYER_1
  6
Continuous
 62
     7
100
AcDbPolyline
 90
        4
 70
     0
 43
0.0
 10
-3.316719999999999
 20
-4.496928999999999
 10
-3.330265
 20
-4.449792999999999
 10
-3.36444
 20
-4.416673
 10
-3.411976
 20
-4.404609999999999
  0
LWPOLYLINE
  5
1C0
330
1E
100
AcDbEntity
  8
LAYER_1
  6
Continuous
 62
     7
100
AcDbPolyline
 90
        4
 70
     0
 43
0.0
 10
-3.411976
 20
-4.404609999999999
 10
-3.459109999999999
 20
-4.418155
 10
-3.49223
 20
-4.452328999999999
 10
-3.504294999999999
 20
-4.499865999999999
  0
LWPOLYLINE
  5
1C6
330
1E
100
AcDbEntity
  8
LAYER_1
  6
Continuous
 62
     7
100
AcDbPolyline
 90
        4
 70
     0
 43
0.0
 10
-3.504294999999999
 20
-4.499865999999999
 10
-3.490751
 20
-4.546999999999999
 10
-3.456574999999999
 20
-4.580118999999999
 10
-3.409034999999999
 20
-4.592184999999999
  0
LWPOLYLINE
  5
1CC
330
1E
100
AcDbEntity
  8
LAYER_1
  6
Continuous
 62
     7
100
AcDbPolyline
 90
        4
 70
     0
 43
0.0
 10
-3.409034999999999
 20
-4.592184999999999
 10
-3.361901999999999
 20
-4.57864
 10
-3.328783
 20
-4.544466
 10
-3.316719999999999
 20
-4.496928999999999
  0
LWPOLYLINE
  5
1D2
330
1E
100
AcDbEntity
  8
LAYER_1
  6
Continuous
 62
     7
100
AcDbPolyline
 90
        4
 70
     0
 43
0.0
 10
-3.258570999999999
 20
-4.496087
 10
-3.280516
 20
-4.419729
 10
-3.335879
 20
-4.366076
 10
-3.412889999999999
 20
-4.346530999999999
  0
LWPOLYLINE
  5
1D8
330
1E
100
AcDbEntity
  8
LAYER_1
  6
Continuous
 62
     7
100
AcDbPolyline
 90
        4
 70
     0
 43
0.0
 10
-3.412889999999999
 20
-4.346530999999999
 10
-3.489246
 20
-4.368476
 10
-3.542899999999999
 20
-4.42384
 10
-3.562444999999999
 20
-4.500849999999999
  0
LWPOLYLINE
  5
1DE
330
1E
100
AcDbEntity
  8
LAYER_1
  6
Continuous
 62
     7
100
AcDbPolyline
 90
        4
 70
     0
 43
0.0
 10
-3.562444999999999
 20
-4.500849999999999
 10
-3.540498
 20
-4.577206999999999
 10
-3.485134999999999
 20
-4.63086
 10
-3.408126
 20
-4.650405999999999
  0
LWPOLYLINE
  5
1E4
330
1E
100
AcDbEntity
  8
LAYER_1
  6
Continuous
 62
     7
100
AcDbPolyline
 90
        4
 70
     0
 43
0.0
 10
-3.408126
 20
-4.650405999999999
 10
-3.331766999999999
 20
-4.628458999999999
 10
-3.278112999999999
 20
-4.573095999999999
 10
-3.258570999999999
 20
-4.496087
  0
LWPOLYLINE
  5
1EA
330
1E
100
AcDbEntity
  8
LAYER_1
  6
Continuous
 62
     7
100
AcDbPolyline
 90
        2
 70
     0
 43
0.0
 10
-6.043941
 20
6.358121999999999
 10
-6.129957
 20
-4.492027999999999
  0
LWPOLYLINE
  5
1EE
330
1E
100
AcDbEntity
  8
LAYER_1
  6
Continuous
 62
     7
100
AcDbPolyline
 90
        2
 70
     0
 43
0.0
 10
3.356248
 20
6.358121999999999
 10
3.614303
 20
-4.504315
  0
LWPOLYLINE
  5
1F2
330
1E
100
AcDbEntity
  8
LAYER_1
  6
Continuous
 62
     7
100
AcDbPolyline
 90
        2
 70
     0
 43
0.0
 10
-3.251527999999999
 20
6.379637999999999
 10
-3.251527999999999
 20
-4.482810999999999
  0
LWPOLYLINE
  5
1F6
330
1E
100
AcDbEntity
  8
LAYER_1
  6
Continuous
 62
     7
100
AcDbPolyline
 90
        2
 70
     0
 43
0.0
 10
-2.508109999999999
 20
6.339693
 10
-2.508109999999999
 20
-4.498168999999999
  0
LWPOLYLINE
  5
1FA
330
1E
100
AcDbEntity
  8
LAYER_1
  6
Continuous
 62
     7
100
AcDbPolyline
 90
        7
 70
     0
 43
0.0
 10
-2.517412999999999
 20
-4.500441
 10
-2.517412999999999
 20
-4.193248
 10
-3.415965
 20
-4.193248
 10
-3.569555
 20
-4.223969
 10
-3.667858
 20
-4.291551
 10
-3.729298999999999
 20
-4.383708999999999
 10
-3.741587
 20
-4.506591
  0
LWPOLYLINE
  5
203
330
1E
100
AcDbEntity
  8
LAYER_1
  6
Continuous
 62
     7
100
AcDbPolyline
 90
        4
 70
     0
 43
0.0
 10
0.6832760000000001
 20
-4.496928999999999
 10
0.6697280000000001
 20
-4.449792999999999
 10
0.6355490000000001
 20
-4.416673
 10
0.588012
 20
-4.404609999999999
  0
LWPOLYLINE
  5
209
330
1E
100
AcDbEntity
  8
LAYER_1
  6
Continuous
 62
     7
100
AcDbPolyline
 90
        4
 70
     0
 43
0.0
 10
0.588012
 20
-4.404609999999999
 10
0.5408800000000001
 20
-4.418155
 10
0.5077600000000001
 20
-4.452328999999999
 10
0.4956930000000001
 20
-4.499865999999999
  0
LWPOLYLINE
  5
20F
330
1E
100
AcDbEntity
  8
LAYER_1
  6
Continuous
 62
     7
100
AcDbPolyline
 90
        4
 70
     0
 43
0.0
 10
0.4956930000000001
 20
-4.499865999999999
 10
0.50924
 20
-4.546999999999999
 10
0.5434200000000001
 20
-4.580118999999999
 10
0.590957
 20
-4.592184999999999
  0
LWPOLYLINE
  5
215
330
1E
100
AcDbEntity
  8
LAYER_1
  6
Continuous
 62
     7
100
AcDbPolyline
 90
        4
 70
     0
 43
0.0
 10
0.590957
 20
-4.592184999999999
 10
0.638089
 20
-4.57864
 10
0.6712090000000001
 20
-4.544466
 10
0.6832760000000001
 20
-4.496928999999999
  0
LWPOLYLINE
  5
21B
330
1E
100
AcDbEntity
  8
LAYER_1
  6
Continuous
 62
     7
100
AcDbPolyline
 90
        4
 70
     0
 43
0.0
 10
0.741413
 20
-4.496087
 10
0.719474
 20
-4.419729
 10
0.6641100000000001
 20
-4.366076
 10
0.587094
 20
-4.346530999999999
  0
LWPOLYLINE
  5
221
330
1E
100
AcDbEntity
  8
LAYER_1
  6
Continuous
 62
     7
100
AcDbPolyline
 90
        4
 70
     0
 43
0.0
 10
0.587094
 20
-4.346530999999999
 10
0.510741
 20
-4.368476
 10
0.457092
 20
-4.42384
 10
0.4375550000000001
 20
-4.500849999999999
  0
LWPOLYLINE
  5
227
330
1E
100
AcDbEntity
  8
LAYER_1
  6
Continuous
 62
     7
100
AcDbPolyline
 90
        4
 70
     0
 43
0.0
 10
0.4375550000000001
 20
-4.500849999999999
 10
0.459494
 20
-4.577206999999999
 10
0.5148540000000001
 20
-4.63086
 10
0.5918580000000001
 20
-4.650405999999999
  0
LWPOLYLINE
  5
22D
330
1E
100
AcDbEntity
  8
LAYER_1
  6
Continuous
 62
     7
100
AcDbPolyline
 90
        4
 70
     0
 43
0.0
 10
0.5918580000000001
 20
-4.650405999999999
 10
0.668221
 20
-4.628458999999999
 10
0.7218740000000001
 20
-4.573095999999999
 10
0.741413
 20
-4.496087
  0
LWPOLYLINE
  5
233
330
1E
100
AcDbEntity
  8
LAYER_1
  6
DASHED
 62
     7
100
AcDbPolyline
 90
        2
 70
     0
 43
0.0
 10
1.94622
 20
2.240956999999999
 10
2.929247999999999
 20
2.075066999999999
  0
LWPOLYLINE
  5
237
330
1E
100
AcDbEntity
  8
LAYER_1
  6
Continuous
 62
     7
100
AcDbPolyline
 90
        7
 70
     0
 43
0.0
 10
-2.628
 20
-4.194791
 10
0.6067640000000001
 20
-4.194791
 10
0.7096650000000001
 20
-4.204004
 10
0.7880000000000001
 20
-4.251622
 10
0.8417639999999998
 20
-4.319205
 10
0.8694129999999999
 20
-4.411357999999999
 10
0.874028
 20
-4.500448999999999
  0
LWPOLYLINE
  5
240
330
1E
100
AcDbEntity
  8
LAYER_1
  6
Continuous
 62
     7
100
AcDbPolyline
 90
        4
 70
     0
 43
0.0
 10
3.501345999999999
 20
-1.471638
 10
3.50015
 20
-1.471477
 10
3.491779
 20
-1.47035
 10
3.469055
 20
-1.467290999999999
  0
LWPOLYLINE
  5
246
330
1E
100
AcDbEntity
  8
LAYER_1
  6
Continuous
 62
     7
100
AcDbPolyline
 90
        4
 70
     0
 43
0.0
 10
3.469055
 20
-1.467290999999999
 10
3.426546
 20
-1.461540999999999
 10
3.365766999999999
 20
-1.453256999999999
 10
3.289969
 20
-1.442803
  0
LWPOLYLINE
  5
24C
330
1E
100
AcDbEntity
  8
LAYER_1
  6
Continuous
 62
     7
100
AcDbPolyline
 90
        4
 70
     0
 43
0.0
 10
3.289969
 20
-1.442803
 10
3.202491999999999
 20
-1.430603999999999
 10
3.107072
 20
-1.417232
 10
3.007511999999999
 20
-1.403318999999999
  0
LWPOLYLINE
  5
252
330
1E
100
AcDbEntity
  8
LAYER_1
  6
Continuous
 62
     7
100
AcDbPolyline
 90
        4
 70
     0
 43
0.0
 10
3.007511999999999
 20
-1.403318999999999
 10
2.906975999999999
 20
-1.389391
 10
2.80602
 20
-1.375452
 10
2.704539
 20
-1.361385999999999
  0
LWPOLYLINE
  5
258
330
1E
100
AcDbEntity
  8
LAYER_1
  6
Continuous
 62
     7
100
AcDbPolyline
 90
        4
 70
     0
 43
0.0
 10
2.704539
 20
-1.361385999999999
 10
2.602462
 20
-1.347134999999999
 10
2.499927999999999
 20
-1.332764999999999
 10
2.39711
 20
-1.318386
  0
LWPOLYLINE
  5
25E
330
1E
100
AcDbEntity
  8
LAYER_1
  6
Continuous
 62
     7
100
AcDbPolyline
 90
        4
 70
     0
 43
0.0
 10
2.39711
 20
-1.318386
 10
2.294179
 20
-1.304090999999999
 10
2.191241999999999
 20
-1.289900999999999
 10
2.088413
 20
-1.275819
  0
LWPOLYLINE
  5
264
330
1E
100
AcDbEntity
  8
LAYER_1
  6
Continuous
 62
     7
100
AcDbPolyline
 90
        4
 70
     0
 43
0.0
 10
2.088413
 20
-1.275819
 10
1.985761
 20
-1.261861
 10
1.883281
 20
-1.248045999999999
 10
1.780940999999999
 20
-1.234412999999999
  0
LWPOLYLINE
  5
26A
330
1E
100
AcDbEntity
  8
LAYER_1
  6
Continuous
 62
     7
100
AcDbPolyline
 90
        4
 70
     0
 43
0.0
 10
1.780940999999999
 20
-1.234412999999999
 10
1.678920999999999
 20
-1.221001
 10
1.578235999999999
 20
-1.207912
 10
1.480121999999999
 20
-1.195247999999999
  0
LWPOLYLINE
  5
270
330
1E
100
AcDbEntity
  8
LAYER_1
  6
Continuous
 62
     7
100
AcDbPolyline
 90
        4
 70
     0
 43
0.0
 10
1.480121999999999
 20
-1.195247999999999
 10
1.385658
 20
-1.183062
 10
1.29519
 20
-1.171224999999999
 10
1.208902
 20
-1.159567
  0
LWPOLYLINE
  5
276
330
1E
100
AcDbEntity
  8
LAYER_1
  6
Continuous
 62
     7
100
AcDbPolyline
 90
        4
 70
     0
 43
0.0
 10
1.208902
 20
-1.159567
 10
1.126327999999999
 20
-1.147899999999999
 10
1.044362999999999
 20
-1.135888999999999
 10
0.9592639999999999
 20
-1.123193
  0
LWPOLYLINE
  5
27C
330
1E
100
AcDbEntity
  8
LAYER_1
  6
Continuous
 62
     7
100
AcDbPolyline
 90
        4
 70
     0
 43
0.0
 10
0.9592639999999999
 20
-1.123193
 10
0.8682290000000001
 20
-1.109574999999999
 10
0.7723550000000001
 20
-1.095303
 10
0.673693
 20
-1.080748
  0
LWPOLYLINE
  5
282
330
1E
100
AcDbEntity
  8
LAYER_1
  6
Continuous
 62
     7
100
AcDbPolyline
 90
        4
 70
     0
 43
0.0
 10
0.673693
 20
-1.080748
 10
0.573968
 20
-1.066232
 10
0.473713
 20
-1.051878
 10
0.373138
 20
-1.037763999999999
  0
LWPOLYLINE
  5
288
330
1E
100
AcDbEntity
  8
LAYER_1
  6
Continuous
 62
     7
100
AcDbPolyline
 90
        4
 70
     0
 43
0.0
 10
0.373138
 20
-1.037763999999999
 10
0.272401
 20
-1.023957
 10
0.171554
 20
-1.01046
 10
0.070594
 20
-0.997276
  0
LWPOLYLINE
  5
28E
330
1E
100
AcDbEntity
  8
LAYER_1
  6
Continuous
 62
     7
100
AcDbPolyline
 90
        4
 70
     0
 43
0.0
 10
0.070594
 20
-0.997276
 10
-0.030469
 20
-0.98441
 10
-0.131616
 20
-0.9718219999999998
 10
-0.232803
 20
-0.9594839999999999
  0
LWPOLYLINE
  5
294
330
1E
100
AcDbEntity
  8
LAYER_1
  6
Continuous
 62
     7
100
AcDbPolyline
 90
        4
 70
     0
 43
0.0
 10
-0.232803
 20
-0.9594839999999999
 10
-0.334012
 20
-0.9473659999999998
 10
-0.43522
 20
-0.9354569999999998
 10
-0.5364290000000001
 20
-0.9237639999999998
  0
LWPOLYLINE
  5
29A
330
1E
100
AcDbEntity
  8
LAYER_1
  6
Continuous
 62
     7
100
AcDbPolyline
 90
        4
 70
     0
 43
0.0
 10
-0.5364290000000001
 20
-0.9237639999999998
 10
-0.637648
 20
-0.912287
 10
-0.7388710000000001
 20
-0.9010569999999999
 10
-0.8401099999999999
 20
-0.8901100000000001
  0
LWPOLYLINE
  5
2A0
330
1E
100
AcDbEntity
  8
LAYER_1
  6
Continuous
 62
     7
100
AcDbPolyline
 90
        4
 70
     0
 43
0.0
 10
-0.8401099999999999
 20
-0.8901100000000001
 10
-0.941342
 20
-0.8794769999999999
 10
-1.042545
 20
-0.8691639999999999
 10
-1.143693
 20
-0.859177
  0
LWPOLYLINE
  5
2A6
330
1E
100
AcDbEntity
  8
LAYER_1
  6
Continuous
 62
     7
100
AcDbPolyline
 90
        4
 70
     0
 43
0.0
 10
-1.143693
 20
-0.859177
 10
-1.244748999999999
 20
-0.849507
 10
-1.345743
 20
-0.8401569999999999
 10
-1.446704999999999
 20
-0.8311219999999998
  0
LWPOLYLINE
  5
2AC
330
1E
100
AcDbEntity
  8
LAYER_1
  6
Continuous
 62
     7
100
AcDbPolyline
 90
        4
 70
     0
 43
0.0
 10
-1.446704999999999
 20
-0.8311219999999998
 10
-1.547676
 20
-0.8224199999999999
 10
-1.64862
 20
-0.8140310000000001
 10
-1.7495
 20
-0.8059569999999999
  0
LWPOLYLINE
  5
2B2
330
1E
100
AcDbEntity
  8
LAYER_1
  6
Continuous
 62
     7
100
AcDbPolyline
 90
        4
 70
     0
 43
0.0
 10
-1.7495
 20
-0.8059569999999999
 10
-1.850275999999999
 20
-0.798218
 10
-1.950962999999999
 20
-0.7908340000000001
 10
-2.051555
 20
-0.7838460000000001
  0
LWPOLYLINE
  5
2B8
330
1E
100
AcDbEntity
  8
LAYER_1
  6
Continuous
 62
     7
100
AcDbPolyline
 90
        4
 70
     0
 43
0.0
 10
-2.051555
 20
-0.7838460000000001
 10
-2.152049
 20
-0.7772660000000001
 10
-2.252447999999999
 20
-0.771083
 10
-2.352748
 20
-0.7652640000000001
  0
LWPOLYLINE
  5
2BE
330
1E
100
AcDbEntity
  8
LAYER_1
  6
Continuous
 62
     7
100
AcDbPolyline
 90
        4
 70
     0
 43
0.0
 10
-2.352748
 20
-0.7652640000000001
 10
-2.452952
 20
-0.7597800000000001
 10
-2.553059
 20
-0.754686
 10
-2.653066999999999
 20
-0.7500550000000001
  0
LWPOLYLINE
  5
2C4
330
1E
100
AcDbEntity
  8
LAYER_1
  6
Continuous
 62
     7
100
AcDbPolyline
 90
        4
 70
     0
 43
0.0
 10
-2.653066999999999
 20
-0.7500550000000001
 10
-2.752987
 20
-0.7459350000000001
 10
-2.852774
 20
-0.7422840000000001
 10
-2.95239
 20
-0.7390280000000001
  0
LWPOLYLINE
  5
2CA
330
1E
100
AcDbEntity
  8
LAYER_1
  6
Continuous
 62
     7
100
AcDbPolyline
 90
        4
 70
     0
 43
0.0
 10
-2.95239
 20
-0.7390280000000001
 10
-3.051813
 20
-0.7361220000000001
 10
-3.151031999999999
 20
-0.7336470000000001
 10
-3.250051
 20
-0.731705
  0
LWPOLYLINE
  5
2D0
330
1E
100
AcDbEntity
  8
LAYER_1
  6
Continuous
 62
     7
100
AcDbPolyline
 90
        4
 70
     0
 43
0.0
 10
-3.250051
 20
-0.731705
 10
-3.348866
 20
-0.7303950000000001
 10
-3.447408
 20
-0.729692
 10
-3.545614
 20
-0.729567
  0
LWPOLYLINE
  5
2D6
330
1E
100
AcDbEntity
  8
LAYER_1
  6
Continuous
 62
     7
100
AcDbPolyline
 90
        4
 70
     0
 43
0.0
 10
-3.545614
 20
-0.729567
 10
-3.64343
 20
-0.72999
 10
-3.740909999999999
 20
-0.7310280000000001
 10
-3.838122
 20
-0.732748
  0
LWPOLYLINE
  5
2DC
330
1E
100
AcDbEntity
  8
LAYER_1
  6
Continuous
 62
     7
100
AcDbPolyline
 90
        4
 70
     0
 43
0.0
 10
-3.838122
 20
-0.732748
 10
-3.935105
 20
-0.7352050000000001
 10
-4.031752
 20
-0.7383840000000001
 10
-4.127920999999999
 20
-0.742248
  0
LWPOLYLINE
  5
2E2
330
1E
100
AcDbEntity
  8
LAYER_1
  6
Continuous
 62
     7
100
AcDbPolyline
 90
        4
 70
     0
 43
0.0
 10
-4.127920999999999
 20
-0.742248
 10
-4.223493
 20
-0.746779
 10
-4.318444
 20
-0.752033
 10
-4.41278
 20
-0.758083
  0
LWPOLYLINE
  5
2E8
330
1E
100
AcDbEntity
  8
LAYER_1
  6
Continuous
 62
     7
100
AcDbPolyline
 90
        4
 70
     0
 43
0.0
 10
-4.41278
 20
-0.758083
 10
-4.506472
 20
-0.764999
 10
-4.599412
 20
-0.7727840000000001
 10
-4.691448999999999
 20
-0.781441
  0
LWPOLYLINE
  5
2EE
330
1E
100
AcDbEntity
  8
LAYER_1
  6
Continuous
 62
     7
100
AcDbPolyline
 90
        4
 70
     0
 43
0.0
 10
-4.691448999999999
 20
-0.781441
 10
-4.782454
 20
-0.790982
 10
-4.872308999999999
 20
-0.801481
 10
-4.960912999999999
 20
-0.8130119999999999
  0
LWPOLYLINE
  5
2F4
330
1E
100
AcDbEntity
  8
LAYER_1
  6
Continuous
 62
     7
100
AcDbPolyline
 90
        4
 70
     0
 43
0.0
 10
-4.960912999999999
 20
-0.8130119999999999
 10
-5.048147
 20
-0.8256289999999999
 10
-5.133773999999999
 20
-0.8393909999999999
 10
-5.217551
 20
-0.8543309999999999
  0
LWPOLYLINE
  5
2FA
330
1E
100
AcDbEntity
  8
LAYER_1
  6
Continuous
 62
     7
100
AcDbPolyline
 90
        4
 70
     0
 43
0.0
 10
-5.217551
 20
-0.8543309999999999
 10
-5.299191999999999
 20
-0.87047
 10
-5.378236
 20
-0.8876689999999999
 10
-5.454181
 20
-0.9057639999999999
  0
LWPOLYLINE
  5
300
330
1E
100
AcDbEntity
  8
LAYER_1
  6
Continuous
 62
     7
100
AcDbPolyline
 90
        4
 70
     0
 43
0.0
 10
-5.454181
 20
-0.9057639999999999
 10
-5.526486
 20
-0.924576
 10
-5.594441
 20
-0.9438919999999999
 10
-5.657291
 20
-0.963484
  0
LWPOLYLINE
  5
306
330
1E
100
AcDbEntity
  8
LAYER_1
  6
Continuous
 62
     7
100
AcDbPolyline
 90
        4
 70
     0
 43
0.0
 10
-5.657291
 20
-0.963484
 10
-5.714387999999999
 20
-0.983094
 10
-5.765442
 20
-1.002291
 10
-5.810264
 20
-1.020621999999999
  0
LWPOLYLINE
  5
30C
330
1E
100
AcDbEntity
  8
LAYER_1
  6
Continuous
 62
     7
100
AcDbPolyline
 90
        4
 70
     0
 43
0.0
 10
-5.810264
 20
-1.020621999999999
 10
-5.848821
 20
-1.037712999999999
 10
-5.881670999999999
 20
-1.053541999999999
 10
-5.909527999999999
 20
-1.068149999999999
  0
LWPOLYLINE
  5
312
330
1E
100
AcDbEntity
  8
LAYER_1
  6
Continuous
 62
     7
100
AcDbPolyline
 90
        4
 70
     0
 43
0.0
 10
-5.909527999999999
 20
-1.068149999999999
 10
-5.93308
 20
-1.081596
 10
-5.953025
 20
-1.093964999999999
 10
-5.970038999999999
 20
-1.105345999999999
  0
LWPOLYLINE
  5
318
330
1E
100
AcDbEntity
  8
LAYER_1
  6
Continuous
 62
     7
100
AcDbPolyline
 90
        4
 70
     0
 43
0.0
 10
-5.970038999999999
 20
-1.105345999999999
 10
-5.984722
 20
-1.115839999999999
 10
-5.997435
 20
-1.125570999999999
 10
-6.008468999999999
 20
-1.134665
  0
LWPOLYLINE
  5
31E
330
1E
100
AcDbEntity
  8
LAYER_1
  6
Continuous
 62
     7
100
AcDbPolyline
 90
        4
 70
     0
 43
0.0
 10
-6.008468999999999
 20
-1.134665
 10
-6.018093
 20
-1.143261
 10
-6.026495999999999
 20
-1.151422999999999
 10
-6.033858
 20
-1.15922
  0
LWPOLYLINE
  5
324
330
1E
100
AcDbEntity
  8
LAYER_1
  6
Continuous
 62
     7
100
AcDbPolyline
 90
        4
 70
     0
 43
0.0
 10
-6.033858
 20
-1.15922
 10
-6.040344
 20
-1.166711
 10
-6.046037999999999
 20
-1.173905999999999
 10
-6.051012
 20
-1.180803
  0
LWPOLYLINE
  5
32A
330
1E
100
AcDbEntity
  8
LAYER_1
  6
Continuous
 62
     7
100
AcDbPolyline
 90
        4
 70
     0
 43
0.0
 10
-6.051012
 20
-1.180803
 10
-6.055347
 20
-1.187402
 10
-6.059071
 20
-1.193772999999999
 10
-6.062219999999999
 20
-1.199983999999999
  0
LWPOLYLINE
  5
330
330
1E
100
AcDbEntity
  8
LAYER_1
  6
Continuous
 62
     7
100
AcDbPolyline
 90
        4
 70
     0
 43
0.0
 10
-6.062219999999999
 20
-1.199983999999999
 10
-6.064815
 20
-1.206095999999999
 10
-6.066805
 20
-1.212148999999999
 10
-6.068121999999999
 20
-1.218177
  0
LWPOLYLINE
  5
336
330
1E
100
AcDbEntity
  8
LAYER_1
  6
Continuous
 62
     7
100
AcDbPolyline
 90
        4
 70
     0
 43
0.0
 10
-6.068121999999999
 20
-1.218177
 10
-6.068712999999999
 20
-1.224223999999999
 10
-6.068589
 20
-1.230254
 10
-6.067791
 20
-1.236231999999999
  0
LWPOLYLINE
  5
33C
330
1E
100
AcDbEntity
  8
LAYER_1
  6
Continuous
 62
     7
100
AcDbPolyline
 90
        4
 70
     0
 43
0.0
 10
-6.067791
 20
-1.236231999999999
 10
-6.066327999999999
 20
-1.242115999999999
 10
-6.064118999999999
 20
-1.247873999999999
 10
-6.061055
 20
-1.253468999999999
  0
LWPOLYLINE
  5
342
330
1E
100
AcDbEntity
  8
LAYER_1
  6
Continuous
 62
     7
100
AcDbPolyline
 90
        4
 70
     0
 43
0.0
 10
-6.061055
 20
-1.253468999999999
 10
-6.057066
 20
-1.258911
 10
-6.052222
 20
-1.264230999999999
 10
-6.046622
 20
-1.2695
  0
LWPOLYLINE
  5
348
330
1E
100
AcDbEntity
  8
LAYER_1
  6
Continuous
 62
     7
100
AcDbPolyline
 90
        4
 70
     0
 43
0.0
 10
-6.046622
 20
-1.2695
 10
-6.040365
 20
-1.274779
 10
-6.033357999999999
 20
-1.280112999999999
 10
-6.0255
 20
-1.285538999999999
  0
LWPOLYLINE
  5
34E
330
1E
100
AcDbEntity
  8
LAYER_1
  6
Continuous
 62
     7
100
AcDbPolyline
 90
        4
 70
     0
 43
0.0
 10
-6.0255
 20
-1.285538999999999
 10
-6.016694
 20
-1.291090999999999
 10
-6.006820999999999
 20
-1.296775
 10
-5.995776
 20
-1.302594
  0
LWPOLYLINE
  5
354
330
1E
100
AcDbEntity
  8
LAYER_1
  6
Continuous
 62
     7
100
AcDbPolyline
 90
        4
 70
     0
 43
0.0
 10
-5.995776
 20
-1.302594
 10
-5.983407999999999
 20
-1.308575999999999
 10
-5.969311
 20
-1.314816999999999
 10
-5.953027999999999
 20
-1.321429
  0
LWPOLYLINE
  5
35A
330
1E
100
AcDbEntity
  8
LAYER_1
  6
Continuous
 62
     7
100
AcDbPolyline
 90
        4
 70
     0
 43
0.0
 10
-5.953027999999999
 20
-1.321429
 10
-5.934019
 20
-1.328530999999999
 10
-5.911514
 20
-1.336186
 10
-5.884665
 20
-1.344457
  0
LWPOLYLINE
  5
360
330
1E
100
AcDbEntity
  8
LAYER_1
  6
Continuous
 62
     7
100
AcDbPolyline
 90
        4
 70
     0
 43
0.0
 10
-5.884665
 20
-1.344457
 10
-5.852602
 20
-1.353369999999999
 10
-5.814385999999999
 20
-1.36291
 10
-5.769055
 20
-1.373028
  0
LWPOLYLINE
  5
366
330
1E
100
AcDbEntity
  8
LAYER_1
  6
Continuous
 62
     7
100
AcDbPolyline
 90
        4
 70
     0
 43
0.0
 10
-5.769055
 20
-1.373028
 10
-5.715885
 20
-1.383612
 10
-5.655089
 20
-1.394365999999999
 10
-5.587118
 20
-1.404912999999999
  0
LWPOLYLINE
  5
36C
330
1E
100
AcDbEntity
  8
LAYER_1
  6
Continuous
 62
     7
100
AcDbPolyline
 90
        4
 70
     0
 43
0.0
 10
-5.587118
 20
-1.404912999999999
 10
-5.512544
 20
-1.414949999999999
 10
-5.432347
 20
-1.424350999999999
 10
-5.347625999999999
 20
-1.433054999999999
  0
LWPOLYLINE
  5
372
330
1E
100
AcDbEntity
  8
LAYER_1
  6
Continuous
 62
     7
100
AcDbPolyline
 90
        4
 70
     0
 43
0.0
 10
-5.347625999999999
 20
-1.433054999999999
 10
-5.259393
 20
-1.441004999999999
 10
-5.168301
 20
-1.448180999999999
 10
-5.074920999999999
 20
-1.454566999999999
  0
LWPOLYLINE
  5
378
330
1E
100
AcDbEntity
  8
LAYER_1
  6
Continuous
 62
     7
100
AcDbPolyline
 90
        4
 70
     0
 43
0.0
 10
-5.074920999999999
 20
-1.454566999999999
 10
-4.979767999999999
 20
-1.460169999999999
 10
-4.883179
 20
-1.465095999999999
 10
-4.785441
 20
-1.469484
  0
LWPOLYLINE
  5
37E
330
1E
100
AcDbEntity
  8
LAYER_1
  6
Continuous
 62
     7
100
AcDbPolyline
 90
        4
 70
     0
 43
0.0
 10
-4.785441
 20
-1.469484
 10
-4.686809999999999
 20
-1.473456999999999
 10
-4.587425999999999
 20
-1.477015999999999
 10
-4.487394
 20
-1.480164999999999
  0
LWPOLYLINE
  5
384
330
1E
100
AcDbEntity
  8
LAYER_1
  6
Continuous
 62
     7
100
AcDbPolyline
 90
        4
 70
     0
 43
0.0
 10
-4.487394
 20
-1.480164999999999
 10
-4.386801
 20
-1.482911
 10
-4.285705
 20
-1.485284
 10
-4.184137999999999
 20
-1.487319
  0
LWPOLYLINE
  5
38A
330
1E
100
AcDbEntity
  8
LAYER_1
  6
Continuous
 62
     7
100
AcDbPolyline
 90
        4
 70
     0
 43
0.0
 10
-4.184137999999999
 20
-1.487319
 10
-4.082145999999999
 20
-1.489030999999999
 10
-3.979789999999999
 20
-1.490474
 10
-3.877141999999999
 20
-1.491677
  0
LWPOLYLINE
  5
390
330
1E
100
AcDbEntity
  8
LAYER_1
  6
Continuous
 62
     7
100
AcDbPolyline
 90
        4
 70
     0
 43
0.0
 10
-3.877141999999999
 20
-1.491677
 10
-3.774270999999999
 20
-1.492675
 10
-3.671221
 20
-1.493496999999999
 10
-3.568027999999999
 20
-1.494177
  0
LWPOLYLINE
  5
396
330
1E
100
AcDbEntity
  8
LAYER_1
  6
Continuous
 62
     7
100
AcDbPolyline
 90
        4
 70
     0
 43
0.0
 10
-3.568027999999999
 20
-1.494177
 10
-3.464719
 20
-1.494762
 10
-3.361336
 20
-1.495235
 10
-3.257916999999999
 20
-1.495594
  0
LWPOLYLINE
  5
39C
330
1E
100
AcDbEntity
  8
LAYER_1
  6
Continuous
 62
     7
100
AcDbPolyline
 90
        4
 70
     0
 43
0.0
 10
-3.257916999999999
 20
-1.495594
 10
-3.154477999999999
 20
-1.495859
 10
-3.050968
 20
-1.49602
 10
-2.947311
 20
-1.496083
  0
LWPOLYLINE
  5
3A2
330
1E
100
AcDbEntity
  8
LAYER_1
  6
Continuous
 62
     7
100
AcDbPolyline
 90
        4
 70
     0
 43
0.0
 10
-2.947311
 20
-1.496083
 10
-2.843460999999999
 20
-1.496030999999999
 10
-2.739468999999999
 20
-1.495878
 10
-2.635402
 20
-1.495622
  0
LWPOLYLINE
  5
3A8
330
1E
100
AcDbEntity
  8
LAYER_1
  6
Continuous
 62
     7
100
AcDbPolyline
 90
        4
 70
     0
 43
0.0
 10
-2.635402
 20
-1.495622
 10
-2.531311999999999
 20
-1.495268999999999
 10
-2.427184
 20
-1.494844
 10
-2.322983999999999
 20
-1.494385999999999
  0
LWPOLYLINE
  5
3AE
330
1E
100
AcDbEntity
  8
LAYER_1
  6
Continuous
 62
     7
100
AcDbPolyline
 90
        4
 70
     0
 43
0.0
 10
-2.322983999999999
 20
-1.494385999999999
 10
-2.218698999999999
 20
-1.493914999999999
 10
-2.114338999999999
 20
-1.493416999999999
 10
-2.009940999999999
 20
-1.492845999999999
  0
LWPOLYLINE
  5
3B4
330
1E
100
AcDbEntity
  8
LAYER_1
  6
Continuous
 62
     7
100
AcDbPolyline
 90
        4
 70
     0
 43
0.0
 10
-2.009940999999999
 20
-1.492845999999999
 10
-1.905521
 20
-1.492180999999999
 10
-1.801065
 20
-1.491443
 10
-1.696539
 20
-1.490676999999999
  0
LWPOLYLINE
  5
3BA
330
1E
100
AcDbEntity
  8
LAYER_1
  6
Continuous
 62
     7
100
AcDbPolyline
 90
        4
 70
     0
 43
0.0
 10
-1.696539
 20
-1.490676999999999
 10
-1.591929
 20
-1.489904
 10
-1.487282999999999
 20
-1.489133999999999
 10
-1.382665
 20
-1.488358
  0
LWPOLYLINE
  5
3C0
330
1E
100
AcDbEntity
  8
LAYER_1
  6
Continuous
 62
     7
100
AcDbPolyline
 90
        4
 70
     0
 43
0.0
 10
-1.382665
 20
-1.488358
 10
-1.278134
 20
-1.487586999999999
 10
-1.173638999999999
 20
-1.48681
 10
-1.06911
 20
-1.486038999999999
  0
LWPOLYLINE
  5
3C6
330
1E
100
AcDbEntity
  8
LAYER_1
  6
Continuous
 62
     7
100
AcDbPolyline
 90
        4
 70
     0
 43
0.0
 10
-1.06911
 20
-1.486038999999999
 10
-0.9644969999999998
 20
-1.485267
 10
-0.8598459999999999
 20
-1.484495999999999
 10
-0.755232
 20
-1.48372
  0
LWPOLYLINE
  5
3CC
330
1E
100
AcDbEntity
  8
LAYER_1
  6
Continuous
 62
     7
100
AcDbPolyline
 90
        4
 70
     0
 43
0.0
 10
-0.755232
 20
-1.48372
 10
-0.6507100000000001
 20
-1.482941999999999
 10
-0.5462540000000001
 20
-1.482164
 10
-0.441831
 20
-1.481386
  0
LWPOLYLINE
  5
3D2
330
1E
100
AcDbEntity
  8
LAYER_1
  6
Continuous
 62
     7
100
AcDbPolyline
 90
        4
 70
     0
 43
0.0
 10
-0.441831
 20
-1.481386
 10
-0.337422
 20
-1.480615
 10
-0.232973
 20
-1.479837999999999
 10
-0.128441
 20
-1.479066999999999
  0
LWPOLYLINE
  5
3D8
330
1E
100
AcDbEntity
  8
LAYER_1
  6
Continuous
 62
     7
100
AcDbPolyline
 90
        4
 70
     0
 43
0.0
 10
-0.128441
 20
-1.479066999999999
 10
-0.023834
 20
-1.478293999999999
 10
0.080807
 20
-1.477522999999999
 10
0.185413
 20
-1.476747999999999
  0
LWPOLYLINE
  5
3DE
330
1E
100
AcDbEntity
  8
LAYER_1
  6
Continuous
 62
     7
100
AcDbPolyline
 90
        4
 70
     0
 43
0.0
 10
0.185413
 20
-1.476747999999999
 10
0.289946
 20
-1.475975999999999
 10
0.394399
 20
-1.475241999999999
 10
0.498819
 20
-1.474582999999999
  0
LWPOLYLINE
  5
3E4
330
1E
100
AcDbEntity
  8
LAYER_1
  6
Continuous
 62
     7
100
AcDbPolyline
 90
        4
 70
     0
 43
0.0
 10
0.498819
 20
-1.474582999999999
 10
0.603173
 20
-1.474005
 10
0.7072440000000001
 20
-1.473494999999999
 10
0.8107479999999998
 20
-1.473011999999999
  0
LWPOLYLINE
  5
3EA
330
1E
100
AcDbEntity
  8
LAYER_1
  6
Continuous
 62
     7
100
AcDbPolyline
 90
        4
 70
     0
 43
0.0
 10
0.8107479999999998
 20
-1.473011999999999
 10
0.9135089999999999
 20
-1.472512
 10
1.015735
 20
-1.472037
 10
1.117747999999999
 20
-1.471621999999999
  0
LWPOLYLINE
  5
3F0
330
1E
100
AcDbEntity
  8
LAYER_1
  6
Continuous
 62
     7
100
AcDbPolyline
 90
        4
 70
     0
 43
0.0
 10
1.117747999999999
 20
-1.471621999999999
 10
1.219832
 20
-1.471318
 10
1.322200999999999
 20
-1.471084999999999
 10
1.425028
 20
-1.470902
  0
LWPOLYLINE
  5
3F6
330
1E
100
AcDbEntity
  8
LAYER_1
  6
Continuous
 62
     7
100
AcDbPolyline
 90
        4
 70
     0
 43
0.0
 10
1.425028
 20
-1.470902
 10
1.528430999999999
 20
-1.470737999999999
 10
1.632258999999999
 20
-1.470582
 10
1.736302999999999
 20
-1.470429
  0
LWPOLYLINE
  5
3FC
330
1E
100
AcDbEntity
  8
LAYER_1
  6
Continuous
 62
     7
100
AcDbPolyline
 90
        4
 70
     0
 43
0.0
 10
1.736302999999999
 20
-1.470429
 10
1.840371
 20
-1.470291999999999
 10
1.944402999999999
 20
-1.470183
 10
2.048358
 20
-1.470137999999999
  0
LWPOLYLINE
  5
402
330
1E
100
AcDbEntity
  8
LAYER_1
  6
Continuous
 62
     7
100
AcDbPolyline
 90
        4
 70
     0
 43
0.0
 10
2.048358
 20
-1.470137999999999
 10
2.152225999999999
 20
-1.470204
 10
2.256016999999999
 20
-1.470407999999999
 10
2.359763999999999
 20
-1.470791
  0
LWPOLYLINE
  5
408
330
1E
100
AcDbEntity
  8
LAYER_1
  6
Continuous
 62
     7
100
AcDbPolyline
 90
        4
 70
     0
 43
0.0
 10
2.359763999999999
 20
-1.470791
 10
2.463499
 20
-1.471370999999999
 10
2.567191999999999
 20
-1.472089999999999
 10
2.670818999999999
 20
-1.472874
  0
LWPOLYLINE
  5
40E
330
1E
100
AcDbEntity
  8
LAYER_1
  6
Continuous
 62
     7
100
AcDbPolyline
 90
        4
 70
     0
 43
0.0
 10
2.670818999999999
 20
-1.472874
 10
2.774347
 20
-1.473673999999999
 10
2.877843
 20
-1.474511
 10
2.981374
 20
-1.475412999999999
  0
LWPOLYLINE
  5
414
330
1E
100
AcDbEntity
  8
LAYER_1
  6
Continuous
 62
     7
100
AcDbPolyline
 90
        4
 70
     0
 43
0.0
 10
2.981374
 20
-1.475412999999999
 10
3.084354999999999
 20
-1.476417999999999
 10
3.183607999999999
 20
-1.477469
 10
3.275303
 20
-1.478499999999999
  0
LWPOLYLINE
  5
41A
330
1E
100
AcDbEntity
  8
LAYER_1
  6
Continuous
 62
     7
100
AcDbPolyline
 90
        4
 70
     0
 43
0.0
 10
3.275303
 20
-1.478499999999999
 10
3.355607
 20
-1.479432
 10
3.42059
 20
-1.480213999999999
 10
3.466319
 20
-1.480776
  0
LWPOLYLINE
  5
420
330
1E
100
AcDbEntity
  8
LAYER_1
  6
Continuous
 62
     7
100
AcDbPolyline
 90
        4
 70
     0
 43
0.0
 10
3.466319
 20
-1.480776
 10
3.490791
 20
-1.481078
 10
3.499807
 20
-1.481188999999999
 10
3.501094
 20
-1.481204999999999
  0
LWPOLYLINE
  5
426
330
1E
100
AcDbEntity
  8
LAYER_1
  6
Continuous
 62
     7
100
AcDbPolyline
 90
        4
 70
     0
 43
0.0
 10
1.136776
 20
2.424109999999999
 10
1.946232
 20
2.762027999999999
 10
1.987704999999999
 20
2.66372
 10
1.162886
 20
2.308912999999999
  0
LWPOLYLINE
  5
42C
330
1E
100
AcDbEntity
  8
LAYER_1
  6
Continuous
 62
     7
100
AcDbPolyline
 90
        4
 70
     0
 43
0.0
 10
1.130622
 20
2.421038999999999
 10
2.059886
 20
2.256692999999999
 10
2.041456999999999
 20
2.152248
 10
1.156731999999999
 20
2.307374
  0
LWPOLYLINE
  5
432
330
1E
100
AcDbEntity
  8
LAYER_1
  6
Continuous
 62
     7
100
AcDbPolyline
 90
        4
 70
     0
 43
0.0
 10
1.118330999999999
 20
2.83422
 10
1.118330999999999
 20
3.259676999999999
 10
1.224319
 20
3.259676999999999
 10
1.225857999999999
 20
2.835748
  0
LWPOLYLINE
  5
438
330
1E
100
AcDbEntity
  8
LAYER_1
  6
Continuous
 62
     7
100
AcDbPolyline
 90
        4
 70
     0
 43
0.0
 10
1.153664999999999
 20
2.301232
 10
0.519303
 20
1.769790999999999
 10
0.45172
 20
1.849665
 10
1.126012
 20
2.416428999999999
  0
LWPOLYLINE
  5
43E
330
1E
100
AcDbEntity
  8
LAYER_1
  6
Continuous
 62
     7
100
AcDbPolyline
 90
        4
 70
     0
 43
0.0
 10
1.376386
 20
1.620791
 10
1.375095999999999
 20
1.620716
 10
1.366068999999999
 20
1.620186
 10
1.341566999999999
 20
1.618747999999999
  0
LWPOLYLINE
  5
444
330
1E
100
AcDbEntity
  8
LAYER_1
  6
Continuous
 62
     7
100
AcDbPolyline
 90
        4
 70
     0
 43
0.0
 10
1.341566999999999
 20
1.618747999999999
 10
1.300302999999999
 20
1.617605
 10
1.26678
 20
1.624659
 10
1.271940999999999
 20
1.649468999999999
  0
LWPOLYLINE
  5
44A
330
1E
100
AcDbEntity
  8
LAYER_1
  6
Continuous
 62
     7
100
AcDbPolyline
 90
        4
 70
     0
 43
0.0
 10
1.271940999999999
 20
1.649468999999999
 10
1.335421999999999
 20
1.699451999999999
 10
1.431675
 20
1.773556
 10
1.523830999999999
 20
1.868593999999999
  0
LWPOLYLINE
  5
450
330
1E
100
AcDbEntity
  8
LAYER_1
  6
Continuous
 62
     7
100
AcDbPolyline
 90
        4
 70
     0
 43
0.0
 10
1.523830999999999
 20
1.868593999999999
 10
1.583152
 20
1.978500999999999
 10
1.613338999999999
 20
2.085679999999999
 10
1.626231999999999
 20
2.169649999999999
  0
LWPOLYLINE
  5
456
330
1E
100
AcDbEntity
  8
LAYER_1
  6
Continuous
 62
     7
100
AcDbPolyline
 90
        4
 70
     0
 43
0.0
 10
1.626231999999999
 20
2.169649999999999
 10
1.631999999999999
 20
2.215772999999999
 10
1.634126
 20
2.232765
 10
1.634429
 20
2.235193
  0
LWPOLYLINE
  5
45C
330
1E
100
AcDbEntity
  8
LAYER_1
  6
Continuous
 62
     7
100
AcDbPolyline
 90
        4
 70
     0
 43
0.0
 10
-2.500528
 20
-1.090204999999999
 10
-2.499265999999999
 20
-1.090204999999999
 10
-2.490435999999999
 20
-1.090204999999999
 10
-2.466469
 20
-1.090204999999999
  0
LWPOLYLINE
  5
462
330
1E
100
AcDbEntity
  8
LAYER_1
  6
Continuous
 62
     7
100
AcDbPolyline
 90
        4
 70
     0
 43
0.0
 10
-2.466469
 20
-1.090204999999999
 10
-2.423324
 20
-1.090233
 10
-2.370958
 20
-1.090430999999999
 10
-2.322858
 20
-1.090969
  0
LWPOLYLINE
  5
468
330
1E
100
AcDbEntity
  8
LAYER_1
  6
Continuous
 62
     7
100
AcDbPolyline
 90
        4
 70
     0
 43
0.0
 10
-2.322858
 20
-1.090969
 10
-2.289312999999999
 20
-1.092141
 10
-2.26783
 20
-1.094673999999999
 10
-2.25272
 20
-1.099428999999999
  0
LWPOLYLINE
  5
46E
330
1E
100
AcDbEntity
  8
LAYER_1
  6
Continuous
 62
     7
100
AcDbPolyline
 90
        4
 70
     0
 43
0.0
 10
-2.25272
 20
-1.099428999999999
 10
-2.239381999999999
 20
-1.106991
 10
-2.227577
 20
-1.116945999999999
 10
-2.218164999999999
 20
-1.12861
  0
LWPOLYLINE
  5
474
330
1E
100
AcDbEntity
  8
LAYER_1
  6
Continuous
 62
     7
100
AcDbPolyline
 90
        4
 70
     0
 43
0.0
 10
-2.218164999999999
 20
-1.12861
 10
-2.211788
 20
-1.141326
 10
-2.208318
 20
-1.154551
 10
-2.207413
 20
-1.167775999999999
  0
LWPOLYLINE
  5
47A
330
1E
100
AcDbEntity
  8
LAYER_1
  6
Continuous
 62
     7
100
AcDbPolyline
 90
        4
 70
     0
 43
0.0
 10
-2.207413
 20
-1.167775999999999
 10
-2.208784999999999
 20
-1.1805
 10
-2.212433
 20
-1.192258999999999
 10
-2.218412999999999
 20
-1.202593999999999
  0
LWPOLYLINE
  5
480
330
1E
100
AcDbEntity
  8
LAYER_1
  6
Continuous
 62
     7
100
AcDbPolyline
 90
        4
 70
     0
 43
0.0
 10
-2.218412999999999
 20
-1.202593999999999
 10
-2.226795
 20
-1.211165
 10
-2.237677999999999
 20
-1.218085
 10
-2.251177
 20
-1.223583
  0
LWPOLYLINE
  5
486
330
1E
100
AcDbEntity
  8
LAYER_1
  6
Continuous
 62
     7
100
AcDbPolyline
 90
        4
 70
     0
 43
0.0
 10
-2.251177
 20
-1.223583
 10
-2.268102999999999
 20
-1.227848999999999
 10
-2.292027
 20
-1.230925
 10
-2.32722
 20
-1.232803
  0
LWPOLYLINE
  5
48C
330
1E
100
AcDbEntity
  8
LAYER_1
  6
Continuous
 62
     7
100
AcDbPolyline
 90
        4
 70
     0
 43
0.0
 10
-2.32722
 20
-1.232803
 10
-2.375147999999999
 20
-1.233559999999999
 10
-2.426150999999999
 20
-1.233575
 10
-2.467763999999999
 20
-1.233303
  0
LWPOLYLINE
  5
492
330
1E
100
AcDbEntity
  8
LAYER_1
  6
Continuous
 62
     7
100
AcDbPolyline
 90
        4
 70
     0
 43
0.0
 10
-2.467763999999999
 20
-1.233303
 10
-2.49082
 20
-1.233129
 10
-2.499314
 20
-1.233063999999999
 10
-2.500528
 20
-1.233055
  0
LWPOLYLINE
  5
498
330
1E
100
AcDbEntity
  8
LAYER_1
  6
Continuous
 62
     7
100
AcDbPolyline
 90
        4
 70
     1
 43
0.0
 10
-0.057248
 20
1.056094
 10
-0.4398030000000001
 20
0.735094
 10
-0.477705
 20
0.780276
 10
-0.095165
 20
1.101275999999999
  0
LWPOLYLINE
  5
49E
330
1E
100
AcDbEntity
  8
LAYER_1
  6
Continuous
 62
     7
100
AcDbPolyline
 90
        4
 70
     1
 43
0.0
 10
-0.310319
 20
1.357693
 10
-0.6928580000000001
 20
1.036693
 10
-0.730776
 20
1.081874
 10
-0.348232
 20
1.402873999999999
  0
LWPOLYLINE
  5
4A4
330
1E
100
AcDbEntity
  8
LAYER_1
  6
Continuous
 62
     7
100
AcDbPolyline
 90
        2
 70
     0
 43
0.0
 10
-0.190303
 20
0.9348030000000001
 10
-0.493913
 20
1.296621999999999
  0
LWPOLYLINE
  5
4A8
330
1E
100
AcDbEntity
  8
LAYER_1
  6
Continuous
 62
     7
100
AcDbPolyline
 90
        2
 70
     0
 43
0.0
 10
-0.171469
 20
0.950594
 10
-0.4750670000000001
 20
1.312412999999999
  0
LWPOLYLINE
  5
4AC
330
1E
100
AcDbEntity
  8
LAYER_1
  6
Continuous
 62
     7
100
AcDbPolyline
 90
        2
 70
     0
 43
0.0
 10
-0.15265
 20
0.966402
 10
-0.4562640000000001
 20
1.32822
  0
LWPOLYLINE
  5
4B0
330
1E
100
AcDbEntity
  8
LAYER_1
  6
Continuous
 62
     7
100
AcDbPolyline
 90
        2
 70
     0
 43
0.0
 10
-0.133831
 20
0.982193
 10
-0.4374290000000001
 20
1.344
  0
LWPOLYLINE
  5
4B4
330
1E
100
AcDbEntity
  8
LAYER_1
  6
Continuous
 62
     7
100
AcDbPolyline
 90
        2
 70
     0
 43
0.0
 10
-0.115
 20
0.9979839999999999
 10
-0.418594
 20
1.359803
  0
LWPOLYLINE
  5
4B8
330
1E
100
AcDbEntity
  8
LAYER_1
  6
Continuous
 62
     7
100
AcDbPolyline
 90
        2
 70
     0
 43
0.0
 10
-0.096165
 20
1.013776
 10
-0.399776
 20
1.375593999999999
  0
LWPOLYLINE
  5
4BC
330
1E
100
AcDbEntity
  8
LAYER_1
  6
Continuous
100
AcDbPolyline
 90
       12
 70
     1
 43
0.0
 10
-0.298555
 20
1.189346
 10
-0.3072760000000001
 20
1.176682
 10
-0.308442
 20
1.161675
 10
-0.301803
 20
1.147512
 10
-0.28901
 20
1.138516
 10
-0.274032
 20
1.137063999999999
 10
-0.260055
 20
1.143456999999999
 10
-0.251325
 20
1.156113999999999
 10
-0.250161
 20
1.17112
 10
-0.256803
 20
1.185275999999999
 10
-0.269587
 20
1.194274999999999
 10
-0.284566
 20
1.195734999999999
  0
LWPOLYLINE
  5
4CA
330
1E
100
AcDbEntity
  8
LAYER_1
  6
Continuous
 62
     7
100
AcDbPolyline
 90
        4
 70
     0
 43
0.0
 10
-0.298555
 20
1.189346
 10
-0.3072760000000001
 20
1.176682
 10
-0.308442
 20
1.161675
 10
-0.301803
 20
1.147512
  0
LWPOLYLINE
  5
4D0
330
1E
100
AcDbEntity
  8
LAYER_1
  6
Continuous
 62
     7
100
AcDbPolyline
 90
        4
 70
     0
 43
0.0
 10
-0.301803
 20
1.147512
 10
-0.28901
 20
1.138516
 10
-0.274032
 20
1.137063999999999
 10
-0.260055
 20
1.143456999999999
  0
LWPOLYLINE
  5
4D6
330
1E
100
AcDbEntity
  8
LAYER_1
  6
Continuous
 62
     7
100
AcDbPolyline
 90
        4
 70
     0
 43
0.0
 10
-0.260055
 20
1.143456999999999
 10
-0.251325
 20
1.156113999999999
 10
-0.250161
 20
1.17112
 10
-0.256803
 20
1.185275999999999
  0
LWPOLYLINE
  5
4DC
330
1E
100
AcDbEntity
  8
LAYER_1
  6
Continuous
 62
     7
100
AcDbPolyline
 90
        4
 70
     0
 43
0.0
 10
-0.256803
 20
1.185275999999999
 10
-0.269587
 20
1.194274999999999
 10
-0.284566
 20
1.195734999999999
 10
-0.298555
 20
1.189346
  0
LWPOLYLINE
  5
4E2
330
1E
100
AcDbEntity
  8
LAYER_1
  6
Continuous
 62
     7
100
AcDbPolyline
 90
        2
 70
     0
 43
0.0
 10
-0.077358
 20
1.029582999999999
 10
-0.380957
 20
1.391402
  0
LWPOLYLINE
  5
4E6
330
1E
100
AcDbEntity
  8
LAYER_1
  6
Continuous
 62
     7
100
AcDbPolyline
 90
        2
 70
     0
 43
0.0
 10
-0.0585
 20
1.045386
 10
-0.36211
 20
1.407204999999999
  0
SOLID
  5
4EA
330
1E
100
AcDbEntity
  8
LAYER_1
  6
Continuous
100
AcDbTrace
 10
1.136345999999999
 20
-1.11972
 30
0.0
 11
1.126983999999999
 21
-1.173845999999999
 31
0.0
 12
1.189263999999999
 22
-1.125083
 32
0.0
 13
1.178441
 23
-1.183149999999999
 33
0.0
  0
LWPOLYLINE
  5
4EB
330
1E
100
AcDbEntity
  8
LAYER_1
  6
Continuous
100
AcDbPolyline
 90
        4
 70
     1
 43
0.0
 10
1.136345999999999
 20
-1.11972
 10
1.126983999999999
 20
-1.173845999999999
 10
1.178441
 20
-1.183149999999999
 10
1.189263999999999
 20
-1.125083
  0
SOLID
  5
4F1
330
1E
100
AcDbEntity
  8
LAYER_1
  6
Continuous
 62
   253
100
AcDbTrace
 10
2.071401999999999
 20
-1.423507999999999
 30
0.0
 11
2.252645999999999
 21
-1.423507999999999
 31
0.0
 12
2.071401999999999
 22
-1.315995999999999
 32
0.0
 13
2.252645999999999
 23
-1.315995999999999
 33
0.0
  0
LWPOLYLINE
  5
4F2
330
1E
100
AcDbEntity
  8
LAYER_1
  6
Continuous
 62
   253
100
AcDbPolyline
 90
        4
 70
     1
 43
0.0
 10
2.071401999999999
 20
-1.423507999999999
 10
2.252645999999999
 20
-1.423507999999999
 10
2.252645999999999
 20
-1.315995999999999
 10
2.071401999999999
 20
-1.315995999999999
  0
LWPOLYLINE
  5
4F8
330
1E
100
AcDbEntity
  8
LAYER_1
  6
Continuous
 62
     7
100
AcDbPolyline
 90
        4
 70
     1
 43
0.0
 10
2.071401999999999
 20
-1.423507999999999
 10
2.252645999999999
 20
-1.423507999999999
 10
2.252645999999999
 20
-1.315995999999999
 10
2.071401999999999
 20
-1.315995999999999
  0
LWPOLYLINE
  5
4FE
330
1E
100
AcDbEntity
  8
LAYER_1
  6
Continuous
 62
     7
100
AcDbPolyline
 90
        4
 70
     0
 43
0.0
 10
1.167429
 20
-1.314456999999999
 10
2.006845999999999
 20
-1.316
 10
2.006845999999999
 20
-1.420441
 10
1.162054999999999
 20
-1.420441
  0
LWPOLYLINE
  5
504
330
1E
100
AcDbEntity
  8
LAYER_1
  6
Continuous
 62
     7
100
AcDbPolyline
 90
        4
 70
     1
 43
0.0
 10
1.156763999999999
 20
2.093874
 10
2.265747999999999
 20
1.909554999999999
 10
2.265747999999999
 20
3.384094
 10
1.135264
 20
3.574555
  0
LWPOLYLINE
  5
50A
330
1E
100
AcDbEntity
  8
LAYER_1
  6
Continuous
 62
     7
100
AcDbPolyline
 90
        4
 70
     0
 43
0.0
 10
1.158929
 20
-1.42711
 10
0.600776
 20
-1.368204999999999
 10
0.610276
 20
-1.263912999999999
 10
1.166886
 20
-1.322775999999999
  0
LWPOLYLINE
  5
510
330
1E
100
AcDbEntity
  8
LAYER_1
  6
Continuous
 62
     7
100
AcDbPolyline
 90
        4
 70
     1
 43
0.0
 10
-1.815122
 20
-0.814484
 10
-0.644122
 20
-0.9375549999999998
 10
-0.69672
 20
-1.437983999999999
 10
-1.867731999999999
 20
-1.314902
  0
LWPOLYLINE
  5
516
330
1E
100
AcDbEntity
  8
LAYER_1
  6
Continuous
 62
     7
100
AcDbPolyline
 90
        2
 70
     0
 43
0.0
 10
-0.4629020000000001
 20
-1.211969
 10
-0.7598580000000001
 20
-1.180763999999999
  0
LWPOLYLINE
  5
51A
330
1E
100
AcDbEntity
  8
LAYER_1
  6
Continuous
 62
     7
100
AcDbPolyline
 90
        4
 70
     1
 43
0.0
 10
-0.5504020000000001
 20
-0.990693
 10
-0.470331
 20
-0.9991100000000001
 10
-0.5145830000000001
 20
-1.420054999999999
 10
-0.5946500000000001
 20
-1.411637999999999
  0
LWPOLYLINE
  5
520
330
1E
100
AcDbEntity
  8
LAYER_1
  6
Continuous
 62
     7
100
AcDbPolyline
 90
        4
 70
     1
 43
0.0
 10
-0.636819
 20
-1.028885999999999
 10
-0.557193
 20
-1.037263999999999
 10
-0.590677
 20
-1.355776
 10
-0.670303
 20
-1.347412999999999
  0
LWPOLYLINE
  5
526
330
1E
100
AcDbEntity
  8
LAYER_1
  6
Continuous
 62
     7
100
AcDbPolyline
 90
        4
 70
     1
 43
0.0
 10
-0.9493860000000001
 20
-0.905803
 10
-1.001983999999999
 20
-1.406247999999999
 10
-1.080345999999999
 20
-1.398012
 10
-1.027747999999999
 20
-0.897567
  0
LWPOLYLINE
  5
52C
330
1E
100
AcDbEntity
  8
LAYER_1
  6
Continuous
 62
     7
100
AcDbPolyline
 90
        4
 70
     1
 43
0.0
 10
-0.274122
 20
-1.380082999999999
 10
-0.770764
 20
-1.327873999999999
 10
-0.764594
 20
-1.26922
 10
-0.267957
 20
-1.321412999999999
  0
LWPOLYLINE
  5
532
330
1E
100
AcDbEntity
  8
LAYER_1
  6
Continuous
 62
     7
100
AcDbPolyline
 90
        4
 70
     1
 43
0.0
 10
-0.247677
 20
-1.128386
 10
-0.744319
 20
-1.076192999999999
 10
-0.738165
 20
-1.017527999999999
 10
-0.241512
 20
-1.069731999999999
  0
LWPOLYLINE
  5
538
330
1E
100
AcDbEntity
  8
LAYER_1
  6
Continuous
 62
     7
100
AcDbPolyline
 90
        2
 70
     0
 43
0.0
 10
-0.454984
 20
-1.379845999999999
 10
-0.417957
 20
-1.027554999999999
  0
LWPOLYLINE
  5
53C
330
1E
100
AcDbEntity
  8
LAYER_1
  6
Continuous
 62
     7
100
AcDbPolyline
 90
        2
 70
     0
 43
0.0
 10
-0.4305550000000001
 20
-1.382412999999999
 10
-0.393528
 20
-1.030121999999999
  0
LWPOLYLINE
  5
540
330
1E
100
AcDbEntity
  8
LAYER_1
  6
Continuous
 62
     7
100
AcDbPolyline
 90
        2
 70
     0
 43
0.0
 10
-0.4060940000000001
 20
-1.384984
 10
-0.369067
 20
-1.032693
  0
LWPOLYLINE
  5
544
330
1E
100
AcDbEntity
  8
LAYER_1
  6
Continuous
 62
     7
100
AcDbPolyline
 90
        2
 70
     0
 43
0.0
 10
-0.381665
 20
-1.387538999999999
 10
-0.344638
 20
-1.035247999999999
  0
LWPOLYLINE
  5
548
330
1E
100
AcDbEntity
  8
LAYER_1
  6
Continuous
 62
     7
100
AcDbPolyline
 90
        2
 70
     0
 43
0.0
 10
-0.35722
 20
-1.390121999999999
 10
-0.320193
 20
-1.037830999999999
  0
LWPOLYLINE
  5
54C
330
1E
100
AcDbEntity
  8
LAYER_1
  6
Continuous
 62
     7
100
AcDbPolyline
 90
        2
 70
     0
 43
0.0
 10
-0.332791
 20
-1.392676999999999
 10
-0.2957639999999999
 20
-1.040402
  0
LWPOLYLINE
  5
550
330
1E
100
AcDbEntity
  8
LAYER_1
  6
Continuous
 62
     7
100
AcDbPolyline
 90
        2
 70
     0
 43
0.0
 10
-0.308346
 20
-1.395263999999999
 10
-0.271319
 20
-1.042969
  0
LWPOLYLINE
  5
554
330
1E
100
AcDbEntity
  8
LAYER_1
  6
Continuous
 62
     7
100
AcDbPolyline
 90
        2
 70
     0
 43
0.0
 10
-0.283886
 20
-1.397819
 10
-0.246858
 20
-1.045528
  0
LWPOLYLINE
  5
558
330
1E
100
AcDbEntity
  8
LAYER_1
  6
Continuous
 62
     7
100
AcDbPolyline
 90
        4
 70
     1
 43
0.0
 10
-0.4084690000000001
 20
-1.391621999999999
 10
-0.369319
 20
-1.01915
 10
-0.310665
 20
-1.025303
 10
-0.349803
 20
-1.397790999999999
  0
LWPOLYLINE
  5
55E
330
1E
100
AcDbEntity
  8
LAYER_1
  6
Continuous
 62
     7
100
AcDbPolyline
 90
        6
 70
     1
 43
0.0
 10
1.092319
 20
-1.28461
 10
1.128638
 20
-1.315968999999999
 10
1.117609999999999
 20
-1.420231999999999
 10
1.075649999999999
 20
-1.447149999999999
 10
-0.454665
 20
-1.285263999999999
 10
-0.436484
 20
-1.124276
  0
LWPOLYLINE
  5
566
330
1E
100
AcDbEntity
  8
LAYER_1
  6
Continuous
 62
     7
100
AcDbPolyline
 90
        4
 70
     1
 43
0.0
 10
1.182066999999999
 20
-1.422747999999999
 10
2.254176999999999
 20
-1.423512
 10
2.254176999999999
 20
-1.452704999999999
 10
1.182066999999999
 20
-1.452704999999999
  0
LWPOLYLINE
  5
56C
330
1E
100
AcDbEntity
  8
LAYER_1
  6
DASHED
 62
     7
100
AcDbPolyline
 90
        4
 70
     0
 43
0.0
 10
1.138330999999999
 20
3.397912999999999
 10
2.112138
 20
3.232038999999999
 10
2.112138
 20
2.104621999999999
 10
1.162902
 20
2.261302999999999
  0
TEXT
  5
572
330
1E
100
AcDbEntity
  8
LAYER_1
 62
     7
100
AcDbText
 10
2.263386
 20
-0.491386
 30
0.0
 40
0.11104
  1
endgrain 
 41
0.6601491621304305
  7
SN0
 72
     5
 11
2.828866
 21
-0.491386
 31
0.0
100
AcDbText
  0
TEXT
  5
573
330
1E
100
AcDbEntity
  8
LAYER_1
 62
     7
100
AcDbText
 10
2.263386
 20
-0.626555
 30
0.0
 40
0.11104
  1
basswood 
 41
0.6926894568456012
  7
SN0
 72
     5
 11
2.91168
 21
-0.626555
 31
0.0
100
AcDbText
  0
TEXT
  5
574
330
1E
100
AcDbEntity
  8
LAYER_1
 62
     7
100
AcDbText
 10
2.263386
 20
-0.76172
 30
0.0
 40
0.11104
  1
edging
 41
0.7477974350186059
  7
SN0
 72
     5
 11
2.670655
 21
-0.76172
 31
0.0
100
AcDbText
  0
LWPOLYLINE
  5
575
330
1E
100
AcDbEntity
  8
LAYER_1
  6
Continuous
 62
     7
100
AcDbPolyline
 90
        4
 70
     0
 43
0.0
 10
2.10365
 20
-0.6109840000000001
 10
2.101754
 20
-0.6109080000000001
 10
2.088481
 20
-0.610375
 10
2.052456999999999
 20
-0.608929
  0
LWPOLYLINE
  5
57B
330
1E
100
AcDbEntity
  8
LAYER_1
  6
Continuous
 62
     7
100
AcDbPolyline
 90
        4
 70
     0
 43
0.0
 10
2.052456999999999
 20
-0.608929
 10
1.989950999999999
 20
-0.607719
 10
1.927906
 20
-0.614241
 10
1.900902
 20
-0.637594
  0
LWPOLYLINE
  5
581
330
1E
100
AcDbEntity
  8
LAYER_1
  6
Continuous
 62
     7
100
AcDbPolyline
 90
        4
 70
     0
 43
0.0
 10
1.900902
 20
-0.637594
 10
1.932071999999999
 20
-0.6859920000000001
 10
1.998747
 20
-0.76397
 10
2.066790999999999
 20
-0.8751649999999999
  0
LWPOLYLINE
  5
587
330
1E
100
AcDbEntity
  8
LAYER_1
  6
Continuous
 62
     7
100
AcDbPolyline
 90
        5
 70
     0
 43
0.0
 10
2.066790999999999
 20
-0.8751649999999999
 10
2.101286999999999
 20
-0.9799989999999999
 10
2.121572
 20
-1.091743
 10
2.131871999999999
 20
-1.196572999999999
 10
2.136413
 20
-1.280664999999999
  0
LWPOLYLINE
  5
58E
330
1E
100
AcDbEntity
  8
LAYER_1
  6
Continuous
 62
     7
100
AcDbPolyline
 90
        4
 70
     0
 43
0.0
 10
2.136413
 20
-1.280664999999999
 10
2.139297
 20
-1.345513999999999
 10
2.140359999999999
 20
-1.369405999999999
 10
2.140511999999999
 20
-1.372819
  0
LWPOLYLINE
  5
594
330
1E
100
AcDbEntity
  8
LAYER_1
  6
Continuous
 62
     7
100
AcDbPolyline
 90
        5
 70
     1
 43
0.0
 10
1.206566999999999
 20
-1.285276
 10
2.128913
 20
-1.285276
 10
2.251790999999999
 20
-1.301401999999999
 10
2.252555
 20
-1.316
 10
1.206566999999999
 20
-1.314456999999999
  0
SOLID
  5
59B
330
1E
100
AcDbEntity
  8
LAYER_1
  6
Continuous
 62
   253
100
AcDbTrace
 10
0.9462049999999999
 20
1.805109999999999
 30
0.0
 11
0.94161
 21
2.064693
 31
0.0
 12
1.075231999999999
 22
1.808177
 32
0.0
 13
1.069093999999999
 23
2.176819
 33
0.0
  0
LWPOLYLINE
  5
59C
330
1E
100
AcDbEntity
  8
LAYER_1
  6
Continuous
 62
   253
100
AcDbPolyline
 90
        4
 70
     1
 43
0.0
 10
0.9462049999999999
 20
1.805109999999999
 10
0.94161
 20
2.064693
 10
1.069093999999999
 20
2.176819
 10
1.075231999999999
 20
1.808177
  0
LWPOLYLINE
  5
5A2
330
1E
100
AcDbEntity
  8
LAYER_1
  6
Continuous
 62
     7
100
AcDbPolyline
 90
        4
 70
     1
 43
0.0
 10
0.9462049999999999
 20
1.805109999999999
 10
0.94161
 20
2.064693
 10
1.069093999999999
 20
2.176819
 10
1.075231999999999
 20
1.808177
  0
SOLID
  5
5A8
330
1E
100
AcDbEntity
  8
LAYER_1
  6
Continuous
 62
   253
100
AcDbTrace
 10
1.064483999999999
 20
2.68215
 30
0.0
 11
1.069093999999999
 21
2.411818999999999
 31
0.0
 12
0.9354690000000001
 22
2.679083
 32
0.0
 13
0.94161
 23
2.304302999999999
 33
0.0
  0
LWPOLYLINE
  5
5A9
330
1E
100
AcDbEntity
  8
LAYER_1
  6
Continuous
 62
   253
100
AcDbPolyline
 90
        4
 70
     1
 43
0.0
 10
1.064483999999999
 20
2.68215
 10
1.069093999999999
 20
2.411818999999999
 10
0.94161
 20
2.304302999999999
 10
0.9354690000000001
 20
2.679083
  0
LWPOLYLINE
  5
5AF
330
1E
100
AcDbEntity
  8
LAYER_1
  6
Continuous
 62
     7
100
AcDbPolyline
 90
        4
 70
     1
 43
0.0
 10
1.064483999999999
 20
2.68215
 10
1.069093999999999
 20
2.411818999999999
 10
0.94161
 20
2.304302999999999
 10
0.9354690000000001
 20
2.679083
  0
TEXT
  5
5B5
330
1E
100
AcDbEntity
  8
LAYER_1
 62
     7
100
AcDbText
 10
-0.416193
 20
2.483957
 30
0.0
 40
0.11104
  1
horizontal
 41
0.7178631937343124
  7
SN0
 72
     5
 11
0.172154
 21
2.483957
 31
0.0
100
AcDbText
  0
TEXT
  5
5B6
330
1E
100
AcDbEntity
  8
LAYER_1
 62
     7
100
AcDbText
 10
-0.416193
 20
2.348786999999999
 30
0.0
 40
0.11104
  1
motion
 41
0.7324423631123917
  7
SN0
 72
     5
 11
-0.009541
 21
2.348786999999999
 31
0.0
100
AcDbText
  0
TEXT
  5
5B7
330
1E
100
AcDbEntity
  8
LAYER_1
 62
     7
100
AcDbText
 10
-0.416193
 20
2.213621999999999
 30
0.0
 40
0.11104
  1
restraint
 41
0.7021591318443808
  7
SN0
 72
     5
 11
0.07389
 21
2.213621999999999
 31
0.0
100
AcDbText
  0
TEXT
  5
5B8
330
1E
100
AcDbEntity
  8
LAYER_1
 62
     7
100
AcDbText
 10
-0.4407640000000001
 20
2.814035
 30
0.0
 40
0.11104
  1
vert. grain
 41
0.6710236904560092
  7
SN0
 72
     5
 11
0.162416
 21
2.814035
 31
0.0
100
AcDbText
  0
TEXT
  5
5B9
330
1E
100
AcDbEntity
  8
LAYER_1
 62
     7
100
AcDbText
 10
-0.4407640000000001
 20
2.678866
 30
0.0
 40
0.11104
  1
basswood
 41
0.7597141381010158
  7
SN0
 72
     5
 11
0.169832
 21
2.678866
 31
0.0
100
AcDbText
  0
LWPOLYLINE
  5
5BA
330
1E
100
AcDbEntity
  8
LAYER_1
  6
Continuous
 62
     7
100
AcDbPolyline
 90
        4
 70
     0
 43
0.0
 10
0.37022
 20
2.351929
 10
0.371889
 20
2.351929
 10
0.38357
 20
2.351929
 10
0.4152760000000001
 20
2.351929
  0
LWPOLYLINE
  5
5C0
330
1E
100
AcDbEntity
  8
LAYER_1
  6
Continuous
 62
     7
100
AcDbPolyline
 90
        4
 70
     0
 43
0.0
 10
0.4152760000000001
 20
2.351929
 10
0.471943
 20
2.354204
 10
0.5381590000000001
 20
2.37013
 10
0.593457
 20
2.413358
  0
LWPOLYLINE
  5
5C6
330
1E
100
AcDbEntity
  8
LAYER_1
  6
Continuous
 62
     7
100
AcDbPolyline
 90
        4
 70
     0
 43
0.0
 10
0.593457
 20
2.413358
 10
0.6247020000000001
 20
2.489590999999999
 10
0.6482160000000001
 20
2.572649
 10
0.687665
 20
2.628401999999999
  0
LWPOLYLINE
  5
5CC
330
1E
100
AcDbEntity
  8
LAYER_1
  6
Continuous
 62
     7
100
AcDbPolyline
 90
        4
 70
     0
 43
0.0
 10
0.687665
 20
2.628401999999999
 10
0.7584300000000001
 20
2.632951999999999
 10
0.842849
 20
2.603366999999999
 10
0.9149840000000001
 20
2.566956999999999
  0
LWPOLYLINE
  5
5D2
330
1E
100
AcDbEntity
  8
LAYER_1
  6
Continuous
 62
     7
100
AcDbPolyline
 90
        4
 70
     0
 43
0.0
 10
0.9149840000000001
 20
2.566956999999999
 10
0.955339
 20
2.545347
 10
0.9702069999999999
 20
2.537385
 10
0.9723309999999999
 20
2.536248
  0
LWPOLYLINE
  5
5D8
330
1E
100
AcDbEntity
  8
LAYER_1
  6
Continuous
 62
     7
100
AcDbPolyline
 90
        4
 70
     0
 43
0.0
 10
0.4562479999999999
 20
3.801886
 10
0.457916
 20
3.802037999999999
 10
0.469594
 20
3.8031
 10
0.501291
 20
3.805983999999999
  0
LWPOLYLINE
  5
5DE
330
1E
100
AcDbEntity
  8
LAYER_1
  6
Continuous
 62
     7
100
AcDbPolyline
 90
        4
 70
     0
 43
0.0
 10
0.501291
 20
3.805983999999999
 10
0.557654
 20
3.809172
 10
0.621745
 20
3.801436
 10
0.671276
 20
3.769122
  0
LWPOLYLINE
  5
5E4
330
1E
100
AcDbEntity
  8
LAYER_1
  6
Continuous
 62
     7
100
AcDbPolyline
 90
        4
 70
     0
 43
0.0
 10
0.671276
 20
3.769122
 10
0.6927430000000001
 20
3.703205
 10
0.707837
 20
3.613167999999999
 10
0.7470550000000001
 20
3.513122
  0
LWPOLYLINE
  5
5EA
330
1E
100
AcDbEntity
  8
LAYER_1
  6
Continuous
 62
     7
100
AcDbPolyline
 90
        4
 70
     0
 43
0.0
 10
0.7470550000000001
 20
3.513122
 10
0.8301129999999998
 20
3.416338999999999
 10
0.9336459999999998
 20
3.332752999999999
 10
1.023527999999999
 20
3.271468999999999
  0
LWPOLYLINE
  5
5F0
330
1E
100
AcDbEntity
  8
LAYER_1
  6
Continuous
 62
     7
100
AcDbPolyline
 90
        4
 70
     0
 43
0.0
 10
1.023527999999999
 20
3.271468999999999
 10
1.073967
 20
3.238316999999999
 10
1.092549999999999
 20
3.226102999999999
 10
1.095204999999999
 20
3.224358
  0
LWPOLYLINE
  5
5F6
330
1E
100
AcDbEntity
  8
LAYER_1
  6
Continuous
 62
     7
100
AcDbPolyline
 90
        3
 70
     0
 43
0.0
 10
1.019649999999999
 20
3.310763999999999
 10
1.095204999999999
 20
3.224358
 10
0.9859129999999998
 20
3.259428999999999
  0
LWPOLYLINE
  5
5FB
330
1E
100
AcDbEntity
  8
LAYER_1
  6
DASHED
 62
     7
100
AcDbPolyline
 90
        3
 70
     0
 43
0.0
 10
-4.729223999999999
 20
6.284028
 10
-2.910625999999999
 20
4.367122
 10
1.095204999999999
 20
0.312138
  0
TEXT
  5
600
330
1E
100
AcDbEntity
  8
LAYER_1
 62
     7
100
AcDbText
 10
-1.712677
 20
0.6000550000000001
 30
0.0
 40
0.142766
  1
DS368
 50
40.00001537174009
 41
0.7893953773790623
  7
SN1
 72
     5
 11
-1.309792999999999
 21
0.9381149999999999
 31
0.0
100
AcDbText
  0
TEXT
  5
601
330
1E
100
AcDbEntity
  8
LAYER_1
 62
     7
100
AcDbText
 10
-1.988413
 20
-1.427940999999999
 30
0.0
 40
0.100276
  1
6 deg
 41
0.6743718914742681
  7
SN0
 72
     5
 11
-1.682498
 21
-1.427940999999999
 31
0.0
100
AcDbText
  0
LWPOLYLINE
  5
602
330
1E
100
AcDbEntity
  8
LAYER_1
  6
DASHED
 62
     7
100
AcDbPolyline
 90
        2
 70
     0
 43
0.0
 10
-1.200968999999999
 20
-1.009330999999999
 10
-0.614386
 20
-1.070983999999999
  0
LWPOLYLINE
  5
606
330
1E
100
AcDbEntity
  8
LAYER_1
  6
DASHED
 62
     7
100
AcDbPolyline
 90
        2
 70
     0
 43
0.0
 10
-1.22561
 20
-1.243775999999999
 10
-0.6390279999999999
 20
-1.305429
  0
LWPOLYLINE
  5
60A
330
1E
100
AcDbEntity
  8
LAYER_1
  6
DASHED
 62
     7
100
AcDbPolyline
 90
        2
 70
     0
 43
0.0
 10
-0.139413
 20
0.7941500000000001
 10
-0.741846
 20
0.288638
  0
LWPOLYLINE
  5
60E
330
1E
100
AcDbEntity
  8
LAYER_1
  6
DASHED
 62
     7
100
AcDbPolyline
 90
        2
 70
     0
 43
0.0
 10
-1.030567
 20
1.859318999999999
 10
-1.633012
 20
1.353819
  0
LWPOLYLINE
  5
612
330
1E
100
AcDbEntity
  8
LAYER_1
  6
Continuous
 62
     7
100
AcDbPolyline
 90
        4
 70
     0
 43
0.0
 10
0.050732
 20
-0.044193
 10
0.048912
 20
-0.044193
 10
0.036169
 20
-0.044193
 10
0.001583
 20
-0.044193
  0
LWPOLYLINE
  5
618
330
1E
100
AcDbEntity
  8
LAYER_1
  6
Continuous
 62
     7
100
AcDbPolyline
 90
        4
 70
     0
 43
0.0
 10
0.001583
 20
-0.044193
 10
-0.058487
 20
-0.042979
 10
-0.118555
 20
-0.034485
 10
-0.145858
 20
-0.011429
  0
LWPOLYLINE
  5
61E
330
1E
100
AcDbEntity
  8
LAYER_1
  6
Continuous
 62
     7
100
AcDbPolyline
 90
        4
 70
     0
 43
0.0
 10
-0.145858
 20
-0.011429
 10
-0.120678
 20
0.031723
 10
-0.075474
 20
0.093537
 10
-0.055748
 20
0.170831
  0
LWPOLYLINE
  5
624
330
1E
100
AcDbEntity
  8
LAYER_1
  6
Continuous
 62
     7
100
AcDbPolyline
 90
        4
 70
     0
 43
0.0
 10
-0.055748
 20
0.170831
 10
-0.093369
 20
0.258365
 10
-0.165578
 20
0.34271
 10
-0.235969
 20
0.408402
  0
LWPOLYLINE
  5
62A
330
1E
100
AcDbEntity
  8
LAYER_1
  6
Continuous
 62
     7
100
AcDbPolyline
 90
        4
 70
     0
 43
0.0
 10
-0.235969
 20
0.408402
 10
-0.276326
 20
0.4444260000000001
 10
-0.291195
 20
0.4576979999999999
 10
-0.293319
 20
0.459594
  0
TEXT
  5
630
330
1E
100
AcDbEntity
  8
LAYER_1
 62
     7
100
AcDbText
 10
1.777177
 20
-4.206118
 30
0.0
 40
0.142766
  1
Supra F3J/TD
 41
0.6905643168762725
  7
SN2
 72
     5
 11
2.847573
 21
-4.206118
 31
0.0
100
AcDbText
  0
TEXT
  5
631
330
1E
100
AcDbEntity
  8
LAYER_1
 62
     7
100
AcDbText
 10
1.777177
 20
-4.378146
 30
0.0
 40
0.142766
  1
Flap RDS
 41
0.7509060232483122
  7
SN2
 72
     5
 11
2.522499
 21
-4.378146
 31
0.0
100
AcDbText
  0
TEXT
  5
632
330
1E
100
AcDbEntity
  8
LAYER_1
 62
     7
100
AcDbText
 10
-2.161066999999999
 20
-1.65874
 30
0.0
 40
0.11104
  1
servo wire channel (sanded)
 41
0.6755458965435995
  7
SN0
 72
     5
 11
-0.4572090000000001
 21
-1.65874
 31
0.0
100
AcDbText
  0
LWPOLYLINE
  5
633
330
1E
100
AcDbEntity
  8
LAYER_1
  6
DASHED
 62
     7
100
AcDbPolyline
 90
       15
 70
     1
 43
0.0
 10
-2.351528
 20
0.9572639999999999
 10
-2.339231999999999
 20
0.613193
 10
-1.558969
 20
-0.351386
 10
-1.270205
 20
-0.357539
 10
-0.489929
 20
0.290638
 10
-0.674248
 20
0.517969
 10
-0.373193
 20
0.766791
 10
-0.047567
 20
1.046330999999999
 10
-0.035276
 20
1.181499999999999
 10
-0.241094
 20
1.414969
 10
-0.379331
 20
1.427263999999999
 10
-0.7326100000000001
 20
1.135429
 10
-1.131969
 20
1.605428999999999
 10
-1.399232
 20
1.384247999999999
 10
-1.580469
 20
1.597747999999999
  0
TEXT
  5
644
330
1E
100
AcDbEntity
  8
LAYER_1
 62
     7
100
AcDbText
 10
-0.99372
 20
-0.675705
 30
0.0
 40
0.11104
  1
skin cutout
 41
0.6706169981575095
  7
SN0
 72
     5
 11
-0.344808
 21
-0.675705
 31
0.0
100
AcDbText
  0
LWPOLYLINE
  5
645
330
1E
100
AcDbEntity
  8
LAYER_1
  6
Continuous
 62
     7
100
AcDbPolyline
 90
        4
 70
     0
 43
0.0
 10
-1.079731999999999
 20
-0.6340279999999999
 10
-1.081325
 20
-0.6342550000000001
 10
-1.092478
 20
-0.635846
 10
-1.122747999999999
 20
-0.640165
  0
LWPOLYLINE
  5
64B
330
1E
100
AcDbEntity
  8
LAYER_1
  6
Continuous
 62
     7
100
AcDbPolyline
 90
        4
 70
     0
 43
0.0
 10
-1.122747999999999
 20
-0.640165
 10
-1.175308
 20
-0.64661
 10
-1.227870999999999
 20
-0.6466870000000001
 10
-1.251763999999999
 20
-0.629929
  0
LWPOLYLINE
  5
651
330
1E
100
AcDbEntity
  8
LAYER_1
  6
Continuous
 62
     7
100
AcDbPolyline
 90
        4
 70
     0
 43
0.0
 10
-1.251763999999999
 20
-0.629929
 10
-1.228629
 20
-0.5893510000000001
 10
-1.181373999999999
 20
-0.531929
 10
-1.14322
 20
-0.468138
  0
LWPOLYLINE
  5
657
330
1E
100
AcDbEntity
  8
LAYER_1
  6
Continuous
 62
     7
100
AcDbPolyline
 90
        4
 70
     0
 43
0.0
 10
-1.14322
 20
-0.468138
 10
-1.138745
 20
-0.407532
 10
-1.157936
 20
-0.356029
 10
-1.182137999999999
 20
-0.318638
  0
LWPOLYLINE
  5
65D
330
1E
100
AcDbEntity
  8
LAYER_1
  6
Continuous
 62
     7
100
AcDbPolyline
 90
        4
 70
     0
 43
0.0
 10
-1.182137999999999
 20
-0.318638
 10
-1.196544
 20
-0.298455
 10
-1.201852
 20
-0.291019
 10
-1.202609999999999
 20
-0.289957
  0
LWPOLYLINE
  5
663
330
1E
100
AcDbEntity
  8
LAYER_1
  6
Continuous
 62
     7
100
AcDbPolyline
 90
        4
 70
     1
 43
0.0
 10
-1.205902
 20
1.618303
 10
-1.497121999999999
 20
1.373941
 10
-1.585093999999999
 20
1.478776
 10
-1.293873999999999
 20
1.723138
  0
LWPOLYLINE
  5
669
330
1E
100
AcDbEntity
  8
LAYER_1
  6
Continuous
 62
     7
100
AcDbPolyline
 90
        4
 70
     0
 43
0.0
 10
-1.461969
 20
1.333374
 10
-1.462158
 20
1.333276
 10
-1.463486999999999
 20
1.332591
 10
-1.467094
 20
1.330732
  0
LWPOLYLINE
  5
66F
330
1E
100
AcDbEntity
  8
LAYER_1
  6
Continuous
 62
     7
100
AcDbPolyline
 90
        4
 70
     0
 43
0.0
 10
-1.467094
 20
1.330732
 10
-1.473742
 20
1.327385999999999
 10
-1.482595
 20
1.323304
 10
-1.492429
 20
1.319512
  0
LWPOLYLINE
  5
675
330
1E
100
AcDbEntity
  8
LAYER_1
  6
Continuous
 62
     7
100
AcDbPolyline
 90
        4
 70
     0
 43
0.0
 10
-1.492429
 20
1.319512
 10
-1.502267999999999
 20
1.316813
 10
-1.512046999999999
 20
1.315203
 10
-1.521940999999999
 20
1.314456999999999
  0
LWPOLYLINE
  5
67B
330
1E
100
AcDbEntity
  8
LAYER_1
  6
Continuous
 62
     7
100
AcDbPolyline
 90
        4
 70
     0
 43
0.0
 10
-1.521940999999999
 20
1.314456999999999
 10
-1.53212
 20
1.314402999999999
 10
-1.542522999999999
 20
1.31516
 10
-1.553082999999999
 20
1.316902
  0
LWPOLYLINE
  5
681
330
1E
100
AcDbEntity
  8
LAYER_1
  6
Continuous
 62
     7
100
AcDbPolyline
 90
        4
 70
     0
 43
0.0
 10
-1.553082999999999
 20
1.316902
 10
-1.563720999999999
 20
1.319770999999999
 10
-1.574359
 20
1.323790999999999
 10
-1.584913
 20
1.328956999999999
  0
LWPOLYLINE
  5
687
330
1E
100
AcDbEntity
  8
LAYER_1
  6
Continuous
 62
     7
100
AcDbPolyline
 90
        4
 70
     0
 43
0.0
 10
-1.584913
 20
1.328956999999999
 10
-1.595281999999999
 20
1.335237
 10
-1.605194
 20
1.342527
 10
-1.614358
 20
1.350704999999999
  0
LWPOLYLINE
  5
68D
330
1E
100
AcDbEntity
  8
LAYER_1
  6
Continuous
 62
     7
100
AcDbPolyline
 90
        4
 70
     0
 43
0.0
 10
-1.614358
 20
1.350704999999999
 10
-1.622545999999999
 20
1.359648999999999
 10
-1.629740999999999
 20
1.369318
 10
-1.635984
 20
1.379677
  0
LWPOLYLINE
  5
693
330
1E
100
AcDbEntity
  8
LAYER_1
  6
Continuous
 62
     7
100
AcDbPolyline
 90
        4
 70
     0
 43
0.0
 10
-1.635984
 20
1.379677
 10
-1.641305
 20
1.390597999999999
 10
-1.64562
 20
1.401699999999999
 10
-1.648831
 20
1.4125
  0
LWPOLYLINE
  5
699
330
1E
100
AcDbEntity
  8
LAYER_1
  6
Continuous
 62
     7
100
AcDbPolyline
 90
        4
 70
     0
 43
0.0
 10
-1.648831
 20
1.4125
 10
-1.650877
 20
1.422663999999999
 10
-1.651854999999999
 20
1.432348999999999
 10
-1.651901999999999
 20
1.441845999999999
  0
LWPOLYLINE
  5
69F
330
1E
100
AcDbEntity
  8
LAYER_1
  6
Continuous
 62
     7
100
AcDbPolyline
 90
        4
 70
     0
 43
0.0
 10
-1.651901999999999
 20
1.441845999999999
 10
-1.651129
 20
1.451402
 10
-1.649581
 20
1.461008
 10
-1.647291
 20
1.470609999999999
  0
LWPOLYLINE
  5
6A5
330
1E
100
AcDbEntity
  8
LAYER_1
  6
Continuous
 62
     7
100
AcDbPolyline
 90
        4
 70
     0
 43
0.0
 10
-1.647291
 20
1.470609999999999
 10
-1.64428
 20
1.480116999999999
 10
-1.640565
 20
1.48937
 10
-1.636164999999999
 20
1.498165
  0
LWPOLYLINE
  5
6AB
330
1E
100
AcDbEntity
  8
LAYER_1
  6
Continuous
 62
     7
100
AcDbPolyline
 90
        4
 70
     0
 43
0.0
 10
-1.636164999999999
 20
1.498165
 10
-1.631228
 20
1.506216
 10
-1.626488999999999
 20
1.512992999999999
 10
-1.622803
 20
1.517886
  0
LWPOLYLINE
  5
6B1
330
1E
100
AcDbEntity
  8
LAYER_1
  6
Continuous
 62
     7
100
AcDbPolyline
 90
        4
 70
     0
 43
0.0
 10
-1.622803
 20
1.517886
 10
-1.620789
 20
1.520526
 10
-1.620047
 20
1.521498999999999
 10
-1.619941
 20
1.521637999999999
  0
LWPOLYLINE
  5
6B7
330
1E
100
AcDbEntity
  8
LAYER_1
  6
Continuous
 62
     7
100
AcDbPolyline
 90
        2
 70
     0
 43
0.0
 10
-1.461469
 20
1.332791
 10
-1.620429
 20
1.52222
  0
LWPOLYLINE
  5
6BB
330
1E
100
AcDbEntity
  8
LAYER_1
  6
Continuous
 62
     7
100
AcDbPolyline
 90
        4
 70
     1
 43
0.0
 10
-0.313496
 20
0.5569410000000001
 10
-0.6047050000000001
 20
0.312583
 10
-0.6926770000000002
 20
0.417413
 10
-0.401469
 20
0.6617760000000001
  0
LWPOLYLINE
  5
6C1
330
1E
100
AcDbEntity
  8
LAYER_1
  6
Continuous
 62
     7
100
AcDbPolyline
 90
        4
 70
     0
 43
0.0
 10
-0.5695670000000001
 20
0.272012
 10
-0.569757
 20
0.271914
 10
-0.5710860000000001
 20
0.27123
 10
-0.574693
 20
0.269374
  0
LWPOLYLINE
  5
6C7
330
1E
100
AcDbEntity
  8
LAYER_1
  6
Continuous
 62
     7
100
AcDbPolyline
 90
        4
 70
     0
 43
0.0
 10
-0.574693
 20
0.269374
 10
-0.5813410000000001
 20
0.266025
 10
-0.5901930000000001
 20
0.261942
 10
-0.600028
 20
0.25815
  0
LWPOLYLINE
  5
6CD
330
1E
100
AcDbEntity
  8
LAYER_1
  6
Continuous
 62
     7
100
AcDbPolyline
 90
        4
 70
     0
 43
0.0
 10
-0.600028
 20
0.25815
 10
-0.6098560000000001
 20
0.255451
 10
-0.6196340000000001
 20
0.253841
 10
-0.6295390000000002
 20
0.253094
  0
LWPOLYLINE
  5
6D3
330
1E
100
AcDbEntity
  8
LAYER_1
  6
Continuous
 62
     7
100
AcDbPolyline
 90
        4
 70
     0
 43
0.0
 10
-0.6295390000000002
 20
0.253094
 10
-0.6397180000000001
 20
0.253046
 10
-0.650121
 20
0.253801
 10
-0.6606770000000001
 20
0.255539
  0
LWPOLYLINE
  5
6D9
330
1E
100
AcDbEntity
  8
LAYER_1
  6
Continuous
 62
     7
100
AcDbPolyline
 90
        4
 70
     0
 43
0.0
 10
-0.6606770000000001
 20
0.255539
 10
-0.671315
 20
0.258408
 10
-0.68195
 20
0.262429
 10
-0.692512
 20
0.267594
  0
LWPOLYLINE
  5
6DF
330
1E
100
AcDbEntity
  8
LAYER_1
  6
Continuous
 62
     7
100
AcDbPolyline
 90
        4
 70
     0
 43
0.0
 10
-0.692512
 20
0.267594
 10
-0.702873
 20
0.273876
 10
-0.712784
 20
0.281167
 10
-0.721941
 20
0.289346
  0
LWPOLYLINE
  5
6E5
330
1E
100
AcDbEntity
  8
LAYER_1
  6
Continuous
 62
     7
100
AcDbPolyline
 90
        4
 70
     0
 43
0.0
 10
-0.721941
 20
0.289346
 10
-0.7301350000000002
 20
0.298288
 10
-0.7373330000000001
 20
0.307957
 10
-0.7435830000000001
 20
0.318319
  0
LWPOLYLINE
  5
6EB
330
1E
100
AcDbEntity
  8
LAYER_1
  6
Continuous
 62
     7
100
AcDbPolyline
 90
        4
 70
     0
 43
0.0
 10
-0.7435830000000001
 20
0.318319
 10
-0.7489040000000001
 20
0.329244
 10
-0.7532180000000001
 20
0.340341
 10
-0.756429
 20
0.351138
  0
LWPOLYLINE
  5
6F1
330
1E
100
AcDbEntity
  8
LAYER_1
  6
Continuous
 62
     7
100
AcDbPolyline
 90
        4
 70
     0
 43
0.0
 10
-0.756429
 20
0.351138
 10
-0.7584760000000001
 20
0.361302
 10
-0.759454
 20
0.370987
 10
-0.7595
 20
0.380484
  0
LWPOLYLINE
  5
6F7
330
1E
100
AcDbEntity
  8
LAYER_1
  6
Continuous
 62
     7
100
AcDbPolyline
 90
        4
 70
     0
 43
0.0
 10
-0.7595
 20
0.380484
 10
-0.758725
 20
0.390041
 10
-0.757177
 20
0.399646
 10
-0.754886
 20
0.4092480000000001
  0
LWPOLYLINE
  5
6FD
330
1E
100
AcDbEntity
  8
LAYER_1
  6
Continuous
 62
     7
100
AcDbPolyline
 90
        4
 70
     0
 43
0.0
 10
-0.754886
 20
0.4092480000000001
 10
-0.751875
 20
0.418757
 10
-0.748163
 20
0.428008
 10
-0.743764
 20
0.436803
  0
LWPOLYLINE
  5
703
330
1E
100
AcDbEntity
  8
LAYER_1
  6
Continuous
 62
     7
100
AcDbPolyline
 90
        4
 70
     0
 43
0.0
 10
-0.743764
 20
0.436803
 10
-0.738826
 20
0.4448560000000001
 10
-0.7340869999999999
 20
0.451633
 10
-0.730402
 20
0.456528
  0
LWPOLYLINE
  5
709
330
1E
100
AcDbEntity
  8
LAYER_1
  6
Continuous
 62
     7
100
AcDbPolyline
 90
        4
 70
     0
 43
0.0
 10
-0.730402
 20
0.456528
 10
-0.728379
 20
0.459165
 10
-0.7276340000000001
 20
0.460137
 10
-0.727528
 20
0.460276
  0
LWPOLYLINE
  5
70F
330
1E
100
AcDbEntity
  8
LAYER_1
  6
Continuous
 62
     7
100
AcDbPolyline
 90
        2
 70
     0
 43
0.0
 10
-0.569067
 20
0.271429
 10
-0.7280280000000001
 20
0.460858
  0
TEXT
  5
713
330
1E
100
AcDbEntity
  8
LAYER_1
 62
     7
100
AcDbText
 10
0.185902
 20
0.086138
 30
0.0
 40
0.11104
  1
vert. grain basswood, 
 41
0.6551937861641378
  7
SN0
 72
     5
 11
1.512772999999999
 21
0.086138
 31
0.0
100
AcDbText
  0
TEXT
  5
714
330
1E
100
AcDbEntity
  8
LAYER_1
 62
     7
100
AcDbText
 10
0.185902
 20
-0.049028
 30
0.0
 40
0.11104
  1
potted between skins,
 41
0.6911810243792789
  7
SN0
 72
     5
 11
1.49794
 21
-0.049028
 31
0.0
100
AcDbText
  0
TEXT
  5
715
330
1E
100
AcDbEntity
  8
LAYER_1
 62
     7
100
AcDbText
 10
0.185902
 20
-0.184193
 30
0.0
 40
0.11104
  1
tapped for screws
 41
0.6681003366907293
  7
SN0
 72
     5
 11
1.256297999999999
 21
-0.184193
 31
0.0
100
AcDbText
  0
TEXT
  5
716
330
1E
100
AcDbEntity
  8
LAYER_1
 62
     7
100
AcDbText
 10
-0.317898
 20
-0.343933
 30
0.0
 40
0.11104
  1
6-32 Nylon bolts,
 41
0.6503367729671316
  7
SN0
 72
     5
 11
0.699967
 21
-0.343933
 31
0.0
100
AcDbText
  0
TEXT
  5
717
330
1E
100
AcDbEntity
  8
LAYER_1
 62
     7
100
AcDbText
 10
-0.317898
 20
-0.479098
 30
0.0
 40
0.11104
  1
bottom holes only
 41
0.6746036255149609
  7
SN0
 72
     5
 11
0.7450820000000001
 21
-0.479098
 31
0.0
100
AcDbText
  0
LWPOLYLINE
  5
718
330
1E
100
AcDbEntity
  8
LAYER_1
  6
Continuous
 62
     7
100
AcDbPolyline
 90
        4
 70
     0
 43
0.0
 10
-0.446913
 20
-0.369831
 10
-0.4491890000000001
 20
-0.369906
 10
-0.465119
 20
-0.370436
 10
-0.508358
 20
-0.371874
  0
LWPOLYLINE
  5
71E
330
1E
100
AcDbEntity
  8
LAYER_1
  6
Continuous
 62
     7
100
AcDbPolyline
 90
        4
 70
     0
 43
0.0
 10
-0.508358
 20
-0.371874
 10
-0.5835970000000001
 20
-0.373017
 10
-0.659748
 20
-0.365967
 10
-0.6967640000000001
 20
-0.341165
  0
LWPOLYLINE
  5
724
330
1E
100
AcDbEntity
  8
LAYER_1
  6
Continuous
 62
     7
100
AcDbPolyline
 90
        4
 70
     0
 43
0.0
 10
-0.6967640000000001
 20
-0.341165
 10
-0.6689270000000001
 20
-0.291026
 10
-0.6078700000000001
 20
-0.215853
 10
-0.5595550000000001
 20
-0.117929
  0
LWPOLYLINE
  5
72A
330
1E
100
AcDbEntity
  8
LAYER_1
  6
Continuous
 62
     7
100
AcDbPolyline
 90
        4
 70
     0
 43
0.0
 10
-0.5595550000000001
 20
-0.117929
 10
-0.557886
 20
-0.002864
 10
-0.588529
 20
0.110379
 10
-0.625083
 20
0.1995
  0
LWPOLYLINE
  5
730
330
1E
100
AcDbEntity
  8
LAYER_1
  6
Continuous
 62
     7
100
AcDbPolyline
 90
        4
 70
     0
 43
0.0
 10
-0.625083
 20
0.1995
 10
-0.6467010000000001
 20
0.248493
 10
-0.654665
 20
0.266543
 10
-0.6558030000000001
 20
0.2691219999999999
  0
LWPOLYLINE
  5
736
330
1E
100
AcDbEntity
  8
LAYER_1
  6
Continuous
 62
     7
100
AcDbPolyline
 90
        4
 70
     1
 43
0.0
 10
-0.6966770000000001
 20
-1.365677
 10
-1.074748
 20
-1.325941
 10
-1.060440999999999
 20
-1.189830999999999
 10
-0.682358
 20
-1.229567
  0
LWPOLYLINE
  5
73C
330
1E
100
AcDbEntity
  8
LAYER_1
  6
Continuous
 62
     7
100
AcDbPolyline
 90
        4
 70
     0
 43
0.0
 10
-1.079496
 20
-1.379413
 10
-1.079698999999999
 20
-1.379345
 10
-1.081118
 20
-1.378862999999999
 10
-1.084969
 20
-1.377554999999999
  0
LWPOLYLINE
  5
742
330
1E
100
AcDbEntity
  8
LAYER_1
  6
Continuous
 62
     7
100
AcDbPolyline
 90
        4
 70
     0
 43
0.0
 10
-1.084969
 20
-1.377554999999999
 10
-1.091998
 20
-1.375099999999999
 10
-1.101085
 20
-1.371566999999999
 10
-1.110649999999999
 20
-1.367121999999999
  0
LWPOLYLINE
  5
748
330
1E
100
AcDbEntity
  8
LAYER_1
  6
Continuous
 62
     7
100
AcDbPolyline
 90
        4
 70
     0
 43
0.0
 10
-1.110649999999999
 20
-1.367121999999999
 10
-1.119412
 20
-1.361923999999999
 10
-1.127362999999999
 20
-1.356009
 10
-1.134790999999999
 20
-1.349401999999999
  0
LWPOLYLINE
  5
74E
330
1E
100
AcDbEntity
  8
LAYER_1
  6
Continuous
 62
     7
100
AcDbPolyline
 90
        4
 70
     0
 43
0.0
 10
-1.134790999999999
 20
-1.349401999999999
 10
-1.141885999999999
 20
-1.342117
 10
-1.148559
 20
-1.334106999999999
 10
-1.154637999999999
 20
-1.325303
  0
LWPOLYLINE
  5
754
330
1E
100
AcDbEntity
  8
LAYER_1
  6
Continuous
 62
     7
100
AcDbPolyline
 90
        4
 70
     0
 43
0.0
 10
-1.154637999999999
 20
-1.325303
 10
-1.159972999999999
 20
-1.315660999999999
 10
-1.164474
 20
-1.305215999999999
 10
-1.168093999999999
 20
-1.294027999999999
  0
LWPOLYLINE
  5
75A
330
1E
100
AcDbEntity
  8
LAYER_1
  6
Continuous
 62
     7
100
AcDbPolyline
 90
        4
 70
     0
 43
0.0
 10
-1.168093999999999
 20
-1.294027999999999
 10
-1.17077
 20
-1.282216999999999
 10
-1.172412
 20
-1.270020999999999
 10
-1.172902
 20
-1.257747999999999
  0
LWPOLYLINE
  5
760
330
1E
100
AcDbEntity
  8
LAYER_1
  6
Continuous
 62
     7
100
AcDbPolyline
 90
        4
 70
     0
 43
0.0
 10
-1.172902
 20
-1.257747999999999
 10
-1.172152
 20
-1.245645
 10
-1.170191999999999
 20
-1.233751999999999
 10
-1.167083
 20
-1.222067
  0
LWPOLYLINE
  5
766
330
1E
100
AcDbEntity
  8
LAYER_1
  6
Continuous
 62
     7
100
AcDbPolyline
 90
        4
 70
     0
 43
0.0
 10
-1.167083
 20
-1.222067
 10
-1.162924
 20
-1.210649
 10
-1.157937999999999
 20
-1.199834
 10
-1.152402
 20
-1.190028
  0
LWPOLYLINE
  5
76C
330
1E
100
AcDbEntity
  8
LAYER_1
  6
Continuous
 62
     7
100
AcDbPolyline
 90
        4
 70
     0
 43
0.0
 10
-1.152402
 20
-1.190028
 10
-1.14651
 20
-1.181495999999999
 10
-1.140222999999999
 20
-1.174062999999999
 10
-1.133413
 20
-1.167429
  0
LWPOLYLINE
  5
772
330
1E
100
AcDbEntity
  8
LAYER_1
  6
Continuous
 62
     7
100
AcDbPolyline
 90
        4
 70
     0
 43
0.0
 10
-1.133413
 20
-1.167429
 10
-1.126009
 20
-1.161348
 10
-1.118025999999999
 20
-1.155787
 10
-1.109528
 20
-1.150763999999999
  0
LWPOLYLINE
  5
778
330
1E
100
AcDbEntity
  8
LAYER_1
  6
Continuous
 62
     7
100
AcDbPolyline
 90
        4
 70
     0
 43
0.0
 10
-1.109528
 20
-1.150763999999999
 10
-1.100589999999999
 20
-1.146323999999999
 10
-1.091352
 20
-1.142568999999999
 10
-1.081968999999999
 20
-1.139637999999999
  0
LWPOLYLINE
  5
77E
330
1E
100
AcDbEntity
  8
LAYER_1
  6
Continuous
 62
     7
100
AcDbPolyline
 90
        4
 70
     0
 43
0.0
 10
-1.081968999999999
 20
-1.139637999999999
 10
-1.072748
 20
-1.137587
 10
-1.064580999999999
 20
-1.136282999999999
 10
-1.058499999999999
 20
-1.135538999999999
  0
LWPOLYLINE
  5
784
330
1E
100
AcDbEntity
  8
LAYER_1
  6
Continuous
 62
     7
100
AcDbPolyline
 90
        4
 70
     0
 43
0.0
 10
-1.058499999999999
 20
-1.135538999999999
 10
-1.055205999999999
 20
-1.135156999999999
 10
-1.053992
 20
-1.135016
 10
-1.053819
 20
-1.134995999999999
  0
LWPOLYLINE
  5
78A
330
1E
100
AcDbEntity
  8
LAYER_1
  6
Continuous
 62
     7
100
AcDbPolyline
 90
        2
 70
     0
 43
0.0
 10
-1.079582999999999
 20
-1.380176999999999
 10
-1.053731999999999
 20
-1.134231999999999
  0
LWPOLYLINE
  5
78E
330
1E
100
AcDbEntity
  8
LAYER_1
  6
Continuous
 62
     7
100
AcDbPolyline
 90
        4
 70
     0
 43
0.0
 10
-2.449831
 20
-0.302248
 10
-2.449831
 20
-0.29728
 10
-2.449831
 20
-0.2625030000000001
 10
-2.449831
 20
-0.16811
  0
LWPOLYLINE
  5
794
330
1E
100
AcDbEntity
  8
LAYER_1
  6
Continuous
 62
     7
100
AcDbPolyline
 90
        7
 70
     0
 43
0.0
 10
-2.449831
 20
-0.16811
 10
-2.449831
 20
-0.090795
 10
-2.449831
 20
0.003275
 10
-2.449831
 20
0.108494
 10
-2.449831
 20
0.219259
 10
-2.449831
 20
0.329966
 10
-2.449831
 20
0.4350120000000001
  0
LWPOLYLINE
  5
79D
330
1E
100
AcDbEntity
  8
LAYER_1
  6
Continuous
 62
     7
100
AcDbPolyline
 90
        4
 70
     0
 43
0.0
 10
-2.449831
 20
0.4350120000000001
 10
-2.448579
 20
0.613219
 10
-2.439817999999999
 20
0.7466040000000001
 10
-2.416039
 20
0.835386
  0
LWPOLYLINE
  5
7A3
330
1E
100
AcDbEntity
  8
LAYER_1
  6
Continuous
 62
     7
100
AcDbPolyline
 90
        4
 70
     0
 43
0.0
 10
-2.416039
 20
0.835386
 10
-2.372883
 20
0.8809799999999999
 10
-2.318579999999999
 20
0.889479
 10
-2.264499999999999
 20
0.8681649999999999
  0
LWPOLYLINE
  5
7A9
330
1E
100
AcDbEntity
  8
LAYER_1
  6
Continuous
 62
     7
100
AcDbPolyline
 90
        4
 70
     0
 43
0.0
 10
-2.264499999999999
 20
0.8681649999999999
 10
-2.220086
 20
0.8256129999999998
 10
-2.187051999999999
 20
0.7755520000000001
 10
-2.165165
 20
0.733
  0
LWPOLYLINE
  5
7AF
330
1E
100
AcDbEntity
  8
LAYER_1
  6
Continuous
 62
     7
100
AcDbPolyline
 90
        4
 70
     0
 43
0.0
 10
-2.165165
 20
0.733
 10
-2.153631999999999
 20
0.709218
 10
-2.149383
 20
0.7004560000000001
 10
-2.148775999999999
 20
0.699205
  0
LWPOLYLINE
  5
7B5
330
1E
100
AcDbEntity
  8
LAYER_1
  6
Continuous
 62
     7
100
AcDbPolyline
 90
        4
 70
     1
 43
0.0
 10
-1.877055
 20
0.290319
 10
-2.200902
 20
0.676248
 10
-2.125593999999999
 20
0.7394410000000001
 10
-1.801764
 20
0.353512
  0
LWPOLYLINE
  5
7BB
330
1E
100
AcDbEntity
  8
LAYER_1
  6
Continuous
 62
     7
100
AcDbPolyline
 90
        4
 70
     1
 43
0.0
 10
-1.643593999999999
 20
0.001555
 10
-1.967429
 20
0.387484
 10
-1.892122
 20
0.4506770000000001
 10
-1.568290999999999
 20
0.064748
  0
LWPOLYLINE
  5
7C1
330
1E
100
AcDbEntity
  8
LAYER_1
  6
Continuous
 62
     7
100
AcDbPolyline
 90
        4
 70
     0
 43
0.0
 10
-1.233345999999999
 20
0.060232
 10
-1.232890999999999
 20
0.059625
 10
-1.229704999999999
 20
0.055377
 10
-1.221055
 20
0.043846
  0
LWPOLYLINE
  5
7C7
330
1E
100
AcDbEntity
  8
LAYER_1
  6
Continuous
 62
     7
100
AcDbPolyline
 90
        4
 70
     0
 43
0.0
 10
-1.221055
 20
0.043846
 10
-1.205543
 20
0.022311
 10
-1.187076
 20
-0.008327
 10
-1.170886
 20
-0.046248
  0
LWPOLYLINE
  5
7CD
330
1E
100
AcDbEntity
  8
LAYER_1
  6
Continuous
 62
     7
100
AcDbPolyline
 90
        4
 70
     0
 43
0.0
 10
-1.170886
 20
-0.046248
 10
-1.16197
 20
-0.089148
 10
-1.164433999999999
 20
-0.132723
 10
-1.182137999999999
 20
-0.172205
  0
LWPOLYLINE
  5
7D3
330
1E
100
AcDbEntity
  8
LAYER_1
  6
Continuous
 62
     7
100
AcDbPolyline
 90
        4
 70
     0
 43
0.0
 10
-1.182137999999999
 20
-0.172205
 10
-1.217370999999999
 20
-0.20319
 10
-1.266029999999999
 20
-0.222802
 10
-1.322429
 20
-0.228528
  0
LWPOLYLINE
  5
7D9
330
1E
100
AcDbEntity
  8
LAYER_1
  6
Continuous
 62
     7
100
AcDbPolyline
 90
        4
 70
     0
 43
0.0
 10
-1.322429
 20
-0.228528
 10
-1.381216
 20
-0.218439
 10
-1.438404
 20
-0.192873
 10
-1.490358
 20
-0.152748
  0
LWPOLYLINE
  5
7DF
330
1E
100
AcDbEntity
  8
LAYER_1
  6
Continuous
 62
     7
100
AcDbPolyline
 90
        4
 70
     0
 43
0.0
 10
-1.490358
 20
-0.152748
 10
-1.533896999999999
 20
-0.100832
 10
-1.567654
 20
-0.047321
 10
-1.59072
 20
-0.004276
  0
LWPOLYLINE
  5
7E5
330
1E
100
AcDbEntity
  8
LAYER_1
  6
Continuous
 62
     7
100
AcDbPolyline
 90
        4
 70
     0
 43
0.0
 10
-1.59072
 20
-0.004276
 10
-1.602965999999999
 20
0.019501
 10
-1.607477999999999
 20
0.02826
 10
-1.608121999999999
 20
0.029512
  0
LWPOLYLINE
  5
7EB
330
1E
100
AcDbEntity
  8
LAYER_1
  6
Continuous
 62
     7
100
AcDbPolyline
 90
        4
 70
     1
 43
0.0
 10
-1.298732
 20
-2.942591
 10
-0.79935
 20
-2.942591
 10
-0.79935
 20
-2.883606
 10
-1.298732
 20
-2.883606
  0
LWPOLYLINE
  5
7F1
330
1E
100
AcDbEntity
  8
LAYER_1
  6
Continuous
 62
     7
100
AcDbPolyline
 90
        4
 70
     1
 43
0.0
 10
-1.298732
 20
-2.548881999999999
 10
-0.79935
 20
-2.548881999999999
 10
-0.79935
 20
-2.489898
 10
-1.298732
 20
-2.489898
  0
LWPOLYLINE
  5
7F7
330
1E
100
AcDbEntity
  8
LAYER_1
  6
Continuous
 62
     7
100
AcDbPolyline
 90
        2
 70
     0
 43
0.0
 10
-0.979232
 20
-2.949968999999999
 10
-0.979232
 20
-2.47765
  0
LWPOLYLINE
  5
7FB
330
1E
100
AcDbEntity
  8
LAYER_1
  6
Continuous
 62
     7
100
AcDbPolyline
 90
        2
 70
     0
 43
0.0
 10
-0.9546649999999999
 20
-2.949968999999999
 10
-0.9546649999999999
 20
-2.47765
  0
LWPOLYLINE
  5
7FF
330
1E
100
AcDbEntity
  8
LAYER_1
  6
Continuous
 62
     7
100
AcDbPolyline
 90
        2
 70
     0
 43
0.0
 10
-0.9300829999999999
 20
-2.949968999999999
 10
-0.9300829999999999
 20
-2.47765
  0
LWPOLYLINE
  5
803
330
1E
100
AcDbEntity
  8
LAYER_1
  6
Continuous
 62
     7
100
AcDbPolyline
 90
        2
 70
     0
 43
0.0
 10
-0.9054999999999999
 20
-2.949968999999999
 10
-0.9054999999999999
 20
-2.47765
  0
LWPOLYLINE
  5
807
330
1E
100
AcDbEntity
  8
LAYER_1
  6
Continuous
 62
     7
100
AcDbPolyline
 90
        2
 70
     0
 43
0.0
 10
-0.880929
 20
-2.949968999999999
 10
-0.880929
 20
-2.47765
  0
LWPOLYLINE
  5
80B
330
1E
100
AcDbEntity
  8
LAYER_1
  6
Continuous
 62
     7
100
AcDbPolyline
 90
        2
 70
     0
 43
0.0
 10
-0.8563579999999999
 20
-2.949968999999999
 10
-0.8563579999999999
 20
-2.47765
  0
LWPOLYLINE
  5
80F
330
1E
100
AcDbEntity
  8
LAYER_1
  6
Continuous
100
AcDbPolyline
 90
       12
 70
     1
 43
0.0
 10
-0.8985549999999998
 20
-2.685413
 10
-0.9133799999999999
 20
-2.689500999999999
 10
-0.9239180000000001
 20
-2.700244
 10
-0.9279290000000001
 20
-2.715358
 10
-0.9239180000000001
 20
-2.730466999999999
 10
-0.9133799999999999
 20
-2.741211999999999
 10
-0.8985549999999998
 20
-2.745302999999999
 10
-0.8837279999999999
 20
-2.741211999999999
 10
-0.873188
 20
-2.730466999999999
 10
-0.8691770000000001
 20
-2.715358
 10
-0.873188
 20
-2.700244
 10
-0.8837279999999999
 20
-2.689500999999999
  0
LWPOLYLINE
  5
81D
330
1E
100
AcDbEntity
  8
LAYER_1
  6
Continuous
 62
     7
100
AcDbPolyline
 90
        4
 70
     0
 43
0.0
 10
-0.8985549999999998
 20
-2.685413
 10
-0.9133799999999999
 20
-2.689500999999999
 10
-0.9239180000000001
 20
-2.700244
 10
-0.9279290000000001
 20
-2.715358
  0
LWPOLYLINE
  5
823
330
1E
100
AcDbEntity
  8
LAYER_1
  6
Continuous
 62
     7
100
AcDbPolyline
 90
        4
 70
     0
 43
0.0
 10
-0.9279290000000001
 20
-2.715358
 10
-0.9239180000000001
 20
-2.730466999999999
 10
-0.9133799999999999
 20
-2.741211999999999
 10
-0.8985549999999998
 20
-2.745302999999999
  0
LWPOLYLINE
  5
829
330
1E
100
AcDbEntity
  8
LAYER_1
  6
Continuous
 62
     7
100
AcDbPolyline
 90
        4
 70
     0
 43
0.0
 10
-0.8985549999999998
 20
-2.745302999999999
 10
-0.8837279999999999
 20
-2.741211999999999
 10
-0.873188
 20
-2.730466999999999
 10
-0.8691770000000001
 20
-2.715358
  0
LWPOLYLINE
  5
82F
330
1E
100
AcDbEntity
  8
LAYER_1
  6
Continuous
 62
     7
100
AcDbPolyline
 90
        4
 70
     0
 43
0.0
 10
-0.8691770000000001
 20
-2.715358
 10
-0.873188
 20
-2.700244
 10
-0.8837279999999999
 20
-2.689500999999999
 10
-0.8985549999999998
 20
-2.685413
  0
LWPOLYLINE
  5
835
330
1E
100
AcDbEntity
  8
LAYER_1
  6
Continuous
 62
     7
100
AcDbPolyline
 90
        2
 70
     0
 43
0.0
 10
-0.8317759999999999
 20
-2.949968999999999
 10
-0.8317759999999999
 20
-2.47765
  0
LWPOLYLINE
  5
839
330
1E
100
AcDbEntity
  8
LAYER_1
  6
Continuous
 62
     7
100
AcDbPolyline
 90
        2
 70
     0
 43
0.0
 10
-0.807205
 20
-2.949968999999999
 10
-0.807205
 20
-2.47765
  0
LWPOLYLINE
  5
83D
330
1E
100
AcDbEntity
  8
LAYER_1
  6
Continuous
 62
   153
100
AcDbPolyline
 90
       12
 70
     1
 43
0.0
 10
-1.833302999999999
 20
-2.913345999999999
 10
-1.837382
 20
-2.898257
 10
-1.848099
 20
-2.887535999999999
 10
-1.863177
 20
-2.883456999999999
 10
-1.878266999999999
 20
-2.887535999999999
 10
-1.888988
 20
-2.898257
 10
-1.893066999999999
 20
-2.913345999999999
 10
-1.888988
 20
-2.928424999999999
 10
-1.878266999999999
 20
-2.939142
 10
-1.863177
 20
-2.94322
 10
-1.848099
 20
-2.939142
 10
-1.837382
 20
-2.928424999999999
  0
LWPOLYLINE
  5
84B
330
1E
100
AcDbEntity
  8
LAYER_1
  6
Continuous
 62
     7
100
AcDbPolyline
 90
        4
 70
     0
 43
0.0
 10
-1.833302999999999
 20
-2.913345999999999
 10
-1.837382
 20
-2.898257
 10
-1.848099
 20
-2.887535999999999
 10
-1.863177
 20
-2.883456999999999
  0
LWPOLYLINE
  5
851
330
1E
100
AcDbEntity
  8
LAYER_1
  6
Continuous
 62
     7
100
AcDbPolyline
 90
        4
 70
     0
 43
0.0
 10
-1.863177
 20
-2.883456999999999
 10
-1.878266999999999
 20
-2.887535999999999
 10
-1.888988
 20
-2.898257
 10
-1.893066999999999
 20
-2.913345999999999
  0
LWPOLYLINE
  5
857
330
1E
100
AcDbEntity
  8
LAYER_1
  6
Continuous
 62
     7
100
AcDbPolyline
 90
        4
 70
     0
 43
0.0
 10
-1.893066999999999
 20
-2.913345999999999
 10
-1.888988
 20
-2.928424999999999
 10
-1.878266999999999
 20
-2.939142
 10
-1.863177
 20
-2.94322
  0
LWPOLYLINE
  5
85D
330
1E
100
AcDbEntity
  8
LAYER_1
  6
Continuous
 62
     7
100
AcDbPolyline
 90
        4
 70
     0
 43
0.0
 10
-1.863177
 20
-2.94322
 10
-1.848099
 20
-2.939142
 10
-1.837382
 20
-2.928424999999999
 10
-1.833302999999999
 20
-2.913345999999999
  0
LWPOLYLINE
  5
863
330
1E
100
AcDbEntity
  8
LAYER_1
  6
Continuous
 62
   153
100
AcDbPolyline
 90
       12
 70
     1
 43
0.0
 10
-1.833302999999999
 20
-2.520122
 10
-1.837382
 20
-2.505043999999999
 10
-1.848099
 20
-2.494326
 10
-1.863177
 20
-2.490247999999999
 10
-1.878266999999999
 20
-2.494326
 10
-1.888988
 20
-2.505043999999999
 10
-1.893066999999999
 20
-2.520122
 10
-1.888988
 20
-2.535212
 10
-1.878266999999999
 20
-2.545933
 10
-1.863177
 20
-2.550011999999999
 10
-1.848099
 20
-2.545933
 10
-1.837382
 20
-2.535212
  0
LWPOLYLINE
  5
871
330
1E
100
AcDbEntity
  8
LAYER_1
  6
Continuous
 62
     7
100
AcDbPolyline
 90
        4
 70
     0
 43
0.0
 10
-1.833302999999999
 20
-2.520122
 10
-1.837382
 20
-2.505043999999999
 10
-1.848099
 20
-2.494326
 10
-1.863177
 20
-2.490247999999999
  0
LWPOLYLINE
  5
877
330
1E
100
AcDbEntity
  8
LAYER_1
  6
Continuous
 62
     7
100
AcDbPolyline
 90
        4
 70
     0
 43
0.0
 10
-1.863177
 20
-2.490247999999999
 10
-1.878266999999999
 20
-2.494326
 10
-1.888988
 20
-2.505043999999999
 10
-1.893066999999999
 20
-2.520122
  0
LWPOLYLINE
  5
87D
330
1E
100
AcDbEntity
  8
LAYER_1
  6
Continuous
 62
     7
100
AcDbPolyline
 90
        4
 70
     0
 43
0.0
 10
-1.893066999999999
 20
-2.520122
 10
-1.888988
 20
-2.535212
 10
-1.878266999999999
 20
-2.545933
 10
-1.863177
 20
-2.550011999999999
  0
LWPOLYLINE
  5
883
330
1E
100
AcDbEntity
  8
LAYER_1
  6
Continuous
 62
     7
100
AcDbPolyline
 90
        4
 70
     0
 43
0.0
 10
-1.863177
 20
-2.550011999999999
 10
-1.848099
 20
-2.545933
 10
-1.837382
 20
-2.535212
 10
-1.833302999999999
 20
-2.520122
  0
TEXT
  5
889
330
1E
100
AcDbEntity
  8
LAYER_1
 62
     7
100
AcDbText
 10
-2.2945
 20
-2.088192999999999
 30
0.0
 40
0.142766
  1
Torque Yoke
 41
0.720914256728629
  7
SN0
 72
     5
 11
-1.309388999999999
 21
-2.088192999999999
 31
0.0
100
AcDbText
  0
LWPOLYLINE
  5
88A
330
1E
100
AcDbEntity
  8
LAYER_1
  6
Continuous
 62
     7
100
AcDbPolyline
 90
        2
 70
     0
 43
0.0
 10
-1.276302999999999
 20
-2.980802999999999
 10
-1.276302999999999
 20
-3.205054999999999
  0
LWPOLYLINE
  5
88E
330
1E
100
AcDbEntity
  8
LAYER_1
  6
Continuous
 62
     7
100
AcDbPolyline
 90
        2
 70
     0
 43
0.0
 10
-0.998441
 20
-2.980802999999999
 10
-0.998441
 20
-3.198913
  0
LWPOLYLINE
  5
892
330
1E
100
AcDbEntity
  8
LAYER_1
  6
Continuous
 62
     7
100
AcDbPolyline
 90
        2
 70
     0
 43
0.0
 10
-0.8035389999999999
 20
-2.980802999999999
 10
-0.8035389999999999
 20
-3.490748
  0
LWPOLYLINE
  5
896
330
1E
100
AcDbEntity
  8
LAYER_1
  6
Continuous
 62
     7
100
AcDbPolyline
 90
        2
 70
     0
 43
0.0
 10
-0.998441
 20
-3.389373999999999
 10
-0.998441
 20
-3.487676999999999
  0
LWPOLYLINE
  5
89A
330
1E
100
AcDbEntity
  8
LAYER_1
  6
Continuous
 62
     7
100
AcDbPolyline
 90
        2
 70
     0
 43
0.0
 10
-1.548165
 20
-2.518483999999999
 10
-1.351554999999999
 20
-2.518483999999999
  0
LWPOLYLINE
  5
89E
330
1E
100
AcDbEntity
  8
LAYER_1
  6
Continuous
 62
     7
100
AcDbPolyline
 90
        2
 70
     0
 43
0.0
 10
-1.548165
 20
-2.911677
 10
-1.351554999999999
 20
-2.911677
  0
LWPOLYLINE
  5
8A2
330
1E
100
AcDbEntity
  8
LAYER_1
  6
Continuous
 62
     7
100
AcDbPolyline
 90
        2
 70
     0
 43
0.0
 10
-1.864429
 20
-2.716609999999999
 10
-1.864429
 20
-3.699622
  0
LWPOLYLINE
  5
8A6
330
1E
100
AcDbEntity
  8
LAYER_1
  6
Continuous
 62
     7
100
AcDbPolyline
 90
        4
 70
     0
 43
0.0
 10
-2.145512
 20
-3.963819
 10
-2.146972
 20
-3.963819
 10
-2.157191
 20
-3.963819
 10
-2.184928999999999
 20
-3.963819
  0
LWPOLYLINE
  5
8AC
330
1E
100
AcDbEntity
  8
LAYER_1
  6
Continuous
 62
     7
100
AcDbPolyline
 90
        4
 70
     0
 43
0.0
 10
-2.184928999999999
 20
-3.963819
 10
-2.232688
 20
-3.962913999999999
 10
-2.277881999999999
 20
-3.956576
 10
-2.291676999999999
 20
-3.939373999999999
  0
LWPOLYLINE
  5
8B2
330
1E
100
AcDbEntity
  8
LAYER_1
  6
Continuous
 62
     7
100
AcDbPolyline
 90
        4
 70
     0
 43
0.0
 10
-2.291676999999999
 20
-3.939373999999999
 10
-2.254758999999999
 20
-3.907099999999999
 10
-2.185961999999999
 20
-3.860458
 10
-2.113637999999999
 20
-3.801385999999999
  0
LWPOLYLINE
  5
8B8
330
1E
100
AcDbEntity
  8
LAYER_1
  6
Continuous
 62
     7
100
AcDbPolyline
 90
        4
 70
     0
 43
0.0
 10
-2.113637999999999
 20
-3.801385999999999
 10
-2.06054
 20
-3.733573
 10
-2.027039999999999
 20
-3.667695999999999
 10
-2.007913
 20
-3.616176999999999
  0
LWPOLYLINE
  5
8BE
330
1E
100
AcDbEntity
  8
LAYER_1
  6
Continuous
 62
     7
100
AcDbPolyline
 90
        4
 70
     0
 43
0.0
 10
-2.007913
 20
-3.616176999999999
 10
-1.998266999999999
 20
-3.587893
 10
-1.994711999999999
 20
-3.577473
 10
-1.994205
 20
-3.575983999999999
  0
LWPOLYLINE
  5
8C4
330
1E
100
AcDbEntity
  8
LAYER_1
  6
Continuous
 62
     7
100
AcDbPolyline
 90
        2
 70
     0
 43
0.0
 10
-1.863264
 20
-2.712495999999999
 10
-2.278704999999999
 20
-3.603412999999999
  0
TEXT
  5
8C8
330
1E
100
AcDbEntity
  8
LAYER_1
 62
     7
100
AcDbText
 10
-1.552775999999999
 20
-2.741401999999999
 30
0.0
 40
0.11104
  1
10mm
 41
0.7251267239604779
  7
SN0
 72
     5
 11
-1.177024999999999
 21
-2.741401999999999
 31
0.0
100
AcDbText
  0
TEXT
  5
8C9
330
1E
100
AcDbEntity
  8
LAYER_1
 62
     7
100
AcDbText
 10
-1.242512
 20
-3.268256
 30
0.0
 40
0.11104
  1
7mm
 41
0.7282469241853253
  7
SN0
 72
     5
 11
-0.9421579999999998
 21
-3.268256
 31
0.0
100
AcDbText
  0
TEXT
  5
8CA
330
1E
100
AcDbEntity
  8
LAYER_1
 62
     7
100
AcDbText
 10
-1.059323
 20
-3.600028
 30
0.0
 40
0.11104
  1
5mm
 41
0.728246924185325
  7
SN0
 72
     5
 11
-0.758969
 21
-3.600028
 31
0.0
100
AcDbText
  0
TEXT
  5
8CB
330
1E
100
AcDbEntity
  8
LAYER_1
 62
     7
100
AcDbText
 10
-0.841299
 20
-2.142862
 30
0.0
 40
0.11104
  1
1/2" x 0.0625"
 41
0.599334521462157
  7
SN0
 72
     5
 11
0.001669
 21
-2.142862
 31
0.0
100
AcDbText
  0
TEXT
  5
8CC
330
1E
100
AcDbEntity
  8
LAYER_1
 62
     7
100
AcDbText
 10
-0.841299
 20
-2.278027999999999
 30
0.0
 40
0.11104
  1
dowel pins
 41
0.6965719094703367
  7
SN0
 72
     5
 11
-0.200421
 21
-2.278027999999999
 31
0.0
100
AcDbText
  0
TEXT
  5
8CD
330
1E
100
AcDbEntity
  8
LAYER_1
 62
     7
100
AcDbText
 10
-2.100960999999999
 20
-3.944071
 30
0.0
 40
0.11104
  1
wiper arm plane
 41
0.6606203404961778
  7
SN0
 72
     5
 11
-1.136862999999999
 21
-3.944071
 31
0.0
100
AcDbText
  0
TEXT
  5
8CE
330
1E
100
AcDbEntity
  8
LAYER_1
 62
     7
100
AcDbText
 10
-2.100960999999999
 20
-4.079235999999999
 30
0.0
 40
0.11104
  1
tilted 25 deg
 41
0.6532116909962561
  7
SN0
 72
     5
 11
-1.361819
 21
-4.079235999999999
 31
0.0
100
AcDbText
  0
LWPOLYLINE
  5
8CF
330
1E
100
AcDbEntity
  8
LAYER_1
  6
Continuous
 62
     7
100
AcDbPolyline
 90
        4
 70
     0
 43
0.0
 10
-1.864264
 20
-3.575705
 10
-1.864529
 20
-3.575705
 10
-1.866386999999999
 20
-3.575705
 10
-1.871429
 20
-3.575705
  0
LWPOLYLINE
  5
8D5
330
1E
100
AcDbEntity
  8
LAYER_1
  6
Continuous
 62
     7
100
AcDbPolyline
 90
        4
 70
     0
 43
0.0
 10
-1.871429
 20
-3.575705
 10
-1.880888999999999
 20
-3.575666999999999
 10
-1.894561
 20
-3.575405
 10
-1.911874
 20
-3.574692999999999
  0
LWPOLYLINE
  5
8DB
330
1E
100
AcDbEntity
  8
LAYER_1
  6
Continuous
 62
     7
100
AcDbPolyline
 90
        4
 70
     0
 43
0.0
 10
-1.911874
 20
-3.574692999999999
 10
-1.932166
 20
-3.573323
 10
-1.954391999999999
 20
-3.571270999999999
 10
-1.977413
 20
-3.568538999999999
  0
LWPOLYLINE
  5
8E1
330
1E
100
AcDbEntity
  8
LAYER_1
  6
Continuous
 62
     7
100
AcDbPolyline
 90
        4
 70
     0
 43
0.0
 10
-1.977413
 20
-3.568538999999999
 10
-2.000391999999999
 20
-3.565108
 10
-2.023718999999999
 20
-3.560881999999999
 10
-2.048066999999999
 20
-3.555748
  0
LWPOLYLINE
  5
8E7
330
1E
100
AcDbEntity
  8
LAYER_1
  6
Continuous
 62
     7
100
AcDbPolyline
 90
        4
 70
     0
 43
0.0
 10
-2.048066999999999
 20
-3.555748
 10
-2.073929999999999
 20
-3.549505
 10
-2.101047
 20
-3.541671
 10
-2.128956999999999
 20
-3.531676999999999
  0
LWPOLYLINE
  5
8ED
330
1E
100
AcDbEntity
  8
LAYER_1
  6
Continuous
 62
     7
100
AcDbPolyline
 90
        4
 70
     0
 43
0.0
 10
-2.128956999999999
 20
-3.531676999999999
 10
-2.15674
 20
-3.519484999999999
 10
-2.181562
 20
-3.507177999999999
 10
-2.200121999999999
 20
-3.497373999999999
  0
LWPOLYLINE
  5
8F3
330
1E
100
AcDbEntity
  8
LAYER_1
  6
Continuous
 62
     7
100
AcDbPolyline
 90
        4
 70
     0
 43
0.0
 10
-2.200121999999999
 20
-3.497373999999999
 10
-2.210208999999999
 20
-3.491969
 10
-2.213925999999999
 20
-3.489976999999999
 10
-2.214456999999999
 20
-3.489692999999999
  0
SOLID
  5
8F9
330
1E
100
AcDbEntity
  8
LAYER_1
  6
Continuous
 62
     7
100
AcDbTrace
 10
-2.131483999999999
 20
-3.568999999999999
 30
0.0
 11
-2.214456999999999
 21
-3.489692999999999
 31
0.0
 12
-2.131483999999999
 22
-3.568999999999999
 32
0.0
 13
-2.102484
 23
-3.514830999999999
 33
0.0
  0
LWPOLYLINE
  5
8FA
330
1E
100
AcDbEntity
  8
LAYER_1
  6
Continuous
 62
     7
100
AcDbPolyline
 90
        3
 70
     1
 43
0.0
 10
-2.131483999999999
 20
-3.568999999999999
 10
-2.214456999999999
 20
-3.489692999999999
 10
-2.102484
 20
-3.514830999999999
  0
LWPOLYLINE
  5
8FF
330
1E
100
AcDbEntity
  8
LAYER_1
  6
Continuous
 62
     7
100
AcDbPolyline
 90
        3
 70
     0
 43
0.0
 10
-2.131483999999999
 20
-3.568999999999999
 10
-2.214456999999999
 20
-3.489692999999999
 10
-2.102484
 20
-3.514830999999999
  0
TEXT
  5
904
330
1E
100
AcDbEntity
  8
LAYER_1
 62
     7
100
AcDbText
 10
-2.122456999999999
 20
-2.358957
 30
0.0
 40
0.11104
  1
3K CF tow
 41
0.6911400984491346
  7
SN0
 72
     5
 11
-1.490230999999999
 21
-2.358957
 31
0.0
100
AcDbText
  0
LWPOLYLINE
  5
905
330
1E
100
AcDbEntity
  8
LAYER_1
  6
Continuous
 62
     7
100
AcDbPolyline
 90
        4
 70
     0
 43
0.0
 10
-0.24072
 20
-2.631302999999999
 10
-0.9933579999999999
 20
-2.631302999999999
 10
-0.9933579999999999
 20
-2.796038999999999
 10
-0.24072
 20
-2.796038999999999
  0
LWPOLYLINE
  5
90B
330
1E
100
AcDbEntity
  8
LAYER_1
  6
Continuous
 62
     7
100
AcDbPolyline
 90
        4
 70
     0
 43
0.0
 10
-0.24072
 20
-2.646275999999999
 10
-0.9933579999999999
 20
-2.646275999999999
 10
-0.9933579999999999
 20
-2.781054999999999
 10
-0.24072
 20
-2.781054999999999
  0
LWPOLYLINE
  5
911
330
1E
100
AcDbEntity
  8
LAYER_1
  6
Continuous
 62
     7
100
AcDbPolyline
 90
        4
 70
     0
 43
0.0
 10
-0.24072
 20
-2.660763999999999
 10
-0.9933579999999999
 20
-2.660763999999999
 10
-0.9933579999999999
 20
-2.766593999999999
 10
-0.24072
 20
-2.766593999999999
  0
LWPOLYLINE
  5
917
330
1E
100
AcDbEntity
  8
LAYER_1
  6
Continuous
 62
     7
100
AcDbPolyline
 90
        4
 70
     0
 43
0.0
 10
-0.8981379999999997
 20
-2.192956999999999
 10
-0.899806
 20
-2.192918999999999
 10
-0.9114830000000001
 20
-2.192655999999999
 10
-0.943177
 20
-2.191940999999999
  0
LWPOLYLINE
  5
91D
330
1E
100
AcDbEntity
  8
LAYER_1
  6
Continuous
 62
     7
100
AcDbPolyline
 90
        4
 70
     0
 43
0.0
 10
-0.943177
 20
-2.191940999999999
 10
-0.9988979999999999
 20
-2.191670999999999
 10
-1.058479
 20
-2.197318
 10
-1.095763999999999
 20
-2.215484
  0
LWPOLYLINE
  5
923
330
1E
100
AcDbEntity
  8
LAYER_1
  6
Continuous
 62
     7
100
AcDbPolyline
 90
        4
 70
     0
 43
0.0
 10
-1.095763999999999
 20
-2.215484
 10
-1.093409
 20
-2.250452
 10
-1.069439999999999
 20
-2.297254
 10
-1.050705
 20
-2.348609999999999
  0
LWPOLYLINE
  5
929
330
1E
100
AcDbEntity
  8
LAYER_1
  6
Continuous
 62
     7
100
AcDbPolyline
 90
        4
 70
     0
 43
0.0
 10
-1.050705
 20
-2.348609999999999
 10
-1.057039999999999
 20
-2.397720999999999
 10
-1.080211
 20
-2.439779
 10
-1.104969
 20
-2.470457
  0
LWPOLYLINE
  5
92F
330
1E
100
AcDbEntity
  8
LAYER_1
  6
Continuous
 62
     7
100
AcDbPolyline
 90
        4
 70
     0
 43
0.0
 10
-1.104969
 20
-2.470457
 10
-1.119385999999999
 20
-2.487033
 10
-1.124697999999999
 20
-2.493138999999999
 10
-1.125456999999999
 20
-2.494012
  0
LWPOLYLINE
  5
935
330
1E
100
AcDbEntity
  8
LAYER_1
  6
Continuous
 62
     7
100
AcDbPolyline
 90
        4
 70
     0
 43
0.0
 10
-0.394331
 20
-2.48172
 10
-0.39581
 20
-2.481683
 10
-0.406163
 20
-2.481419999999999
 10
-0.4342640000000001
 20
-2.480704999999999
  0
LWPOLYLINE
  5
93B
330
1E
100
AcDbEntity
  8
LAYER_1
  6
Continuous
 62
     7
100
AcDbPolyline
 90
        4
 70
     0
 43
0.0
 10
-0.4342640000000001
 20
-2.480704999999999
 10
-0.483948
 20
-2.479903999999999
 10
-0.538862
 20
-2.481834999999999
 10
-0.5776220000000001
 20
-2.489913
  0
LWPOLYLINE
  5
941
330
1E
100
AcDbEntity
  8
LAYER_1
  6
Continuous
 62
     7
100
AcDbPolyline
 90
        4
 70
     0
 43
0.0
 10
-0.5776220000000001
 20
-2.489913
 10
-0.5872180000000001
 20
-2.506906999999999
 10
-0.588167
 20
-2.532999
 10
-0.609374
 20
-2.567731999999999
  0
LWPOLYLINE
  5
947
330
1E
100
AcDbEntity
  8
LAYER_1
  6
Continuous
 62
     7
100
AcDbPolyline
 90
        4
 70
     0
 43
0.0
 10
-0.609374
 20
-2.567731999999999
 10
-0.6700460000000001
 20
-2.609339999999999
 10
-0.7507520000000002
 20
-2.65072
 10
-0.822358
 20
-2.683456999999999
  0
LWPOLYLINE
  5
94D
330
1E
100
AcDbEntity
  8
LAYER_1
  6
Continuous
 62
     7
100
AcDbPolyline
 90
        4
 70
     0
 43
0.0
 10
-0.822358
 20
-2.683456999999999
 10
-0.8627049999999998
 20
-2.70147
 10
-0.877569
 20
-2.708107
 10
-0.8796929999999999
 20
-2.709054999999999
  0
LWPOLYLINE
  5
953
330
1E
100
AcDbEntity
  8
LAYER_1
  6
Continuous
 62
     7
100
AcDbPolyline
 90
        4
 70
     0
 43
0.0
 10
-1.761109999999999
 20
-2.716731999999999
 10
-1.775192999999999
 20
-2.664679
 10
-1.812199
 20
-2.627677
 10
-1.864264
 20
-2.613593999999999
  0
LWPOLYLINE
  5
959
330
1E
100
AcDbEntity
  8
LAYER_1
  6
Continuous
 62
     7
100
AcDbPolyline
 90
        4
 70
     0
 43
0.0
 10
-1.864264
 20
-2.613593999999999
 10
-1.916316999999999
 20
-2.627677
 10
-1.953318999999999
 20
-2.664679
 10
-1.967402
 20
-2.716731999999999
  0
LWPOLYLINE
  5
95F
330
1E
100
AcDbEntity
  8
LAYER_1
  6
Continuous
 62
     7
100
AcDbPolyline
 90
        4
 70
     0
 43
0.0
 10
-1.967402
 20
-2.716731999999999
 10
-1.953318999999999
 20
-2.768797
 10
-1.916316999999999
 20
-2.805803
 10
-1.864264
 20
-2.819885999999999
  0
LWPOLYLINE
  5
965
330
1E
100
AcDbEntity
  8
LAYER_1
  6
Continuous
 62
     7
100
AcDbPolyline
 90
        4
 70
     0
 43
0.0
 10
-1.864264
 20
-2.819885999999999
 10
-1.812199
 20
-2.805803
 10
-1.775192999999999
 20
-2.768797
 10
-1.761109999999999
 20
-2.716731999999999
  0
LWPOLYLINE
  5
96B
330
1E
100
AcDbEntity
  8
LAYER_1
  6
Continuous
 62
     7
100
AcDbPolyline
 90
        4
 70
     0
 43
0.0
 10
-1.797984
 20
-2.716731999999999
 10
-1.807034999999999
 20
-2.683288999999999
 10
-1.830813999999999
 20
-2.659515999999999
 10
-1.864264
 20
-2.650468999999999
  0
LWPOLYLINE
  5
971
330
1E
100
AcDbEntity
  8
LAYER_1
  6
Continuous
 62
     7
100
AcDbPolyline
 90
        4
 70
     0
 43
0.0
 10
-1.864264
 20
-2.650468999999999
 10
-1.897701999999999
 20
-2.659515999999999
 10
-1.921477999999999
 20
-2.683288999999999
 10
-1.930527999999999
 20
-2.716731999999999
  0
LWPOLYLINE
  5
977
330
1E
100
AcDbEntity
  8
LAYER_1
  6
Continuous
 62
     7
100
AcDbPolyline
 90
        4
 70
     0
 43
0.0
 10
-1.930527999999999
 20
-2.716731999999999
 10
-1.921477999999999
 20
-2.750172
 10
-1.897701999999999
 20
-2.773947
 10
-1.864264
 20
-2.782995999999999
  0
LWPOLYLINE
  5
97D
330
1E
100
AcDbEntity
  8
LAYER_1
  6
Continuous
 62
     7
100
AcDbPolyline
 90
        4
 70
     0
 43
0.0
 10
-1.864264
 20
-2.782995999999999
 10
-1.830813999999999
 20
-2.773947
 10
-1.807034999999999
 20
-2.750172
 10
-1.797984
 20
-2.716731999999999
  0
LWPOLYLINE
  5
983
330
1E
100
AcDbEntity
  8
LAYER_1
  6
Continuous
 62
     7
100
AcDbPolyline
 90
        4
 70
     0
 43
0.0
 10
-1.780483999999999
 20
-2.716731999999999
 10
-1.791924
 20
-2.674453999999999
 10
-1.821981
 20
-2.644404
 10
-1.864264
 20
-2.632968999999999
  0
LWPOLYLINE
  5
989
330
1E
100
AcDbEntity
  8
LAYER_1
  6
Continuous
 62
     7
100
AcDbPolyline
 90
        4
 70
     0
 43
0.0
 10
-1.864264
 20
-2.632968999999999
 10
-1.906534999999999
 20
-2.644404
 10
-1.936588
 20
-2.674453999999999
 10
-1.948027999999999
 20
-2.716731999999999
  0
LWPOLYLINE
  5
98F
330
1E
100
AcDbEntity
  8
LAYER_1
  6
Continuous
 62
     7
100
AcDbPolyline
 90
        4
 70
     0
 43
0.0
 10
-1.948027999999999
 20
-2.716731999999999
 10
-1.936588
 20
-2.759009999999999
 10
-1.906534999999999
 20
-2.789059999999999
 10
-1.864264
 20
-2.800495999999999
  0
LWPOLYLINE
  5
995
330
1E
100
AcDbEntity
  8
LAYER_1
  6
Continuous
 62
     7
100
AcDbPolyline
 90
        4
 70
     0
 43
0.0
 10
-1.864264
 20
-2.800495999999999
 10
-1.821981
 20
-2.789059999999999
 10
-1.791924
 20
-2.759009999999999
 10
-1.780483999999999
 20
-2.716731999999999
  0
LWPOLYLINE
  5
99B
330
1E
100
AcDbEntity
  8
LAYER_1
  6
Continuous
 62
     7
100
AcDbPolyline
 90
        4
 70
     0
 43
0.0
 10
-1.867583
 20
-2.467902
 10
-1.882186999999999
 20
-2.469399
 10
-1.895481
 20
-2.474768999999999
 10
-1.907011999999999
 20
-2.483775999999999
  0
LWPOLYLINE
  5
9A1
330
1E
100
AcDbEntity
  8
LAYER_1
  6
Continuous
 62
     7
100
AcDbPolyline
 90
        4
 70
     0
 43
0.0
 10
-1.907011999999999
 20
-2.483775999999999
 10
-1.916694999999999
 20
-2.496755999999999
 10
-1.925920999999999
 20
-2.516277999999999
 10
-1.936456999999999
 20
-2.545468999999999
  0
LWPOLYLINE
  5
9A7
330
1E
100
AcDbEntity
  8
LAYER_1
  6
Continuous
 62
     7
100
AcDbPolyline
 90
        4
 70
     0
 43
0.0
 10
-1.936456999999999
 20
-2.545468999999999
 10
-1.949296999999999
 20
-2.585586
 10
-1.962427999999999
 20
-2.630367999999999
 10
-1.973055
 20
-2.671676999999999
  0
LWPOLYLINE
  5
9AD
330
1E
100
AcDbEntity
  8
LAYER_1
  6
Continuous
 62
     7
100
AcDbPolyline
 90
        4
 70
     0
 43
0.0
 10
-1.973055
 20
-2.671676999999999
 10
-1.978813999999999
 20
-2.70399
 10
-1.978993
 20
-2.732206
 10
-1.973318999999999
 20
-2.763831
  0
LWPOLYLINE
  5
9B3
330
1E
100
AcDbEntity
  8
LAYER_1
  6
Continuous
 62
     7
100
AcDbPolyline
 90
        4
 70
     0
 43
0.0
 10
-1.973318999999999
 20
-2.763831
 10
-1.962118
 20
-2.803847
 10
-1.948245
 20
-2.847047
 10
-1.935165
 20
-2.885692999999999
  0
LWPOLYLINE
  5
9B9
330
1E
100
AcDbEntity
  8
LAYER_1
  6
Continuous
 62
     7
100
AcDbPolyline
 90
        4
 70
     0
 43
0.0
 10
-1.935165
 20
-2.885692999999999
 10
-1.925336
 20
-2.913908999999999
 10
-1.917095999999999
 20
-2.933248999999999
 10
-1.907775999999999
 20
-2.947122
  0
LWPOLYLINE
  5
9BF
330
1E
100
AcDbEntity
  8
LAYER_1
  6
Continuous
 62
     7
100
AcDbPolyline
 90
        4
 70
     0
 43
0.0
 10
-1.907775999999999
 20
-2.947122
 10
-1.89535
 20
-2.958181999999999
 10
-1.880363999999999
 20
-2.965943
 10
-1.864011999999999
 20
-2.969149999999999
  0
LWPOLYLINE
  5
9C5
330
1E
100
AcDbEntity
  8
LAYER_1
  6
Continuous
 62
     7
100
AcDbPolyline
 90
        4
 70
     0
 43
0.0
 10
-1.864011999999999
 20
-2.969149999999999
 10
-1.847468
 20
-2.966912999999999
 10
-1.8319
 20
-2.959780999999999
 10
-1.818440999999999
 20
-2.948665
  0
LWPOLYLINE
  5
9CB
330
1E
100
AcDbEntity
  8
LAYER_1
  6
Continuous
 62
     7
100
AcDbPolyline
 90
        4
 70
     0
 43
0.0
 10
-1.818440999999999
 20
-2.948665
 10
-1.807712
 20
-2.933842999999999
 10
-1.798351999999999
 20
-2.913050999999999
 10
-1.788483999999999
 20
-2.883386
  0
LWPOLYLINE
  5
9D1
330
1E
100
AcDbEntity
  8
LAYER_1
  6
Continuous
 62
     7
100
AcDbPolyline
 90
        4
 70
     0
 43
0.0
 10
-1.788483999999999
 20
-2.883386
 10
-1.776927
 20
-2.8437
 10
-1.765313
 20
-2.799857999999999
 10
-1.755968999999999
 20
-2.759484
  0
LWPOLYLINE
  5
9D7
330
1E
100
AcDbEntity
  8
LAYER_1
  6
Continuous
 62
     7
100
AcDbPolyline
 90
        4
 70
     0
 43
0.0
 10
-1.755968999999999
 20
-2.759484
 10
-1.75095
 20
-2.727737999999999
 10
-1.751102999999999
 20
-2.699918999999999
 10
-1.756999999999999
 20
-2.668858
  0
LWPOLYLINE
  5
9DD
330
1E
100
AcDbEntity
  8
LAYER_1
  6
Continuous
 62
     7
100
AcDbPolyline
 90
        4
 70
     0
 43
0.0
 10
-1.756999999999999
 20
-2.668858
 10
-1.768526999999999
 20
-2.62979
 10
-1.782845
 20
-2.587531999999999
 10
-1.796429
 20
-2.549303
  0
LWPOLYLINE
  5
9E3
330
1E
100
AcDbEntity
  8
LAYER_1
  6
Continuous
 62
     7
100
AcDbPolyline
 90
        4
 70
     0
 43
0.0
 10
-1.796429
 20
-2.549303
 10
-1.806758999999999
 20
-2.520716
 10
-1.815441
 20
-2.500766999999999
 10
-1.825093999999999
 20
-2.486845999999999
  0
LWPOLYLINE
  5
9E9
330
1E
100
AcDbEntity
  8
LAYER_1
  6
Continuous
 62
     7
100
AcDbPolyline
 90
        4
 70
     0
 43
0.0
 10
-1.825093999999999
 20
-2.486845999999999
 10
-1.837643999999999
 20
-2.476812999999999
 10
-1.852300999999999
 20
-2.470422999999999
 10
-1.867583
 20
-2.467902
  0
LWPOLYLINE
  5
9EF
330
1E
100
AcDbEntity
  8
LAYER_1
  6
Continuous
 62
     7
100
AcDbPolyline
 90
        4
 70
     0
 43
0.0
 10
-1.866566999999999
 20
-2.477374
 10
-1.877693999999999
 20
-2.479140999999999
 10
-1.887513999999999
 20
-2.483462999999999
 10
-1.895232
 20
-2.489665
  0
LWPOLYLINE
  5
9F5
330
1E
100
AcDbEntity
  8
LAYER_1
  6
Continuous
 62
     7
100
AcDbPolyline
 90
        4
 70
     0
 43
0.0
 10
-1.895232
 20
-2.489665
 10
-1.900258999999999
 20
-2.497138
 10
-1.902838
 20
-2.505571999999999
 10
-1.903429
 20
-2.514747999999999
  0
LWPOLYLINE
  5
9FB
330
1E
100
AcDbEntity
  8
LAYER_1
  6
Continuous
 62
     7
100
AcDbPolyline
 90
        4
 70
     0
 43
0.0
 10
-1.903429
 20
-2.514747999999999
 10
-1.902301999999999
 20
-2.524459
 10
-1.899008999999999
 20
-2.534568
 10
-1.892929
 20
-2.544957
  0
LWPOLYLINE
  5
A01
330
1E
100
AcDbEntity
  8
LAYER_1
  6
Continuous
 62
     7
100
AcDbPolyline
 90
        4
 70
     0
 43
0.0
 10
-1.892929
 20
-2.544957
 10
-1.883364
 20
-2.555795999999999
 10
-1.869303999999999
 20
-2.568338
 10
-1.849665
 20
-2.584122
  0
LWPOLYLINE
  5
A07
330
1E
100
AcDbEntity
  8
LAYER_1
  6
Continuous
 62
     7
100
AcDbPolyline
 90
        4
 70
     0
 43
0.0
 10
-1.849665
 20
-2.584122
 10
-1.824486999999999
 20
-2.604154
 10
-1.798225999999999
 20
-2.62725
 10
-1.776456999999999
 20
-2.651704999999999
  0
LWPOLYLINE
  5
A0D
330
1E
100
AcDbEntity
  8
LAYER_1
  6
Continuous
 62
     7
100
AcDbPolyline
 90
        4
 70
     0
 43
0.0
 10
-1.776456999999999
 20
-2.651704999999999
 10
-1.7634
 20
-2.676095999999999
 10
-1.757850999999999
 20
-2.700025999999999
 10
-1.757247999999999
 20
-2.723386
  0
LWPOLYLINE
  5
A13
330
1E
100
AcDbEntity
  8
LAYER_1
  6
Continuous
 62
     7
100
AcDbPolyline
 90
        4
 70
     0
 43
0.0
 10
-1.757247999999999
 20
-2.723386
 10
-1.759849
 20
-2.746170999999999
 10
-1.767113999999999
 20
-2.768781999999999
 10
-1.781318999999999
 20
-2.791732
  0
LWPOLYLINE
  5
A19
330
1E
100
AcDbEntity
  8
LAYER_1
  6
Continuous
 62
     7
100
AcDbPolyline
 90
        4
 70
     0
 43
0.0
 10
-1.781318999999999
 20
-2.791732
 10
-1.803492999999999
 20
-2.815167999999999
 10
-1.829709
 20
-2.837689
 10
-1.854791
 20
-2.857539
  0
LWPOLYLINE
  5
A1F
330
1E
100
AcDbEntity
  8
LAYER_1
  6
Continuous
 62
     7
100
AcDbPolyline
 90
        4
 70
     0
 43
0.0
 10
-1.854791
 20
-2.857539
 10
-1.874518
 20
-2.873486999999999
 10
-1.888561
 20
-2.886543999999999
 10
-1.897538999999999
 20
-2.898232
  0
LWPOLYLINE
  5
A25
330
1E
100
AcDbEntity
  8
LAYER_1
  6
Continuous
 62
     7
100
AcDbPolyline
 90
        4
 70
     0
 43
0.0
 10
-1.897538999999999
 20
-2.898232
 10
-1.902098
 20
-2.909711999999999
 10
-1.902958
 20
-2.920626
 10
-1.900858
 20
-2.930232
  0
LWPOLYLINE
  5
A2B
330
1E
100
AcDbEntity
  8
LAYER_1
  6
Continuous
 62
     7
100
AcDbPolyline
 90
        4
 70
     0
 43
0.0
 10
-1.900858
 20
-2.930232
 10
-1.896541999999999
 20
-2.937961999999999
 10
-1.890684
 20
-2.943925
 10
-1.883968999999999
 20
-2.948413
  0
LWPOLYLINE
  5
A31
330
1E
100
AcDbEntity
  8
LAYER_1
  6
Continuous
 62
     7
100
AcDbPolyline
 90
        4
 70
     0
 43
0.0
 10
-1.883968999999999
 20
-2.948413
 10
-1.876932
 20
-2.951634999999999
 10
-1.869497999999999
 20
-2.953549999999999
 10
-1.861440999999999
 20
-2.954038999999999
  0
LWPOLYLINE
  5
A37
330
1E
100
AcDbEntity
  8
LAYER_1
  6
Continuous
 62
     7
100
AcDbPolyline
 90
        4
 70
     0
 43
0.0
 10
-1.861440999999999
 20
-2.954038999999999
 10
-1.852733
 20
-2.953018
 10
-1.844134
 20
-2.950455999999999
 10
-1.836609999999999
 20
-2.946358
  0
LWPOLYLINE
  5
A3D
330
1E
100
AcDbEntity
  8
LAYER_1
  6
Continuous
 62
     7
100
AcDbPolyline
 90
        4
 70
     0
 43
0.0
 10
-1.836609999999999
 20
-2.946358
 10
-1.830924
 20
-2.940758
 10
-1.826943999999999
 20
-2.933788999999999
 10
-1.824331
 20
-2.925622
  0
LWPOLYLINE
  5
A43
330
1E
100
AcDbEntity
  8
LAYER_1
  6
Continuous
 62
     7
100
AcDbPolyline
 90
        4
 70
     0
 43
0.0
 10
-1.824331
 20
-2.925622
 10
-1.822988999999999
 20
-2.916441999999999
 10
-1.823869
 20
-2.906468999999999
 10
-1.828165
 20
-2.895929
  0
LWPOLYLINE
  5
A49
330
1E
100
AcDbEntity
  8
LAYER_1
  6
Continuous
 62
     7
100
AcDbPolyline
 90
        4
 70
     0
 43
0.0
 10
-1.828165
 20
-2.895929
 10
-1.836973
 20
-2.884787999999999
 10
-1.851013
 20
-2.871997999999999
 10
-1.870913
 20
-2.856247999999999
  0
LWPOLYLINE
  5
A4F
330
1E
100
AcDbEntity
  8
LAYER_1
  6
Continuous
 62
     7
100
AcDbPolyline
 90
        4
 70
     0
 43
0.0
 10
-1.870913
 20
-2.856247999999999
 10
-1.896343999999999
 20
-2.836675999999999
 10
-1.923137999999999
 20
-2.814140999999999
 10
-1.946177
 20
-2.789956999999999
  0
LWPOLYLINE
  5
A55
330
1E
100
AcDbEntity
  8
LAYER_1
  6
Continuous
 62
     7
100
AcDbPolyline
 90
        4
 70
     0
 43
0.0
 10
-1.946177
 20
-2.789956999999999
 10
-1.961481999999999
 20
-2.765282
 10
-1.969616
 20
-2.740724
 10
-1.972291
 20
-2.716731999999999
  0
LWPOLYLINE
  5
A5B
330
1E
100
AcDbEntity
  8
LAYER_1
  6
Continuous
 62
     7
100
AcDbPolyline
 90
        4
 70
     0
 43
0.0
 10
-1.972291
 20
-2.716731999999999
 10
-1.970620999999999
 20
-2.693662999999999
 10
-1.963374
 20
-2.671447999999999
 10
-1.948731999999999
 20
-2.649913
  0
LWPOLYLINE
  5
A61
330
1E
100
AcDbEntity
  8
LAYER_1
  6
Continuous
 62
     7
100
AcDbPolyline
 90
        4
 70
     0
 43
0.0
 10
-1.948731999999999
 20
-2.649913
 10
-1.926093999999999
 20
-2.628999
 10
-1.899699999999999
 20
-2.609052999999999
 10
-1.875011999999999
 20
-2.590527999999999
  0
LWPOLYLINE
  5
A67
330
1E
100
AcDbEntity
  8
LAYER_1
  6
Continuous
 62
     7
100
AcDbPolyline
 90
        4
 70
     0
 43
0.0
 10
-1.875011999999999
 20
-2.590527999999999
 10
-1.856325999999999
 20
-2.57379
 10
-1.843268
 20
-2.558876999999999
 10
-1.834302999999999
 20
-2.545732
  0
LWPOLYLINE
  5
A6D
330
1E
100
AcDbEntity
  8
LAYER_1
  6
Continuous
 62
     7
100
AcDbPolyline
 90
        4
 70
     0
 43
0.0
 10
-1.834302999999999
 20
-2.545732
 10
-1.828154999999999
 20
-2.534208
 10
-1.824506999999999
 20
-2.523877999999999
 10
-1.823302999999999
 20
-2.514231999999999
  0
LWPOLYLINE
  5
A73
330
1E
100
AcDbEntity
  8
LAYER_1
  6
Continuous
 62
     7
100
AcDbPolyline
 90
        4
 70
     0
 43
0.0
 10
-1.823302999999999
 20
-2.514231999999999
 10
-1.824525999999999
 20
-2.504925999999999
 10
-1.828308
 20
-2.496243999999999
 10
-1.834818999999999
 20
-2.488637999999999
  0
LWPOLYLINE
  5
A79
330
1E
100
AcDbEntity
  8
LAYER_1
  6
Continuous
 62
     7
100
AcDbPolyline
 90
        4
 70
     0
 43
0.0
 10
-1.834818999999999
 20
-2.488637999999999
 10
-1.844018999999999
 20
-2.482591999999999
 10
-1.854977999999999
 20
-2.478647999999999
 10
-1.866566999999999
 20
-2.477374
  0
LWPOLYLINE
  5
A7F
330
1E
100
AcDbEntity
  8
LAYER_1
  6
Continuous
 62
     7
100
AcDbPolyline
 90
        4
 70
     0
 43
0.0
 10
-2.174528
 20
-2.334276
 10
-2.175381
 20
-2.334314
 10
-2.181354
 20
-2.334579999999999
 10
-2.197566999999999
 20
-2.335302999999999
  0
LWPOLYLINE
  5
A85
330
1E
100
AcDbEntity
  8
LAYER_1
  6
Continuous
 62
     7
100
AcDbPolyline
 90
        4
 70
     0
 43
0.0
 10
-2.197566999999999
 20
-2.335302999999999
 10
-2.22499
 20
-2.33767
 10
-2.247974
 20
-2.346754
 10
-2.24672
 20
-2.368583
  0
LWPOLYLINE
  5
A8B
330
1E
100
AcDbEntity
  8
LAYER_1
  6
Continuous
 62
     7
100
AcDbPolyline
 90
        4
 70
     0
 43
0.0
 10
-2.24672
 20
-2.368583
 10
-2.208184999999999
 20
-2.406527999999999
 10
-2.146328
 20
-2.453411999999999
 10
-2.081857999999999
 20
-2.499385999999999
  0
LWPOLYLINE
  5
A91
330
1E
100
AcDbEntity
  8
LAYER_1
  6
Continuous
 62
     7
100
AcDbPolyline
 90
        4
 70
     0
 43
0.0
 10
-2.081857999999999
 20
-2.499385999999999
 10
-2.031608
 20
-2.536372
 10
-1.996940999999999
 20
-2.563282
 10
-1.975358
 20
-2.580802999999999
  0
LWPOLYLINE
  5
A97
330
1E
100
AcDbEntity
  8
LAYER_1
  6
Continuous
 62
     7
100
AcDbPolyline
 90
        4
 70
     0
 43
0.0
 10
-1.975358
 20
-2.580802999999999
 10
-1.964195999999999
 20
-2.58999
 10
-1.960083999999999
 20
-2.593374999999999
 10
-1.959495999999999
 20
-2.593857999999999
  0
TEXT
  5
A9D
330
1E
100
AcDbEntity
  8
LAYER_1
 62
     7
100
AcDbText
 10
-0.667484
 20
-2.970275999999999
 30
0.0
 40
0.11104
  1
Hypo tubing torque/bending shaft:
 41
0.6626495173778686
  7
SN0
 72
     5
 11
1.368245999999999
 21
-2.970275999999999
 31
0.0
100
AcDbText
  0
TEXT
  5
A9E
330
1E
100
AcDbEntity
  8
LAYER_1
 62
     7
100
AcDbText
 10
-0.667484
 20
-3.105440999999999
 30
0.0
 40
0.11104
  1
 #8 (0.165" OD) outside 
 41
0.624944678880198
  7
SN0
 72
     5
 11
0.7897870000000001
 21
-3.105440999999999
 31
0.0
100
AcDbText
  0
TEXT
  5
A9F
330
1E
100
AcDbEntity
  8
LAYER_1
 62
     7
100
AcDbText
 10
-0.667484
 20
-3.240609999999999
 30
0.0
 40
0.11104
  1
#10 (0.134" OD) inside
 41
0.6580732225586403
  7
SN0
 72
     5
 11
0.706974
 21
-3.240609999999999
 31
0.0
100
AcDbText
  0
LWPOLYLINE
  5
AA0
330
1E
100
AcDbEntity
  8
LAYER_1
  6
Continuous
 62
     7
100
AcDbPolyline
 90
        4
 70
     0
 43
0.0
 10
-2.025440999999999
 20
-2.936748
 10
-2.152149999999999
 20
-3.208469
 10
-2.057901999999999
 20
-3.252429
 10
-1.931193
 20
-2.980693
  0
TEXT
  5
AA6
330
1E
100
AcDbEntity
  8
LAYER_1
 62
     7
100
AcDbText
 10
-0.332886
 20
-2.498845999999999
 30
0.0
 40
0.11104
  1
0.0625" dowel pin
 41
0.6634600850426624
  7
SN0
 72
     5
 11
0.7406000000000001
 21
-2.498845999999999
 31
0.0
100
AcDbText
  0
LWPOLYLINE
  5
AA7
330
1E
100
AcDbEntity
  8
LAYER_1
  6
Continuous
 62
     7
100
AcDbPolyline
 90
        4
 70
     0
 43
0.0
 10
-2.247083
 20
-1.629330999999999
 10
-2.248219999999999
 20
-1.629330999999999
 10
-2.256184999999999
 20
-1.629330999999999
 10
-2.277803
 20
-1.629330999999999
  0
LWPOLYLINE
  5
AAD
330
1E
100
AcDbEntity
  8
LAYER_1
  6
Continuous
 62
     7
100
AcDbPolyline
 90
        4
 70
     0
 43
0.0
 10
-2.277803
 20
-1.629330999999999
 10
-2.314894999999999
 20
-1.627964999999999
 10
-2.349250999999999
 20
-1.618408999999999
 10
-2.357665
 20
-1.592469
  0
LWPOLYLINE
  5
AB3
330
1E
100
AcDbEntity
  8
LAYER_1
  6
Continuous
 62
     7
100
AcDbPolyline
 90
        4
 70
     0
 43
0.0
 10
-2.357665
 20
-1.592469
 10
-2.326649
 20
-1.544762999999999
 10
-2.281518999999999
 20
-1.481125999999999
 10
-2.257318999999999
 20
-1.410204999999999
  0
LWPOLYLINE
  5
AB9
330
1E
100
AcDbEntity
  8
LAYER_1
  6
Continuous
 62
     7
100
AcDbPolyline
 90
        4
 70
     0
 43
0.0
 10
-2.257318999999999
 20
-1.410204999999999
 10
-2.278636
 20
-1.340424
 10
-2.328165999999999
 20
-1.279290999999999
 10
-2.37815
 20
-1.234083
  0
LWPOLYLINE
  5
ABF
330
1E
100
AcDbEntity
  8
LAYER_1
  6
Continuous
 62
     7
100
AcDbPolyline
 90
        4
 70
     0
 43
0.0
 10
-2.37815
 20
-1.234083
 10
-2.406973999999999
 20
-1.209579999999999
 10
-2.417593
 20
-1.200552999999999
 10
-2.419109999999999
 20
-1.199263999999999
  0
TEXT
  5
AC5
330
1E
100
AcDbEntity
  8
LAYER_1
 62
     7
100
AcDbText
 10
1.474693
 20
1.609819
 30
0.0
 40
0.11104
  1
Wiper rod:
 41
0.7040570965417867
  7
SN0
 72
     5
 11
2.100121
 21
1.609819
 31
0.0
100
AcDbText
  0
TEXT
  5
AC6
330
1E
100
AcDbEntity
  8
LAYER_1
 62
     7
100
AcDbText
 10
1.474693
 20
1.47465
 30
0.0
 40
0.11104
  1
0.104" Stainless steel,
 41
0.6802231250581017
  7
SN0
 72
     5
 11
2.812687999999999
 21
1.47465
 31
0.0
100
AcDbText
  0
TEXT
  5
AC7
330
1E
100
AcDbEntity
  8
LAYER_1
 62
     7
100
AcDbText
 10
1.474693
 20
1.339484
 30
0.0
 40
0.11104
  1
soldered into hypo tube shaft 
 41
0.6411646253602306
  7
SN0
 72
     5
 11
3.254566
 21
1.339484
 31
0.0
100
AcDbText
  0
TEXT
  5
AC8
330
1E
100
AcDbEntity
  8
LAYER_1
 62
     7
100
AcDbText
 10
0.050732
 20
0.9462759999999999
 30
0.0
 40
0.11104
  1
JR horn,
 41
0.702121444681117
  7
SN0
 72
     5
 11
0.563064
 21
0.9462759999999999
 31
0.0
100
AcDbText
  0
TEXT
  5
AC9
330
1E
100
AcDbEntity
  8
LAYER_1
 62
     7
100
AcDbText
 10
0.050732
 20
0.81111
 30
0.0
 40
0.11104
  1
drilled for
 41
0.6357941673032191
  7
SN0
 72
     5
 11
0.6087970000000001
 21
0.81111
 31
0.0
100
AcDbText
  0
TEXT
  5
ACA
330
1E
100
AcDbEntity
  8
LAYER_1
 62
     7
100
AcDbText
 10
0.050732
 20
0.675941
 30
0.0
 40
0.11104
  1
holes at 5mm radius.
 41
0.6501795247318955
  7
SN0
 72
     5
 11
1.309004
 21
0.675941
 31
0.0
100
AcDbText
  0
TEXT
  5
ACB
330
1E
100
AcDbEntity
  8
LAYER_1
 62
     7
100
AcDbText
 10
0.050732
 20
0.5407760000000001
 30
0.0
 40
0.11104
  1
Pins horizontal with
 41
0.6758966105279858
  7
SN0
 72
     5
 11
1.219392
 21
0.5407760000000001
 31
0.0
100
AcDbText
  0
TEXT
  5
ACC
330
1E
100
AcDbEntity
  8
LAYER_1
 62
     7
100
AcDbText
 10
0.050732
 20
0.4056060000000001
 30
0.0
 40
0.11104
  1
servo centered.
 41
0.710192788444846
  7
SN0
 72
     5
 11
0.9857839999999999
 21
0.4056060000000001
 31
0.0
100
AcDbText
  0
TEXT
  5
ACD
330
1E
100
AcDbEntity
  8
LAYER_1
 62
     7
100
AcDbText
 10
1.758747999999999
 20
-4.738457
 30
0.0
 40
0.142766
  1
MD  12 Jul 04
 41
0.616937171132574
  7
SN3
 72
     5
 11
2.819874
 21
-4.738457
 31
0.0
100
AcDbText
  0
TEXT
  5
ACE
330
1E
100
AcDbEntity
  8
LAYER_1
 62
     7
100
AcDbText
 10
1.291811
 20
-3.62078
 30
0.0
 40
0.142766
  1
Metal hardware obtained from
 41
0.6647255197828078
  7
SN4
 72
     5
 11
3.578454
 21
-3.62078
 31
0.0
100
AcDbText
  0
TEXT
  5
ACF
330
1E
100
AcDbEntity
  8
LAYER_1
 62
     7
100
AcDbText
 10
1.291811
 20
-3.792815
 30
0.0
 40
0.142766
  1
www.smallparts.com
 41
0.7116300997582484
  7
SN4
 72
     5
 11
2.868977
 21
-3.792815
 31
0.0
100
AcDbText
  0
ENDSEC
  0
SECTION
  2
OBJECTS
  0
DICTIONARY
  5
C
330
0
100
AcDbDictionary
281
     1
  3
ACAD_GROUP
350
D
  3
ACAD_LAYOUT
350
19
  3
ACAD_MLINESTYLE
350
16
  3
ACAD_PLOTSETTINGS
350
18
  3
ACAD_PLOTSTYLENAME
350
E
  0
DICTIONARY
  5
D
102
{ACAD_REACTORS
330
C
102
}
330
C
100
AcDbDictionary
281
     1
  0
DICTIONARY
  5
19
102
{ACAD_REACTORS
330
C
102
}
330
C
100
AcDbDictionary
281
     1
  3
Layout1
350
1D
  3
Model
350
21
  0
DICTIONARY
  5
16
102
{ACAD_REACTORS
330
C
102
}
330
C
100
AcDbDictionary
281
     1
  3
Standard
350
17
  0
DICTIONARY
  5
18
102
{ACAD_REACTORS
330
C
102
}
330
C
100
AcDbDictionary
281
     1
  0
ACDBDICTIONARYWDFLT
  5
E
102
{ACAD_REACTORS
330
C
102
}
330
C
100
AcDbDictionary
281
     1
  3
Normal
350
F
100
AcDbDictionaryWithDefault
340
F
  0
LAYOUT
  5
1D
102
{ACAD_REACTORS
330
19
102
}
330
19
100
AcDbPlotSettings
  1

  2
Epson FX-80
  4

  6

 40
0.0
 41
0.0
 42
0.0
 43
0.0
 44
0.0
 45
0.0
 46
0.0
 47
0.0
 48
0.0
 49
0.0
140
0.0
141
0.0
142
1.0
143
1.0
 70
   688
 72
     0
 73
     0
 74
     5
  7

 75
    16
147
1.0
148
0.0
149
0.0
100
AcDbLayout
  1
Layout1
 70
     1
 71
     1
 10
0.0
 20
0.0
 11
12.0
 21
9.0
 12
0.0
 22
0.0
 32
0.0
 14
1.000000000000000E+20
 24
1.000000000000000E+20
 34
1.000000000000000E+20
 15
-1.000000000000000E+20
 25
-1.000000000000000E+20
 35
-1.000000000000000E+20
146
0.0
 13
0.0
 23
0.0
 33
0.0
 16
1.0
 26
0.0
 36
0.0
 17
0.0
 27
1.0
 37
0.0
 76
     0
330
1A
  0
LAYOUT
  5
21
102
{ACAD_REACTORS
330
19
102
}
330
19
100
AcDbPlotSettings
  1

  2
Epson FX-80
  4

  6

 40
0.0
 41
0.0
 42
0.0
 43
0.0
 44
0.0
 45
0.0
 46
0.0
 47
0.0
 48
0.0
 49
0.0
140
0.0
141
0.0
142
1.0
143
1.0
 70
  1712
 72
     0
 73
     0
 74
     0
  7

 75
     0
147
1.0
148
0.0
149
0.0
100
AcDbLayout
  1
Model
 70
     1
 71
     0
 10
0.0
 20
0.0
 11
12.0
 21
9.0
 12
0.0
 22
0.0
 32
0.0
 14
0.0
 24
0.0
 34
0.0
 15
0.0
 25
0.0
 35
0.0
146
0.0
 13
0.0
 23
0.0
 33
0.0
 16
1.0
 26
0.0
 36
0.0
 17
0.0
 27
1.0
 37
0.0
 76
     0
330
1E
  0
MLINESTYLE
  5
17
102
{ACAD_REACTORS
330
16
102
}
330
16
100
AcDbMlineStyle
  2
STANDARD
 70
     0
  3

 62
   256
 51
90.0
 52
90.0
 71
     2
 49
0.5
 62
   256
  6
BYLAYER
 49
-0.5
 62
   256
  6
BYLAYER
  0
ACDBPLACEHOLDER
  5
F
102
{ACAD_REACTORS
330
E
102
}
330
E
  0
ENDSEC
  0
EOF
