  0
SECTION
  2
HEADER
  9
$ACADVER
  1
AC1015
  9
$ACADMAINTVER
 70
    10
  9
$DWGCODEPAGE
  3
ANSI_1252
  9
$INSBASE
 10
0.0
 20
0.0
 30
0.0
  9
$EXTMIN
 10
-5.138956924564655
 20
-4.718347
 30
0.0
  9
$EXTMAX
 10
6.342429067970372
 20
7.311275775953746
 30
0.0
  9
$LIMMIN
 10
0.0
 20
0.0
  9
$LIMMAX
 10
12.0
 20
9.0
  9
$ORTHOMODE
 70
     0
  9
$REGENMODE
 70
     1
  9
$FILLMODE
 70
     1
  9
$QTEXTMODE
 70
     0
  9
$MIRRTEXT
 70
     1
  9
$LTSCALE
 40
0.000394
  9
$ATTMODE
 70
     1
  9
$TEXTSIZE
 40
0.2
  9
$TRACEWID
 40
0.05
  9
$TEXTSTYLE
  7
Standard
  9
$CLAYER
  8
0
  9
$CELTYPE
  6
CONTINUOUS
  9
$CECOLOR
 62
   256
  9
$CELTSCALE
 40
1.0
  9
$DISPSILH
 70
     0
  9
$DIMSCALE
 40
1.0
  9
$DIMASZ
 40
0.18
  9
$DIMEXO
 40
0.0625
  9
$DIMDLI
 40
0.38
  9
$DIMRND
 40
0.0
  9
$DIMDLE
 40
0.0
  9
$DIMEXE
 40
0.18
  9
$DIMTP
 40
0.0
  9
$DIMTM
 40
0.0
  9
$DIMTXT
 40
0.18
  9
$DIMCEN
 40
0.09
  9
$DIMTSZ
 40
0.0
  9
$DIMTOL
 70
     0
  9
$DIMLIM
 70
     0
  9
$DIMTIH
 70
     1
  9
$DIMTOH
 70
     1
  9
$DIMSE1
 70
     0
  9
$DIMSE2
 70
     0
  9
$DIMTAD
 70
     0
  9
$DIMZIN
 70
     0
  9
$DIMBLK
  1

  9
$DIMASO
 70
     1
  9
$DIMSHO
 70
     1
  9
$DIMPOST
  1

  9
$DIMAPOST
  1

  9
$DIMALT
 70
     0
  9
$DIMALTD
 70
     2
  9
$DIMALTF
 40
25.4
  9
$DIMLFAC
 40
1.0
  9
$DIMTOFL
 70
     0
  9
$DIMTVP
 40
0.0
  9
$DIMTIX
 70
     0
  9
$DIMSOXD
 70
     0
  9
$DIMSAH
 70
     0
  9
$DIMBLK1
  1

  9
$DIMBLK2
  1

  9
$DIMSTYLE
  2
Standard
  9
$DIMCLRD
 70
     0
  9
$DIMCLRE
 70
     0
  9
$DIMCLRT
 70
     0
  9
$DIMTFAC
 40
1.0
  9
$DIMGAP
 40
0.09
  9
$DIMJUST
 70
     0
  9
$DIMSD1
 70
     0
  9
$DIMSD2
 70
     0
  9
$DIMTOLJ
 70
     1
  9
$DIMTZIN
 70
     0
  9
$DIMALTZ
 70
     0
  9
$DIMALTTZ
 70
     0
  9
$DIMUPT
 70
     0
  9
$DIMDEC
 70
     4
  9
$DIMTDEC
 70
     4
  9
$DIMALTU
 70
     2
  9
$DIMALTTD
 70
     2
  9
$DIMTXSTY
  7
Standard
  9
$DIMAUNIT
 70
     0
  9
$DIMADEC
 70
     0
  9
$DIMALTRND
 40
0.0
  9
$DIMAZIN
 70
     0
  9
$DIMDSEP
 70
    46
  9
$DIMATFIT
 70
     3
  9
$DIMFRAC
 70
     0
  9
$DIMLDRBLK
  1

  9
$DIMLUNIT
 70
     2
  9
$DIMLWD
 70
    -2
  9
$DIMLWE
 70
    -2
  9
$DIMTMOVE
 70
     0
  9
$LUNITS
 70
     2
  9
$LUPREC
 70
     4
  9
$SKETCHINC
 40
0.1
  9
$FILLETRAD
 40
0.0
  9
$AUNITS
 70
     0
  9
$AUPREC
 70
     0
  9
$MENU
  1
.
  9
$ELEVATION
 40
0.0
  9
$PELEVATION
 40
0.0
  9
$THICKNESS
 40
0.0
  9
$LIMCHECK
 70
     0
  9
$CHAMFERA
 40
0.0
  9
$CHAMFERB
 40
0.0
  9
$CHAMFERC
 40
0.0
  9
$CHAMFERD
 40
0.0
  9
$SKPOLY
 70
     0
  9
$TDCREATE
 40
2453215.876666481
  9
$TDUCREATE
 40
2453216.043333148
  9
$TDUPDATE
 40
2453215.877624109
  9
$TDUUPDATE
 40
2453216.044290775
  9
$TDINDWG
 40
0.0009580903
  9
$TDUSRTIMER
 40
0.0009580903
  9
$USRTIMER
 70
     1
  9
$ANGBASE
 50
0.0
  9
$ANGDIR
 70
     0
  9
$PDMODE
 70
    35
  9
$PDSIZE
 40
0.000315
  9
$PLINEWID
 40
0.0
  9
$SPLFRAME
 70
     0
  9
$SPLINETYPE
 70
     6
  9
$SPLINESEGS
 70
     8
  9
$HANDSEED
  5
AC0
  9
$SURFTAB1
 70
     6
  9
$SURFTAB2
 70
     6
  9
$SURFTYPE
 70
     6
  9
$SURFU
 70
     6
  9
$SURFV
 70
     6
  9
$UCSBASE
  2

  9
$UCSNAME
  2

  9
$UCSORG
 10
0.0
 20
0.0
 30
0.0
  9
$UCSXDIR
 10
1.0
 20
0.0
 30
0.0
  9
$UCSYDIR
 10
0.0
 20
1.0
 30
0.0
  9
$UCSORTHOREF
  2

  9
$UCSORTHOVIEW
 70
     0
  9
$UCSORGTOP
 10
0.0
 20
0.0
 30
0.0
  9
$UCSORGBOTTOM
 10
0.0
 20
0.0
 30
0.0
  9
$UCSORGLEFT
 10
0.0
 20
0.0
 30
0.0
  9
$UCSORGRIGHT
 10
0.0
 20
0.0
 30
0.0
  9
$UCSORGFRONT
 10
0.0
 20
0.0
 30
0.0
  9
$UCSORGBACK
 10
0.0
 20
0.0
 30
0.0
  9
$PUCSBASE
  2

  9
$PUCSNAME
  2

  9
$PUCSORG
 10
0.0
 20
0.0
 30
0.0
  9
$PUCSXDIR
 10
1.0
 20
0.0
 30
0.0
  9
$PUCSYDIR
 10
0.0
 20
1.0
 30
0.0
  9
$PUCSORTHOREF
  2

  9
$PUCSORTHOVIEW
 70
     0
  9
$PUCSORGTOP
 10
0.0
 20
0.0
 30
0.0
  9
$PUCSORGBOTTOM
 10
0.0
 20
0.0
 30
0.0
  9
$PUCSORGLEFT
 10
0.0
 20
0.0
 30
0.0
  9
$PUCSORGRIGHT
 10
0.0
 20
0.0
 30
0.0
  9
$PUCSORGFRONT
 10
0.0
 20
0.0
 30
0.0
  9
$PUCSORGBACK
 10
0.0
 20
0.0
 30
0.0
  9
$USERI1
 70
     0
  9
$USERI2
 70
     0
  9
$USERI3
 70
     0
  9
$USERI4
 70
     0
  9
$USERI5
 70
     0
  9
$USERR1
 40
0.0
  9
$USERR2
 40
0.0
  9
$USERR3
 40
0.0
  9
$USERR4
 40
0.0
  9
$USERR5
 40
0.0
  9
$WORLDVIEW
 70
     1
  9
$SHADEDGE
 70
     3
  9
$SHADEDIF
 70
    70
  9
$TILEMODE
 70
     1
  9
$MAXACTVP
 70
    64
  9
$PINSBASE
 10
0.0
 20
0.0
 30
0.0
  9
$PLIMCHECK
 70
     0
  9
$PEXTMIN
 10
1.000000000000000E+20
 20
1.000000000000000E+20
 30
1.000000000000000E+20
  9
$PEXTMAX
 10
-1.000000000000000E+20
 20
-1.000000000000000E+20
 30
-1.000000000000000E+20
  9
$PLIMMIN
 10
0.0
 20
0.0
  9
$PLIMMAX
 10
12.0
 20
9.0
  9
$UNITMODE
 70
     0
  9
$VISRETAIN
 70
     1
  9
$PLINEGEN
 70
     0
  9
$PSLTSCALE
 70
     1
  9
$TREEDEPTH
 70
  3020
  9
$CMLSTYLE
  2
Standard
  9
$CMLJUST
 70
     0
  9
$CMLSCALE
 40
1.0
  9
$PROXYGRAPHICS
 70
     1
  9
$MEASUREMENT
 70
     0
  9
$CELWEIGHT
370
    -1
  9
$ENDCAPS
280
     0
  9
$JOINSTYLE
280
     0
  9
$LWDISPLAY
290
     0
  9
$INSUNITS
 70
     0
  9
$HYPERLINKBASE
  1

  9
$STYLESHEET
  1

  9
$XEDIT
290
     1
  9
$CEPSNTYPE
380
     0
  9
$PSTYLEMODE
290
     1
  9
$FINGERPRINTGUID
  2
{ED6244EC-146C-40FD-953B-65E1AD3CFDF3}
  9
$VERSIONGUID
  2
{79F57684-AB4D-4351-9130-E6A58CBFBB03}
  9
$EXTNAMES
290
     1
  9
$PSVPSCALE
 40
0.0
  9
$OLESTARTUP
290
     0
  0
ENDSEC
  0
SECTION
  2
CLASSES
  0
CLASS
  1
ACDBDICTIONARYWDFLT
  2
AcDbDictionaryWithDefault
  3
AutoCAD 2000
 90
        0
280
     0
281
     0
  0
CLASS
  1
ACDBPLACEHOLDER
  2
AcDbPlaceHolder
  3
AutoCAD 2000
 90
        0
280
     0
281
     0
  0
CLASS
  1
LAYOUT
  2
AcDbLayout
  3
AutoCAD 2000
 90
        0
280
     0
281
     0
  0
ENDSEC
  0
SECTION
  2
TABLES
  0
TABLE
  2
VPORT
  5
8
330
0
100
AcDbSymbolTable
 70
     4
  0
VPORT
  5
ABF
330
8
100
AcDbSymbolTableRecord
100
AcDbViewportTableRecord
  2
*Active
 70
     0
 10
0.0
 20
0.0
 11
1.0
 21
1.0
 12
4.52218342078398
 22
-0.179381160364354
 13
0.0
 23
0.0
 14
1.0
 24
1.0
 15
0.0
 25
0.0
 16
0.0
 26
0.0
 36
1.0
 17
0.0
 27
0.0
 37
0.0
 40
9.356278932339485
 41
1.760330578512396
 42
50.0
 43
0.0
 44
0.0
 50
0.0
 51
0.0
 71
     0
 72
   100
 73
     1
 74
     1
 75
     0
 76
     0
 77
     0
 78
     0
281
     0
 65
     1
110
0.0
120
0.0
130
0.0
111
1.0
121
0.0
131
0.0
112
0.0
122
1.0
132
0.0
 79
     0
146
0.0
  0
ENDTAB
  0
TABLE
  2
LTYPE
  5
5
330
0
100
AcDbSymbolTable
 70
    10
  0
LTYPE
  5
13
330
5
100
AcDbSymbolTableRecord
100
AcDbLinetypeTableRecord
  2
ByBlock
 70
     0
  3

 72
    65
 73
     0
 40
0.0
  0
LTYPE
  5
14
330
5
100
AcDbSymbolTableRecord
100
AcDbLinetypeTableRecord
  2
ByLayer
 70
     0
  3

 72
    65
 73
     0
 40
0.0
  0
LTYPE
  5
15
330
5
100
AcDbSymbolTableRecord
100
AcDbLinetypeTableRecord
  2
CONTINUOUS
 70
     0
  3
Solid line
 72
    65
 73
     0
 40
0.0
  0
LTYPE
  5
22
330
5
100
AcDbSymbolTableRecord
100
AcDbLinetypeTableRecord
  2
DASHED
 70
     0
  3
__ __ __ __ __ __ __ __ __ __ __ __ __ __ __
 72
    65
 73
     2
 40
0.000003
 49
0.000002
 74
     0
 49
-0.000001
 74
     0
  0
LTYPE
  5
23
330
5
100
AcDbSymbolTableRecord
100
AcDbLinetypeTableRecord
  2
HIDDEN
 70
     0
  3
 _ _ _ _ _ _ _ _ _ _ _ _ _ _ _ _ _ _ _ _ _ _
 72
    65
 73
     2
 40
0.000001
 49
0.000001
 74
     0
 49
0.0
 74
     0
  0
LTYPE
  5
24
330
5
100
AcDbSymbolTableRecord
100
AcDbLinetypeTableRecord
  2
CENTER
 70
     0
  3
____ _ ____ _ ____ _ ____ _ ____ _ ____ _ ____
 72
    65
 73
     4
 40
0.000008
 49
0.000005
 74
     0
 49
-0.000001
 74
     0
 49
0.000001
 74
     0
 49
-0.000001
 74
     0
  0
LTYPE
  5
25
330
5
100
AcDbSymbolTableRecord
100
AcDbLinetypeTableRecord
  2
PHANTOM
 70
     0
  3
_____ _ _ _____ _ _ _____ _ _ _____ _ _ ____
 72
    65
 73
     6
 40
0.00001
 49
0.000005
 74
     0
 49
-0.000001
 74
     0
 49
0.000001
 74
     0
 49
-0.000001
 74
     0
 49
0.000001
 74
     0
 49
-0.000001
 74
     0
  0
LTYPE
  5
26
330
5
100
AcDbSymbolTableRecord
100
AcDbLinetypeTableRecord
  2
DOT
 70
     0
  3
...............................................
 72
    65
 73
     2
 40
0.000001
 49
0.0
 74
     0
 49
-0.000001
 74
     0
  0
LTYPE
  5
27
330
5
100
AcDbSymbolTableRecord
100
AcDbLinetypeTableRecord
  2
DASHDOT
 70
     0
  3
__ . __ . __ . __ . __ . __ . __ . __ . __ . __
 72
    65
 73
     4
 40
0.000004
 49
0.000002
 74
     0
 49
-0.000001
 74
     0
 49
0.0
 74
     0
 49
-0.000001
 74
     0
  0
LTYPE
  5
28
330
5
100
AcDbSymbolTableRecord
100
AcDbLinetypeTableRecord
  2
BORDER
 70
     0
  3
__ __ . __ __ . __ __ . __ __ . __ __ . __ __
 72
    65
 73
     6
 40
0.000007
 49
0.000002
 74
     0
 49
-0.000001
 74
     0
 49
0.000002
 74
     0
 49
-0.000001
 74
     0
 49
0.0
 74
     0
 49
-0.000001
 74
     0
  0
LTYPE
  5
29
330
5
100
AcDbSymbolTableRecord
100
AcDbLinetypeTableRecord
  2
DIVIDE
 70
     0
  3
__ . . __ . . __ . . __ . . __ . . __ . . __
 72
    65
 73
     6
 40
0.000005
 49
0.000002
 74
     0
 49
-0.000001
 74
     0
 49
0.0
 74
     0
 49
-0.000001
 74
     0
 49
0.0
 74
     0
 49
-0.000001
 74
     0
  0
LTYPE
  5
2A
330
5
100
AcDbSymbolTableRecord
100
AcDbLinetypeTableRecord
  2
DOTDOT
 70
     0
  3
 . .  . .  . .  . .  . .  . . 
 72
    65
 73
     5
 40
0.000002
 49
-0.000001
 74
     0
 49
0.0
 74
     0
 49
-0.000001
 74
     0
 49
0.0
 74
     0
 49
-0.000001
 74
     0
  0
ENDTAB
  0
TABLE
  2
LAYER
  5
2
330
0
100
AcDbSymbolTable
 70
     4
  0
LAYER
  5
10
330
2
100
AcDbSymbolTableRecord
100
AcDbLayerTableRecord
  2
0
 70
     0
 62
     7
  6
CONTINUOUS
370
    -3
390
F
  0
LAYER
  5
35
330
2
100
AcDbSymbolTableRecord
100
AcDbLayerTableRecord
  2
FOREGROUND
 70
     0
 62
     7
  6
CONTINUOUS
370
    -3
390
F
  0
LAYER
  5
36
330
2
100
AcDbSymbolTableRecord
100
AcDbLayerTableRecord
  2
BACKGROUND
 70
     1
 62
    -7
  6
CONTINUOUS
370
    -3
390
F
  0
LAYER
  5
37
330
2
100
AcDbSymbolTableRecord
100
AcDbLayerTableRecord
  2
LAYER_1
 70
     0
 62
     7
  6
CONTINUOUS
370
    -3
390
F
  0
ENDTAB
  0
TABLE
  2
STYLE
  5
3
330
0
100
AcDbSymbolTable
 70
    11
  0
STYLE
  5
11
330
3
100
AcDbSymbolTableRecord
100
AcDbTextStyleTableRecord
  2
Standard
 70
     0
 40
0.0
 41
1.0
 50
0.0
 71
     0
 42
0.2
  3
txt
  4

  0
STYLE
  5
2B
330
3
100
AcDbSymbolTableRecord
100
AcDbTextStyleTableRecord
  2
SN0
 70
     0
 40
0.0
 41
0.000004
 50
0.0
 71
     0
 42
0.0
  3
ROMAND
  4

  0
STYLE
  5
2C
330
3
100
AcDbSymbolTableRecord
100
AcDbTextStyleTableRecord
  2
SV0
 70
     4
 40
0.0
 41
0.000004
 50
0.0
 71
     0
 42
0.0
  3
ROMAND
  4

  0
STYLE
  5
2D
330
3
100
AcDbSymbolTableRecord
100
AcDbTextStyleTableRecord
  2
SN1
 70
     0
 40
0.0
 41
0.000004
 50
0.0
 71
     0
 42
0.0
  3
ROMAND
  4

  0
STYLE
  5
2E
330
3
100
AcDbSymbolTableRecord
100
AcDbTextStyleTableRecord
  2
SV1
 70
     4
 40
0.0
 41
0.000004
 50
0.0
 71
     0
 42
0.0
  3
ROMAND
  4

  0
STYLE
  5
2F
330
3
100
AcDbSymbolTableRecord
100
AcDbTextStyleTableRecord
  2
SN2
 70
     0
 40
0.0
 41
0.000004
 50
0.0
 71
     0
 42
0.0
  3
ROMAND
  4

  0
STYLE
  5
30
330
3
100
AcDbSymbolTableRecord
100
AcDbTextStyleTableRecord
  2
SV2
 70
     4
 40
0.0
 41
0.000004
 50
0.0
 71
     0
 42
0.0
  3
ROMAND
  4

  0
STYLE
  5
31
330
3
100
AcDbSymbolTableRecord
100
AcDbTextStyleTableRecord
  2
SN3
 70
     0
 40
0.0
 41
0.000004
 50
0.0
 71
     0
 42
0.0
  3
ROMAND
  4

  0
STYLE
  5
32
330
3
100
AcDbSymbolTableRecord
100
AcDbTextStyleTableRecord
  2
SV3
 70
     4
 40
0.0
 41
0.000004
 50
0.0
 71
     0
 42
0.0
  3
ROMAND
  4

  0
STYLE
  5
33
330
3
100
AcDbSymbolTableRecord
100
AcDbTextStyleTableRecord
  2
SN4
 70
     0
 40
0.0
 41
0.000004
 50
0.0
 71
     0
 42
0.0
  3
ROMAND
  4

  0
STYLE
  5
34
330
3
100
AcDbSymbolTableRecord
100
AcDbTextStyleTableRecord
  2
SV4
 70
     4
 40
0.0
 41
0.000004
 50
0.0
 71
     0
 42
0.0
  3
ROMAND
  4

  0
ENDTAB
  0
TABLE
  2
VIEW
  5
6
330
0
100
AcDbSymbolTable
 70
     0
  0
ENDTAB
  0
TABLE
  2
UCS
  5
7
330
0
100
AcDbSymbolTable
 70
     0
  0
ENDTAB
  0
TABLE
  2
APPID
  5
9
330
0
100
AcDbSymbolTable
 70
     1
  0
APPID
  5
12
330
9
100
AcDbSymbolTableRecord
100
AcDbRegAppTableRecord
  2
ACAD
 70
     0
  0
ENDTAB
  0
TABLE
  2
DIMSTYLE
  5
A
330
0
100
AcDbSymbolTable
 70
     1
100
AcDbDimStyleTable
 71
     0
  0
DIMSTYLE
105
ABA
330
A
100
AcDbSymbolTableRecord
100
AcDbDimStyleTableRecord
  2
Standard
 70
     0
340
11
  0
ENDTAB
  0
TABLE
  2
BLOCK_RECORD
  5
1
330
0
100
AcDbSymbolTable
 70
     0
  0
BLOCK_RECORD
  5
1E
330
1
100
AcDbSymbolTableRecord
100
AcDbBlockTableRecord
  2
*Model_Space
340
21
  0
BLOCK_RECORD
  5
1A
330
1
100
AcDbSymbolTableRecord
100
AcDbBlockTableRecord
  2
*Paper_Space
340
1D
  0
ENDTAB
  0
ENDSEC
  0
SECTION
  2
BLOCKS
  0
BLOCK
  5
1F
330
1E
100
AcDbEntity
  8
0
100
AcDbBlockBegin
  2
*Model_Space
 70
     0
 10
0.0
 20
0.0
 30
0.0
  3
*Model_Space
  1

  0
ENDBLK
  5
20
330
1E
100
AcDbEntity
  8
0
100
AcDbBlockEnd
  0
BLOCK
  5
1B
330
1A
100
AcDbEntity
 67
     1
  8
0
100
AcDbBlockBegin
  2
*Paper_Space
 70
     0
 10
0.0
 20
0.0
 30
0.0
  3
*Paper_Space
  1

  0
ENDBLK
  5
1C
330
1A
100
AcDbEntity
 67
     1
  8
0
100
AcDbBlockEnd
  0
ENDSEC
  0
SECTION
  2
ENTITIES
  0
LWPOLYLINE
  5
3B
330
1E
100
AcDbEntity
  8
LAYER_1
  6
Continuous
 62
     7
100
AcDbPolyline
 90
        4
 70
     0
 43
0.0
 10
-0.5156649999999999
 20
-2.040969
 10
-0.517258
 20
-2.041195999999999
 10
-0.5284100000000001
 20
-2.042791999999999
 10
-0.5586770000000002
 20
-2.047122
  0
LWPOLYLINE
  5
41
330
1E
100
AcDbEntity
  8
LAYER_1
  6
Continuous
 62
     7
100
AcDbPolyline
 90
        4
 70
     0
 43
0.0
 10
-0.5586770000000002
 20
-2.047122
 10
-0.6112370000000001
 20
-2.053567999999999
 10
-0.6638
 20
-2.053643
 10
-0.687693
 20
-2.036874
  0
LWPOLYLINE
  5
47
330
1E
100
AcDbEntity
  8
LAYER_1
  6
Continuous
 62
     7
100
AcDbPolyline
 90
        4
 70
     0
 43
0.0
 10
-0.687693
 20
-2.036874
 10
-0.6640270000000001
 20
-1.995936999999999
 10
-0.613057
 20
-1.935999
 10
-0.564819
 20
-1.865358
  0
LWPOLYLINE
  5
4D
330
1E
100
AcDbEntity
  8
LAYER_1
  6
Continuous
 62
     7
100
AcDbPolyline
 90
        4
 70
     0
 43
0.0
 10
-0.564819
 20
-1.865358
 10
-0.542293
 20
-1.792507
 10
-0.540245
 20
-1.726595
 10
-0.546386
 20
-1.676956999999999
  0
LWPOLYLINE
  5
53
330
1E
100
AcDbEntity
  8
LAYER_1
  6
Continuous
 62
     7
100
AcDbPolyline
 90
        4
 70
     0
 43
0.0
 10
-0.546386
 20
-1.676956999999999
 10
-0.5507080000000001
 20
-1.649933
 10
-0.5523
 20
-1.639977
 10
-0.5525280000000001
 20
-1.638555
  0
SOLID
  5
59
330
1E
100
AcDbEntity
  8
LAYER_1
  6
Continuous
 62
   253
100
AcDbTrace
 10
0.138583
 20
-1.189764
 30
0.0
 11
0.3976219999999999
 21
-0.972386
 31
0.0
 12
-0.114165
 22
-0.8885389999999999
 32
0.0
 13
0.144874
 23
-0.6711770000000001
 33
0.0
  0
LWPOLYLINE
  5
5A
330
1E
100
AcDbEntity
  8
LAYER_1
  6
Continuous
 62
   253
100
AcDbPolyline
 90
        4
 70
     1
 43
0.0
 10
0.138583
 20
-1.189764
 10
0.3976219999999999
 20
-0.972386
 10
0.144874
 20
-0.6711770000000001
 10
-0.114165
 20
-0.8885389999999999
  0
LWPOLYLINE
  5
60
330
1E
100
AcDbEntity
  8
LAYER_1
  6
Continuous
 62
     7
100
AcDbPolyline
 90
        4
 70
     1
 43
0.0
 10
0.138583
 20
-1.189764
 10
0.3976219999999999
 20
-0.972386
 10
0.144874
 20
-0.6711770000000001
 10
-0.114165
 20
-0.8885389999999999
  0
SOLID
  5
66
330
1E
100
AcDbEntity
  8
LAYER_1
  6
Continuous
 62
   253
100
AcDbTrace
 10
-0.83215
 20
-0.022413
 30
0.0
 11
-0.57311
 21
0.194941
 31
0.0
 12
-1.084902
 22
0.278791
 32
0.0
 13
-0.825858
 23
0.49615
 33
0.0
  0
LWPOLYLINE
  5
67
330
1E
100
AcDbEntity
  8
LAYER_1
  6
Continuous
 62
   253
100
AcDbPolyline
 90
        4
 70
     1
 43
0.0
 10
-0.83215
 20
-0.022413
 10
-0.57311
 20
0.194941
 10
-0.825858
 20
0.49615
 10
-1.084902
 20
0.278791
  0
LWPOLYLINE
  5
6D
330
1E
100
AcDbEntity
  8
LAYER_1
  6
Continuous
 62
     7
100
AcDbPolyline
 90
        4
 70
     1
 43
0.0
 10
-0.83215
 20
-0.022413
 10
-0.57311
 20
0.194941
 10
-0.825858
 20
0.49615
 10
-1.084902
 20
0.278791
  0
LWPOLYLINE
  5
73
330
1E
100
AcDbEntity
  8
LAYER_1
  6
DASHED
 62
     7
100
AcDbPolyline
 90
        2
 70
     0
 43
0.0
 10
0.4246500000000001
 20
-0.612803
 10
-0.177776
 20
-1.118303
  0
LWPOLYLINE
  5
77
330
1E
100
AcDbEntity
  8
LAYER_1
  6
Continuous
 62
     7
100
AcDbPolyline
 90
        4
 70
     0
 43
0.0
 10
0.6148030000000001
 20
-1.451149999999999
 10
0.612983
 20
-1.451149999999999
 10
0.600244
 20
-1.451149999999999
 10
0.565665
 20
-1.451149999999999
  0
LWPOLYLINE
  5
7D
330
1E
100
AcDbEntity
  8
LAYER_1
  6
Continuous
 62
     7
100
AcDbPolyline
 90
        4
 70
     0
 43
0.0
 10
0.565665
 20
-1.451149999999999
 10
0.5055890000000001
 20
-1.449936
 10
0.445512
 20
-1.441442
 10
0.4182050000000001
 20
-1.418386
  0
LWPOLYLINE
  5
83
330
1E
100
AcDbEntity
  8
LAYER_1
  6
Continuous
 62
     7
100
AcDbPolyline
 90
        4
 70
     0
 43
0.0
 10
0.4182050000000001
 20
-1.418386
 10
0.4433880000000001
 20
-1.375228
 10
0.4885970000000001
 20
-1.313411
 10
0.508319
 20
-1.236121999999999
  0
LWPOLYLINE
  5
89
330
1E
100
AcDbEntity
  8
LAYER_1
  6
Continuous
 62
     7
100
AcDbPolyline
 90
        4
 70
     0
 43
0.0
 10
0.508319
 20
-1.236121999999999
 10
0.470695
 20
-1.148586
 10
0.398485
 20
-1.064238
 10
0.328094
 20
-0.9985549999999999
  0
LWPOLYLINE
  5
8F
330
1E
100
AcDbEntity
  8
LAYER_1
  6
Continuous
 62
     7
100
AcDbPolyline
 90
        4
 70
     0
 43
0.0
 10
0.328094
 20
-0.9985549999999999
 10
0.28774
 20
-0.962528
 10
0.272872
 20
-0.9492539999999999
 10
0.270748
 20
-0.947358
  0
TEXT
  5
95
330
1E
100
AcDbEntity
  8
LAYER_1
 62
     7
100
AcDbText
 10
-0.42965
 20
-2.082664999999999
 30
0.0
 40
0.111024
  1
skin cutout
 41
0.6680479955301349
  7
SN0
 72
     5
 11
0.216683
 21
-2.082664999999999
 31
0.0
100
AcDbText
  0
LWPOLYLINE
  5
96
330
1E
100
AcDbEntity
  8
LAYER_1
  6
Continuous
 62
     7
100
AcDbPolyline
 90
        4
 70
     1
 43
0.0
 10
-0.641831
 20
0.211346
 10
-0.9330389999999999
 20
-0.033012
 10
-1.021012
 20
0.071819
 10
-0.729803
 20
0.316193
  0
LWPOLYLINE
  5
9C
330
1E
100
AcDbEntity
  8
LAYER_1
  6
Continuous
 62
     7
100
AcDbPolyline
 90
        4
 70
     0
 43
0.0
 10
-0.897886
 20
-0.073583
 10
-0.898076
 20
-0.07368
 10
-0.8994089999999999
 20
-0.074364
 10
-0.9030280000000001
 20
-0.07622
  0
LWPOLYLINE
  5
A2
330
1E
100
AcDbEntity
  8
LAYER_1
  6
Continuous
 62
     7
100
AcDbPolyline
 90
        4
 70
     0
 43
0.0
 10
-0.9030280000000001
 20
-0.07622
 10
-0.909674
 20
-0.079568
 10
-0.9185249999999999
 20
-0.08365
 10
-0.928358
 20
-0.087441
  0
LWPOLYLINE
  5
A8
330
1E
100
AcDbEntity
  8
LAYER_1
  6
Continuous
 62
     7
100
AcDbPolyline
 90
        4
 70
     0
 43
0.0
 10
-0.928358
 20
-0.087441
 10
-0.9381899999999999
 20
-0.090143
 10
-0.9479690000000001
 20
-0.091752
 10
-0.9578739999999999
 20
-0.092496
  0
LWPOLYLINE
  5
AE
330
1E
100
AcDbEntity
  8
LAYER_1
  6
Continuous
 62
     7
100
AcDbPolyline
 90
        4
 70
     0
 43
0.0
 10
-0.9578739999999999
 20
-0.092496
 10
-0.968046
 20
-0.092542
 10
-0.978452
 20
-0.091786
 10
-0.9890120000000001
 20
-0.090055
  0
LWPOLYLINE
  5
B4
330
1E
100
AcDbEntity
  8
LAYER_1
  6
Continuous
 62
     7
100
AcDbPolyline
 90
        4
 70
     0
 43
0.0
 10
-0.9890120000000001
 20
-0.090055
 10
-0.9996469999999998
 20
-0.087178
 10
-1.010279999999999
 20
-0.08316
 10
-1.020831
 20
-0.078
  0
LWPOLYLINE
  5
BA
330
1E
100
AcDbEntity
  8
LAYER_1
  6
Continuous
 62
     7
100
AcDbPolyline
 90
        4
 70
     0
 43
0.0
 10
-1.020831
 20
-0.078
 10
-1.031201999999999
 20
-0.071718
 10
-1.041117
 20
-0.064427
 10
-1.050275999999999
 20
-0.056248
  0
LWPOLYLINE
  5
C0
330
1E
100
AcDbEntity
  8
LAYER_1
  6
Continuous
 62
     7
100
AcDbPolyline
 90
        4
 70
     0
 43
0.0
 10
-1.050275999999999
 20
-0.056248
 10
-1.058469
 20
-0.047304
 10
-1.065664999999999
 20
-0.037635
 10
-1.071912999999999
 20
-0.027276
  0
LWPOLYLINE
  5
C6
330
1E
100
AcDbEntity
  8
LAYER_1
  6
Continuous
 62
     7
100
AcDbPolyline
 90
        4
 70
     0
 43
0.0
 10
-1.071912999999999
 20
-0.027276
 10
-1.077234999999999
 20
-0.016349
 10
-1.081552
 20
-0.005248
 10
-1.084763999999999
 20
0.005555
  0
LWPOLYLINE
  5
CC
330
1E
100
AcDbEntity
  8
LAYER_1
  6
Continuous
 62
     7
100
AcDbPolyline
 90
        4
 70
     0
 43
0.0
 10
-1.084763999999999
 20
0.005555
 10
-1.086807
 20
0.015708
 10
-1.087780999999999
 20
0.025389
 10
-1.087819
 20
0.034886
  0
LWPOLYLINE
  5
D2
330
1E
100
AcDbEntity
  8
LAYER_1
  6
Continuous
 62
     7
100
AcDbPolyline
 90
        4
 70
     0
 43
0.0
 10
-1.087819
 20
0.034886
 10
-1.087048
 20
0.044443
 10
-1.085507999999999
 20
0.054048
 10
-1.08322
 20
0.06365
  0
LWPOLYLINE
  5
D8
330
1E
100
AcDbEntity
  8
LAYER_1
  6
Continuous
 62
     7
100
AcDbPolyline
 90
        4
 70
     0
 43
0.0
 10
-1.08322
 20
0.06365
 10
-1.080208999999999
 20
0.073164
 10
-1.076494
 20
0.082413
 10
-1.072094
 20
0.091205
  0
LWPOLYLINE
  5
DE
330
1E
100
AcDbEntity
  8
LAYER_1
  6
Continuous
 62
     7
100
AcDbPolyline
 90
        4
 70
     0
 43
0.0
 10
-1.072094
 20
0.091205
 10
-1.06716
 20
0.099261
 10
-1.062420999999999
 20
0.106041
 10
-1.058732
 20
0.110929
  0
LWPOLYLINE
  5
E4
330
1E
100
AcDbEntity
  8
LAYER_1
  6
Continuous
 62
     7
100
AcDbPolyline
 90
        4
 70
     0
 43
0.0
 10
-1.058732
 20
0.110929
 10
-1.05671
 20
0.113567
 10
-1.055965
 20
0.114538
 10
-1.055857999999999
 20
0.114677
  0
LWPOLYLINE
  5
EA
330
1E
100
AcDbEntity
  8
LAYER_1
  6
Continuous
 62
     7
100
AcDbPolyline
 90
        2
 70
     0
 43
0.0
 10
-0.8974019999999999
 20
-0.074165
 10
-1.056357999999999
 20
0.115264
  0
LWPOLYLINE
  5
EE
330
1E
100
AcDbEntity
  8
LAYER_1
  6
Continuous
 62
     7
100
AcDbPolyline
 90
        4
 70
     1
 43
0.0
 10
0.250567
 20
-0.850012
 10
-0.040638
 20
-1.094373999999999
 10
-0.12861
 20
-0.9895389999999999
 10
0.162594
 20
-0.7451770000000001
  0
LWPOLYLINE
  5
F4
330
1E
100
AcDbEntity
  8
LAYER_1
  6
Continuous
 62
     7
100
AcDbPolyline
 90
        4
 70
     0
 43
0.0
 10
-0.005484
 20
-1.134940999999999
 10
-0.005675
 20
-1.135038999999999
 10
-0.007007
 20
-1.135723999999999
 10
-0.010622
 20
-1.137583
  0
LWPOLYLINE
  5
FA
330
1E
100
AcDbEntity
  8
LAYER_1
  6
Continuous
 62
     7
100
AcDbPolyline
 90
        4
 70
     0
 43
0.0
 10
-0.010622
 20
-1.137583
 10
-0.017272
 20
-1.140929999999999
 10
-0.026123
 20
-1.145012
 10
-0.035957
 20
-1.148803
  0
LWPOLYLINE
  5
100
330
1E
100
AcDbEntity
  8
LAYER_1
  6
Continuous
 62
     7
100
AcDbPolyline
 90
        4
 70
     0
 43
0.0
 10
-0.035957
 20
-1.148803
 10
-0.045787
 20
-1.151502
 10
-0.055564
 20
-1.153112
 10
-0.065469
 20
-1.153858
  0
LWPOLYLINE
  5
106
330
1E
100
AcDbEntity
  8
LAYER_1
  6
Continuous
 62
     7
100
AcDbPolyline
 90
        4
 70
     0
 43
0.0
 10
-0.065469
 20
-1.153858
 10
-0.075639
 20
-1.153904
 10
-0.086038
 20
-1.153146999999999
 10
-0.096594
 20
-1.151413
  0
LWPOLYLINE
  5
10C
330
1E
100
AcDbEntity
  8
LAYER_1
  6
Continuous
 62
     7
100
AcDbPolyline
 90
        4
 70
     0
 43
0.0
 10
-0.096594
 20
-1.151413
 10
-0.10724
 20
-1.148536
 10
-0.117876
 20
-1.144516
 10
-0.128429
 20
-1.139358
  0
LWPOLYLINE
  5
112
330
1E
100
AcDbEntity
  8
LAYER_1
  6
Continuous
 62
     7
100
AcDbPolyline
 90
        4
 70
     0
 43
0.0
 10
-0.128429
 20
-1.139358
 10
-0.138797
 20
-1.133078
 10
-0.148708
 20
-1.125788
 10
-0.157874
 20
-1.117609999999999
  0
LWPOLYLINE
  5
118
330
1E
100
AcDbEntity
  8
LAYER_1
  6
Continuous
 62
     7
100
AcDbPolyline
 90
        4
 70
     0
 43
0.0
 10
-0.157874
 20
-1.117609999999999
 10
-0.166067
 20
-1.108665999999999
 10
-0.173263
 20
-1.098996999999999
 10
-0.179512
 20
-1.088637999999999
  0
LWPOLYLINE
  5
11E
330
1E
100
AcDbEntity
  8
LAYER_1
  6
Continuous
 62
     7
100
AcDbPolyline
 90
        4
 70
     0
 43
0.0
 10
-0.179512
 20
-1.088637999999999
 10
-0.184833
 20
-1.077711
 10
-0.189148
 20
-1.066608999999999
 10
-0.192358
 20
-1.055803
  0
LWPOLYLINE
  5
124
330
1E
100
AcDbEntity
  8
LAYER_1
  6
Continuous
 62
     7
100
AcDbPolyline
 90
        4
 70
     0
 43
0.0
 10
-0.192358
 20
-1.055803
 10
-0.194404
 20
-1.045649
 10
-0.195378
 20
-1.035965999999999
 10
-0.195413
 20
-1.026469
  0
LWPOLYLINE
  5
12A
330
1E
100
AcDbEntity
  8
LAYER_1
  6
Continuous
 62
     7
100
AcDbPolyline
 90
        4
 70
     0
 43
0.0
 10
-0.195413
 20
-1.026469
 10
-0.194645
 20
-1.016913999999999
 10
-0.193105
 20
-1.007309
 10
-0.190819
 20
-0.997705
  0
LWPOLYLINE
  5
130
330
1E
100
AcDbEntity
  8
LAYER_1
  6
Continuous
 62
     7
100
AcDbPolyline
 90
        4
 70
     0
 43
0.0
 10
-0.190819
 20
-0.997705
 10
-0.187808
 20
-0.9881879999999998
 10
-0.184093
 20
-0.9789369999999999
 10
-0.179693
 20
-0.9701499999999999
  0
LWPOLYLINE
  5
136
330
1E
100
AcDbEntity
  8
LAYER_1
  6
Continuous
 62
     7
100
AcDbPolyline
 90
        4
 70
     0
 43
0.0
 10
-0.179693
 20
-0.9701499999999999
 10
-0.174753
 20
-0.962096
 10
-0.170011
 20
-0.9553169999999999
 10
-0.166331
 20
-0.9504290000000001
  0
LWPOLYLINE
  5
13C
330
1E
100
AcDbEntity
  8
LAYER_1
  6
Continuous
 62
     7
100
AcDbPolyline
 90
        4
 70
     0
 43
0.0
 10
-0.166331
 20
-0.9504290000000001
 10
-0.164308
 20
-0.947789
 10
-0.163563
 20
-0.9468159999999999
 10
-0.163457
 20
-0.946677
  0
LWPOLYLINE
  5
142
330
1E
100
AcDbEntity
  8
LAYER_1
  6
Continuous
 62
     7
100
AcDbPolyline
 90
        2
 70
     0
 43
0.0
 10
-0.004996
 20
-1.135528
 10
-0.163957
 20
-0.946094
  0
TEXT
  5
146
330
1E
100
AcDbEntity
  8
LAYER_1
 62
     7
100
AcDbText
 10
0.7499690000000001
 20
-1.320818999999999
 30
0.0
 40
0.111024
  1
vert. grain basswood, 
 41
0.6526080311193742
  7
SN0
 72
     5
 11
2.071413
 21
-1.320818999999999
 31
0.0
100
AcDbText
  0
TEXT
  5
147
330
1E
100
AcDbEntity
  8
LAYER_1
 62
     7
100
AcDbText
 10
0.7499690000000001
 20
-1.455983999999999
 30
0.0
 40
0.111024
  1
potted between skins,
 41
0.6883390868134218
  7
SN0
 72
     5
 11
2.056424
 21
-1.455983999999999
 31
0.0
100
AcDbText
  0
TEXT
  5
148
330
1E
100
AcDbEntity
  8
LAYER_1
 62
     7
100
AcDbText
 10
0.7499690000000001
 20
-1.591154
 30
0.0
 40
0.111024
  1
tapped for screws
 41
0.665470511058887
  7
SN0
 72
     5
 11
1.815998
 21
-1.591154
 31
0.0
100
AcDbText
  0
TEXT
  5
149
330
1E
100
AcDbEntity
  8
LAYER_1
 62
     7
100
AcDbText
 10
0.246169
 20
-1.75089
 30
0.0
 40
0.111024
  1
6-32 Nylon bolts,
 41
0.6474929452799102
  7
SN0
 72
     5
 11
1.259437
 21
-1.75089
 31
0.0
100
AcDbText
  0
TEXT
  5
14A
330
1E
100
AcDbEntity
  8
LAYER_1
 62
     7
100
AcDbText
 10
0.246169
 20
-1.886058999999999
 30
0.0
 40
0.111024
  1
bottom holes only
 41
0.6716890706743621
  7
SN0
 72
     5
 11
1.304404
 21
-1.886058999999999
 31
0.0
100
AcDbText
  0
LWPOLYLINE
  5
14B
330
1E
100
AcDbEntity
  8
LAYER_1
  6
Continuous
 62
     7
100
AcDbPolyline
 90
        4
 70
     0
 43
0.0
 10
0.11715
 20
-1.776791
 10
0.114874
 20
-1.776866999999999
 10
0.098944
 20
-1.777395999999999
 10
0.055705
 20
-1.778831
  0
LWPOLYLINE
  5
151
330
1E
100
AcDbEntity
  8
LAYER_1
  6
Continuous
 62
     7
100
AcDbPolyline
 90
        4
 70
     0
 43
0.0
 10
0.055705
 20
-1.778831
 10
-0.019528
 20
-1.779965
 10
-0.095678
 20
-1.772909999999999
 10
-0.132693
 20
-1.748109999999999
  0
LWPOLYLINE
  5
157
330
1E
100
AcDbEntity
  8
LAYER_1
  6
Continuous
 62
     7
100
AcDbPolyline
 90
        4
 70
     0
 43
0.0
 10
-0.132693
 20
-1.748109999999999
 10
-0.104859
 20
-1.697975
 10
-0.043803
 20
-1.622808999999999
 10
0.004512
 20
-1.524885999999999
  0
LWPOLYLINE
  5
15D
330
1E
100
AcDbEntity
  8
LAYER_1
  6
Continuous
 62
     7
100
AcDbPolyline
 90
        4
 70
     0
 43
0.0
 10
0.004512
 20
-1.524885999999999
 10
0.006182
 20
-1.409821999999999
 10
-0.024459
 20
-1.296572999999999
 10
-0.061012
 20
-1.207440999999999
  0
LWPOLYLINE
  5
163
330
1E
100
AcDbEntity
  8
LAYER_1
  6
Continuous
 62
     7
100
AcDbPolyline
 90
        4
 70
     0
 43
0.0
 10
-0.061012
 20
-1.207440999999999
 10
-0.08263
 20
-1.158447999999999
 10
-0.090594
 20
-1.140396999999999
 10
-0.091732
 20
-1.137819
  0
LWPOLYLINE
  5
169
330
1E
100
AcDbEntity
  8
LAYER_1
  6
Continuous
 62
     7
100
AcDbPolyline
 90
        4
 70
     1
 43
0.0
 10
-0.5334290000000001
 20
3.553555
 10
-0.9121219999999999
 20
3.586692999999999
 10
-0.9001929999999999
 20
3.723027999999999
 10
-0.5215
 20
3.689901999999999
  0
LWPOLYLINE
  5
16F
330
1E
100
AcDbEntity
  8
LAYER_1
  6
Continuous
 62
     7
100
AcDbPolyline
 90
        4
 70
     0
 43
0.0
 10
-0.915957
 20
3.53315
 10
-0.9161599999999999
 20
3.533215
 10
-0.917586
 20
3.533672
 10
-0.921457
 20
3.534912999999999
  0
LWPOLYLINE
  5
175
330
1E
100
AcDbEntity
  8
LAYER_1
  6
Continuous
 62
     7
100
AcDbPolyline
 90
        4
 70
     0
 43
0.0
 10
-0.921457
 20
3.534912999999999
 10
-0.928526
 20
3.537241999999999
 10
-0.9376750000000001
 20
3.540612
 10
-0.947319
 20
3.544885999999999
  0
LWPOLYLINE
  5
17B
330
1E
100
AcDbEntity
  8
LAYER_1
  6
Continuous
 62
     7
100
AcDbPolyline
 90
        4
 70
     0
 43
0.0
 10
-0.947319
 20
3.544885999999999
 10
-0.95617
 20
3.549932
 10
-0.9642190000000001
 20
3.555708
 10
-0.971748
 20
3.562176999999999
  0
LWPOLYLINE
  5
181
330
1E
100
AcDbEntity
  8
LAYER_1
  6
Continuous
 62
     7
100
AcDbPolyline
 90
        4
 70
     0
 43
0.0
 10
-0.971748
 20
3.562176999999999
 10
-0.978977
 20
3.569338999999999
 10
-0.9858
 20
3.577230999999999
 10
-0.9920389999999999
 20
3.585929
  0
LWPOLYLINE
  5
187
330
1E
100
AcDbEntity
  8
LAYER_1
  6
Continuous
 62
     7
100
AcDbPolyline
 90
        4
 70
     0
 43
0.0
 10
-0.9920389999999999
 20
3.585929
 10
-0.997526
 20
3.59548
 10
-1.002205
 20
3.605841999999999
 10
-1.006028
 20
3.616956999999999
  0
LWPOLYLINE
  5
18D
330
1E
100
AcDbEntity
  8
LAYER_1
  6
Continuous
 62
     7
100
AcDbPolyline
 90
        4
 70
     0
 43
0.0
 10
-1.006028
 20
3.616956999999999
 10
-1.008909
 20
3.628726
 10
-1.010758999999999
 20
3.640894
 10
-1.011457
 20
3.653164999999999
  0
LWPOLYLINE
  5
193
330
1E
100
AcDbEntity
  8
LAYER_1
  6
Continuous
 62
     7
100
AcDbPolyline
 90
        4
 70
     0
 43
0.0
 10
-1.011457
 20
3.653164999999999
 10
-1.010925
 20
3.665277999999999
 10
-1.009176999999999
 20
3.677201
 10
-1.006275999999999
 20
3.688941
  0
LWPOLYLINE
  5
199
330
1E
100
AcDbEntity
  8
LAYER_1
  6
Continuous
 62
     7
100
AcDbPolyline
 90
        4
 70
     0
 43
0.0
 10
-1.006275999999999
 20
3.688941
 10
-1.002310999999999
 20
3.700426
 10
-0.9975089999999999
 20
3.711324999999999
 10
-0.9921379999999999
 20
3.721232
  0
LWPOLYLINE
  5
19F
330
1E
100
AcDbEntity
  8
LAYER_1
  6
Continuous
 62
     7
100
AcDbPolyline
 90
        4
 70
     0
 43
0.0
 10
-0.9921379999999999
 20
3.721232
 10
-0.9864069999999999
 20
3.729862999999999
 10
-0.980253
 20
3.737401
 10
-0.9735669999999998
 20
3.744149999999999
  0
LWPOLYLINE
  5
1A5
330
1E
100
AcDbEntity
  8
LAYER_1
  6
Continuous
 62
     7
100
AcDbPolyline
 90
        4
 70
     0
 43
0.0
 10
-0.9735669999999998
 20
3.744149999999999
 10
-0.966261
 20
3.750361
 10
-0.9583770000000001
 20
3.756060999999999
 10
-0.9499690000000001
 20
3.761232
  0
LWPOLYLINE
  5
1AB
330
1E
100
AcDbEntity
  8
LAYER_1
  6
Continuous
 62
     7
100
AcDbPolyline
 90
        4
 70
     0
 43
0.0
 10
-0.9499690000000001
 20
3.761232
 10
-0.941111
 20
3.765826999999999
 10
-0.9319399999999999
 20
3.769743
 10
-0.92261
 20
3.772845999999999
  0
LWPOLYLINE
  5
1B1
330
1E
100
AcDbEntity
  8
LAYER_1
  6
Continuous
 62
     7
100
AcDbPolyline
 90
        4
 70
     0
 43
0.0
 10
-0.92261
 20
3.772845999999999
 10
-0.913432
 20
3.775055999999999
 10
-0.9052879999999998
 20
3.776496999999999
 10
-0.89922
 20
3.777346
  0
LWPOLYLINE
  5
1B7
330
1E
100
AcDbEntity
  8
LAYER_1
  6
Continuous
 62
     7
100
AcDbPolyline
 90
        4
 70
     0
 43
0.0
 10
-0.89922
 20
3.777346
 10
-0.895926
 20
3.777783999999999
 10
-0.8947129999999997
 20
3.777944999999999
 10
-0.8945389999999999
 20
3.777969
  0
LWPOLYLINE
  5
1BD
330
1E
100
AcDbEntity
  8
LAYER_1
  6
Continuous
 62
     7
100
AcDbPolyline
 90
        2
 70
     0
 43
0.0
 10
-0.916028
 20
3.532386
 10
-0.8944690000000001
 20
3.778731999999999
  0
LWPOLYLINE
  5
1C1
330
1E
100
AcDbEntity
  8
LAYER_1
  6
Continuous
 62
     7
100
AcDbPolyline
 90
        4
 70
     1
 43
0.0
 10
-0.7775280000000001
 20
-1.445528
 10
0.124457
 20
-0.688665
 10
-0.6000550000000001
 20
0.174764
 10
-1.502038999999999
 20
-0.5820940000000001
  0
LWPOLYLINE
  5
1C7
330
1E
100
AcDbEntity
  8
LAYER_1
  6
Continuous
 62
     7
100
AcDbPolyline
 90
        4
 70
     1
 43
0.0
 10
0.009205
 20
-1.030094
 10
-0.050913
 20
-1.080554999999999
 10
-1.021247999999999
 20
0.075846
 10
-0.96111
 20
0.126291
  0
LWPOLYLINE
  5
1CD
330
1E
100
AcDbEntity
  8
LAYER_1
  6
Continuous
 62
     7
100
AcDbPolyline
 90
        2
 70
     0
 43
0.0
 10
-0.25211
 20
0.152528
 10
-0.4808460000000001
 20
-0.039402
  0
LWPOLYLINE
  5
1D1
330
1E
100
AcDbEntity
  8
LAYER_1
  6
Continuous
 62
     7
100
AcDbPolyline
 90
        4
 70
     1
 43
0.0
 10
-0.106693
 20
-0.18972
 10
-0.045012
 20
-0.137969
 10
-0.5056500000000001
 20
0.411
 10
-0.5673310000000001
 20
0.359248
  0
LWPOLYLINE
  5
1D7
330
1E
100
AcDbEntity
  8
LAYER_1
  6
Continuous
 62
     7
100
AcDbPolyline
 90
        4
 70
     1
 43
0.0
 10
-0.298732
 20
-0.09072
 10
-0.237402
 20
-0.039248
 10
-0.443276
 20
0.206083
 10
-0.50461
 20
0.154622
  0
TEXT
  5
1DD
330
1E
100
AcDbEntity
  8
LAYER_1
 62
     7
100
AcDbText
 10
-0.81361
 20
-0.8574129999999998
 30
0.0
 40
0.142902
  1
DS368
 50
40.00005692394189
 41
0.7893806080106517
  7
SN1
 72
     5
 11
-0.4103500000000001
 21
-0.519037
 31
0.0
100
AcDbText
  0
LWPOLYLINE
  5
1DE
330
1E
100
AcDbEntity
  8
LAYER_1
  6
DASHED
 62
     7
100
AcDbPolyline
 90
        2
 70
     0
 43
0.0
 10
-0.4737760000000001
 20
0.4575390000000001
 10
-1.076204999999999
 20
-0.047969
  0
LWPOLYLINE
  5
1E2
330
1E
100
AcDbEntity
  8
LAYER_1
  6
DASHED
 62
     7
100
AcDbPolyline
 90
        2
 70
     0
 43
0.0
 10
-0.012358
 20
0.347303
 10
2.820956999999999
 20
2.724747999999999
  0
LWPOLYLINE
  5
1E6
330
1E
100
AcDbEntity
  8
LAYER_1
  6
Continuous
 62
     7
100
AcDbPolyline
 90
        3
 70
     0
 43
0.0
 10
3.339637999999999
 20
7.124275999999999
 10
3.708276
 20
1.39815
 10
3.806583
 20
-2.791999999999999
  0
LWPOLYLINE
  5
1F2
330
1E
100
AcDbEntity
  8
LAYER_1
  6
Continuous
 62
     7
100
AcDbPolyline
 90
        4
 70
     1
 43
0.0
 10
-2.199583
 20
-1.059050999999999
 10
-1.751697
 20
-1.059050999999999
 10
-1.751697
 20
3.917512
 10
-2.199583
 20
3.917512
  0
LWPOLYLINE
  5
1F8
330
1E
100
AcDbEntity
  8
LAYER_1
  6
Continuous
 62
     7
100
AcDbPolyline
 90
        4
 70
     0
 43
0.0
 10
-1.747511999999999
 20
7.148858
 10
-1.747511999999999
 20
1.410441
 10
-2.226732
 20
1.410441
 10
-2.177594
 20
7.284028
  0
LWPOLYLINE
  5
205
330
1E
100
AcDbEntity
  8
LAYER_1
  6
Continuous
 62
     7
100
AcDbPolyline
 90
        3
 70
     0
 43
0.0
 10
1.275276
 20
7.185719999999999
 10
1.496456999999999
 20
1.39815
 10
1.570176999999999
 20
-3.037748
  0
LWPOLYLINE
  5
20A
330
1E
100
AcDbEntity
  8
LAYER_1
  6
Continuous
 62
     7
100
AcDbPolyline
 90
        2
 70
     0
 43
0.0
 10
-2.457440999999999
 20
1.016704999999999
 10
-1.738818999999999
 20
1.038819
  0
LWPOLYLINE
  5
20E
330
1E
100
AcDbEntity
  8
LAYER_1
  6
Continuous
 62
     7
100
AcDbPolyline
 90
        2
 70
     0
 43
0.0
 10
-2.457275999999999
 20
1.088763999999999
 10
-1.738665
 20
1.110857999999999
  0
LWPOLYLINE
  5
212
330
1E
100
AcDbEntity
  8
LAYER_1
  6
Continuous
 62
     7
100
AcDbPolyline
 90
        2
 70
     0
 43
0.0
 10
-2.457109999999999
 20
1.160819
 10
-1.738499999999999
 20
1.182912999999999
  0
LWPOLYLINE
  5
216
330
1E
100
AcDbEntity
  8
LAYER_1
  6
Continuous
 62
     7
100
AcDbPolyline
 90
        2
 70
     0
 43
0.0
 10
-2.461093999999999
 20
1.232957
 10
-1.742483999999999
 20
1.255066999999999
  0
LWPOLYLINE
  5
21A
330
1E
100
AcDbEntity
  8
LAYER_1
  6
Continuous
 62
     7
100
AcDbPolyline
 90
        2
 70
     0
 43
0.0
 10
-2.460929
 20
1.305028
 10
-1.742318999999999
 20
1.327137999999999
  0
LWPOLYLINE
  5
21E
330
1E
100
AcDbEntity
  8
LAYER_1
  6
Continuous
 62
     7
100
AcDbPolyline
 90
        2
 70
     0
 43
0.0
 10
-2.229665
 20
1.385330999999999
 10
-1.748193
 20
1.407440999999999
  0
LWPOLYLINE
  5
222
330
1E
100
AcDbEntity
  8
LAYER_1
  6
Continuous
 62
     7
100
AcDbPolyline
 90
        2
 70
     0
 43
0.0
 10
-2.229468999999999
 20
1.457386
 10
-1.748
 20
1.479499999999999
  0
LWPOLYLINE
  5
226
330
1E
100
AcDbEntity
  8
LAYER_1
  6
Continuous
 62
     7
100
AcDbPolyline
 90
        2
 70
     0
 43
0.0
 10
-2.229165
 20
1.529441
 10
-1.747692999999999
 20
1.551555
  0
LWPOLYLINE
  5
22A
330
1E
100
AcDbEntity
  8
LAYER_1
  6
Continuous
 62
     7
100
AcDbPolyline
 90
        2
 70
     0
 43
0.0
 10
-2.234484
 20
1.601593999999999
 10
-1.753011999999999
 20
1.623704999999999
  0
LWPOLYLINE
  5
22E
330
1E
100
AcDbEntity
  8
LAYER_1
  6
Continuous
 62
     7
100
AcDbPolyline
 90
        2
 70
     0
 43
0.0
 10
-2.234290999999999
 20
1.67365
 10
-1.752818999999999
 20
1.695764
  0
LWPOLYLINE
  5
232
330
1E
100
AcDbEntity
  8
LAYER_1
  6
Continuous
 62
     7
100
AcDbPolyline
 90
        2
 70
     0
 43
0.0
 10
3.71315
 20
1.400357999999999
 10
-5.035779999999999
 20
1.400357999999999
  0
LWPOLYLINE
  5
236
330
1E
100
AcDbEntity
  8
LAYER_1
  6
Continuous
 62
     7
100
AcDbPolyline
 90
        3
 70
     0
 43
0.0
 10
-4.794897999999999
 20
7.24715
 10
-5.040653999999999
 20
1.39815
 10
-5.077519999999999
 20
-3.086902
  0
SOLID
  5
23B
330
1E
100
AcDbEntity
  8
LAYER_1
  6
Continuous
 62
   153
100
AcDbTrace
 10
-1.748638
 20
4.054956999999999
 30
0.0
 11
-1.749831
 21
3.492483999999999
 31
0.0
 12
-2.491373999999999
 22
4.087028
 32
0.0
 13
-2.5
 23
3.487941
 33
0.0
  0
LWPOLYLINE
  5
23C
330
1E
100
AcDbEntity
  8
LAYER_1
  6
Continuous
 62
   153
100
AcDbPolyline
 90
        4
 70
     1
 43
0.0
 10
-1.748638
 20
4.054956999999999
 10
-1.749831
 20
3.492483999999999
 10
-2.5
 20
3.487941
 10
-2.491373999999999
 20
4.087028
  0
LWPOLYLINE
  5
242
330
1E
100
AcDbEntity
  8
LAYER_1
  6
Continuous
 62
     7
100
AcDbPolyline
 90
        4
 70
     1
 43
0.0
 10
-1.748638
 20
4.054956999999999
 10
-1.749831
 20
3.492483999999999
 10
-2.5
 20
3.487941
 10
-2.491373999999999
 20
4.087028
  0
SOLID
  5
248
330
1E
100
AcDbEntity
  8
LAYER_1
  6
Continuous
 62
     7
100
AcDbTrace
 10
-2.500374
 20
3.499469
 30
0.0
 11
-1.754122
 21
3.498594
 31
0.0
 12
-2.500345999999999
 22
3.472412999999999
 32
0.0
 13
-1.754093999999999
 23
3.471538999999999
 33
0.0
  0
LWPOLYLINE
  5
249
330
1E
100
AcDbEntity
  8
LAYER_1
  6
Continuous
 62
     7
100
AcDbPolyline
 90
        4
 70
     1
 43
0.0
 10
-2.500374
 20
3.499469
 10
-1.754122
 20
3.498594
 10
-1.754093999999999
 20
3.471538999999999
 10
-2.500345999999999
 20
3.472412999999999
  0
LWPOLYLINE
  5
24F
330
1E
100
AcDbEntity
  8
LAYER_1
  6
Continuous
 62
     7
100
AcDbPolyline
 90
        4
 70
     1
 43
0.0
 10
-2.500374
 20
3.499469
 10
-1.754122
 20
3.498594
 10
-1.754093999999999
 20
3.471538999999999
 10
-2.500345999999999
 20
3.472412999999999
  0
SOLID
  5
255
330
1E
100
AcDbEntity
  8
LAYER_1
  6
Continuous
 62
     7
100
AcDbTrace
 10
-2.495248
 20
4.080385999999999
 30
0.0
 11
-1.749011999999999
 21
4.079512
 31
0.0
 12
-2.495232
 22
4.053319
 32
0.0
 13
-1.748984
 23
4.052456999999999
 33
0.0
  0
LWPOLYLINE
  5
256
330
1E
100
AcDbEntity
  8
LAYER_1
  6
Continuous
 62
     7
100
AcDbPolyline
 90
        4
 70
     1
 43
0.0
 10
-2.495248
 20
4.080385999999999
 10
-1.749011999999999
 20
4.079512
 10
-1.748984
 20
4.052456999999999
 10
-2.495232
 20
4.053319
  0
LWPOLYLINE
  5
25C
330
1E
100
AcDbEntity
  8
LAYER_1
  6
Continuous
 62
     7
100
AcDbPolyline
 90
        4
 70
     1
 43
0.0
 10
-2.495248
 20
4.080385999999999
 10
-1.749011999999999
 20
4.079512
 10
-1.748984
 20
4.052456999999999
 10
-2.495232
 20
4.053319
  0
LWPOLYLINE
  5
262
330
1E
100
AcDbEntity
  8
LAYER_1
  6
Continuous
 62
   137
100
AcDbPolyline
 90
       12
 70
     1
 43
0.0
 10
-1.976818999999999
 20
3.672886
 10
-1.866983
 20
3.695520999999999
 10
-1.787148
 20
3.762273999999999
 10
-1.754275999999999
 20
3.858957
 10
-1.780322
 20
3.957684999999999
 10
-1.855308
 20
4.029837
 10
-1.963290999999999
 20
4.060067
 10
-2.073128
 20
4.037436
 10
-2.152966
 20
3.97069
 10
-2.185831
 20
3.874012
 10
-2.159784
 20
3.775276
 10
-2.084799999999999
 20
3.703123
  0
LWPOLYLINE
  5
270
330
1E
100
AcDbEntity
  8
LAYER_1
  6
Continuous
 62
     7
100
AcDbPolyline
 90
        4
 70
     0
 43
0.0
 10
-1.976818999999999
 20
3.672886
 10
-1.866983
 20
3.695520999999999
 10
-1.787148
 20
3.762273999999999
 10
-1.754275999999999
 20
3.858957
  0
LWPOLYLINE
  5
276
330
1E
100
AcDbEntity
  8
LAYER_1
  6
Continuous
 62
     7
100
AcDbPolyline
 90
        4
 70
     0
 43
0.0
 10
-1.754275999999999
 20
3.858957
 10
-1.780322
 20
3.957684999999999
 10
-1.855308
 20
4.029837
 10
-1.963290999999999
 20
4.060067
  0
LWPOLYLINE
  5
27C
330
1E
100
AcDbEntity
  8
LAYER_1
  6
Continuous
 62
     7
100
AcDbPolyline
 90
        4
 70
     0
 43
0.0
 10
-1.963290999999999
 20
4.060067
 10
-2.073128
 20
4.037436
 10
-2.152966
 20
3.97069
 10
-2.185831
 20
3.874012
  0
LWPOLYLINE
  5
282
330
1E
100
AcDbEntity
  8
LAYER_1
  6
Continuous
 62
     7
100
AcDbPolyline
 90
        4
 70
     0
 43
0.0
 10
-2.185831
 20
3.874012
 10
-2.159784
 20
3.775276
 10
-2.084799999999999
 20
3.703123
 10
-1.976818999999999
 20
3.672886
  0
LWPOLYLINE
  5
288
330
1E
100
AcDbEntity
  8
LAYER_1
  6
Continuous
 62
     7
100
AcDbPolyline
 90
       12
 70
     1
 43
0.0
 10
-1.975929
 20
3.698066999999999
 10
-1.880360999999999
 20
3.717753
 10
-1.810893999999999
 20
3.775828999999999
 10
-1.782291
 20
3.859941
 10
-1.804961999999999
 20
3.945851999999999
 10
-1.870205999999999
 20
4.008633999999999
 10
-1.964165
 20
4.034941
 10
-2.059731
 20
4.015255
 10
-2.129197
 20
3.957176999999999
 10
-2.157791
 20
3.873055
 10
-2.135125999999999
 20
3.787144999999999
 10
-2.069881
 20
3.724366
  0
LWPOLYLINE
  5
296
330
1E
100
AcDbEntity
  8
LAYER_1
  6
Continuous
 62
     7
100
AcDbPolyline
 90
        4
 70
     0
 43
0.0
 10
-1.975929
 20
3.698066999999999
 10
-1.880360999999999
 20
3.717753
 10
-1.810893999999999
 20
3.775828999999999
 10
-1.782291
 20
3.859941
  0
LWPOLYLINE
  5
29C
330
1E
100
AcDbEntity
  8
LAYER_1
  6
Continuous
 62
     7
100
AcDbPolyline
 90
        4
 70
     0
 43
0.0
 10
-1.782291
 20
3.859941
 10
-1.804961999999999
 20
3.945851999999999
 10
-1.870205999999999
 20
4.008633999999999
 10
-1.964165
 20
4.034941
  0
LWPOLYLINE
  5
2A2
330
1E
100
AcDbEntity
  8
LAYER_1
  6
Continuous
 62
     7
100
AcDbPolyline
 90
        4
 70
     0
 43
0.0
 10
-1.964165
 20
4.034941
 10
-2.059731
 20
4.015255
 10
-2.129197
 20
3.957176999999999
 10
-2.157791
 20
3.873055
  0
LWPOLYLINE
  5
2A8
330
1E
100
AcDbEntity
  8
LAYER_1
  6
Continuous
 62
     7
100
AcDbPolyline
 90
        4
 70
     0
 43
0.0
 10
-2.157791
 20
3.873055
 10
-2.135125999999999
 20
3.787144999999999
 10
-2.069881
 20
3.724366
 10
-1.975929
 20
3.698066999999999
  0
SOLID
  5
2AE
330
1E
100
AcDbEntity
  8
LAYER_1
  6
Continuous
 62
     7
100
AcDbTrace
 10
-2.495759999999999
 20
4.081802999999999
 30
0.0
 11
-1.995034999999999
 21
4.081802999999999
 31
0.0
 12
-2.495759999999999
 22
4.095991999999999
 32
0.0
 13
-1.995034999999999
 23
4.095991999999999
 33
0.0
  0
LWPOLYLINE
  5
2AF
330
1E
100
AcDbEntity
  8
LAYER_1
  6
Continuous
 62
     7
100
AcDbPolyline
 90
        4
 70
     1
 43
0.0
 10
-2.495759999999999
 20
4.081802999999999
 10
-1.995034999999999
 20
4.081802999999999
 10
-1.995034999999999
 20
4.095991999999999
 10
-2.495759999999999
 20
4.095991999999999
  0
LWPOLYLINE
  5
2B5
330
1E
100
AcDbEntity
  8
LAYER_1
  6
Continuous
 62
     7
100
AcDbPolyline
 90
        4
 70
     1
 43
0.0
 10
-2.495759999999999
 20
4.081802999999999
 10
-1.995034999999999
 20
4.081802999999999
 10
-1.995034999999999
 20
4.095991999999999
 10
-2.495759999999999
 20
4.095991999999999
  0
SOLID
  5
2BB
330
1E
100
AcDbEntity
  8
LAYER_1
  6
Continuous
 62
     7
100
AcDbTrace
 10
-2.496843
 20
4.096969
 30
0.0
 11
-2.24648
 21
4.096969
 31
0.0
 12
-2.496843
 22
4.111157
 32
0.0
 13
-2.24648
 23
4.111157
 33
0.0
  0
LWPOLYLINE
  5
2BC
330
1E
100
AcDbEntity
  8
LAYER_1
  6
Continuous
 62
     7
100
AcDbPolyline
 90
        4
 70
     1
 43
0.0
 10
-2.496843
 20
4.096969
 10
-2.24648
 20
4.096969
 10
-2.24648
 20
4.111157
 10
-2.496843
 20
4.111157
  0
LWPOLYLINE
  5
2C2
330
1E
100
AcDbEntity
  8
LAYER_1
  6
Continuous
 62
     7
100
AcDbPolyline
 90
        4
 70
     1
 43
0.0
 10
-2.496843
 20
4.096969
 10
-2.24648
 20
4.096969
 10
-2.24648
 20
4.111157
 10
-2.496843
 20
4.111157
  0
TEXT
  5
2C8
330
1E
100
AcDbEntity
  8
LAYER_1
 62
     7
100
AcDbText
 10
3.732845999999999
 20
4.133512
 30
0.0
 40
0.111024
  1
-20
 41
0.5944747779032948
  7
SN0
 72
     5
 11
3.927705999999999
 21
4.133512
 31
0.0
100
AcDbText
  0
TEXT
  5
2C9
330
1E
100
AcDbEntity
  8
LAYER_1
 62
     7
100
AcDbText
 10
3.677551
 20
2.566818999999999
 30
0.0
 40
0.111024
  1
+20
 41
0.6969046797205131
  7
SN0
 72
     5
 11
3.905986
 21
2.566818999999999
 31
0.0
100
AcDbText
  0
TEXT
  5
2CA
330
1E
100
AcDbEntity
  8
LAYER_1
 62
     7
100
AcDbText
 10
1.831299
 20
2.765709
 30
0.0
 40
0.111024
  1
50 deg
 41
0.6784699900374058
  7
SN0
 72
     5
 11
2.243800999999999
 21
2.765709
 31
0.0
100
AcDbText
  0
LWPOLYLINE
  5
2CB
330
1E
100
AcDbEntity
  8
LAYER_1
  6
Continuous
 62
     7
100
AcDbPolyline
 90
        4
 70
     1
 43
0.0
 10
-1.656802999999999
 20
4.093456999999999
 10
-0.484374
 20
3.984693
 10
-0.5308460000000001
 20
3.483665
 10
-1.703275999999999
 20
3.592429
  0
LWPOLYLINE
  5
2D1
330
1E
100
AcDbEntity
  8
LAYER_1
  6
Continuous
 62
     7
100
AcDbPolyline
 90
        2
 70
     0
 43
0.0
 10
-0.299803
 20
3.712527999999999
 10
-0.59711
 20
3.740094
  0
LWPOLYLINE
  5
2D5
330
1E
100
AcDbEntity
  8
LAYER_1
  6
Continuous
 62
     7
100
AcDbPolyline
 90
        4
 70
     1
 43
0.0
 10
-0.7899840000000001
 20
4.012692999999999
 10
-0.8364689999999999
 20
3.511665
 10
-0.914929
 20
3.518941
 10
-0.8684569999999999
 20
4.019984
  0
LWPOLYLINE
  5
2DB
330
1E
100
AcDbEntity
  8
LAYER_1
  6
Continuous
 62
     7
100
AcDbPolyline
 90
        4
 70
     1
 43
0.0
 10
-0.282429
 20
3.925263999999999
 10
-0.198457
 20
3.918205
 10
-0.234732
 20
3.486055
 10
-0.318705
 20
3.493109999999999
  0
LWPOLYLINE
  5
2E1
330
1E
100
AcDbEntity
  8
LAYER_1
  6
Continuous
 62
     7
100
AcDbPolyline
 90
        4
 70
     1
 43
0.0
 10
-0.5144840000000001
 20
3.580094
 10
-0.489291
 20
3.880094
 10
-0.290319
 20
3.863386
 10
-0.315496
 20
3.563385999999999
  0
LWPOLYLINE
  5
2E7
330
1E
100
AcDbEntity
  8
LAYER_1
  6
Continuous
 62
     7
100
AcDbPolyline
 90
        4
 70
     1
 43
0.0
 10
0.015819
 20
3.534083
 10
-0.481819
 20
3.575858
 10
-0.476874
 20
3.634637999999999
 10
0.020748
 20
3.592845999999999
  0
LWPOLYLINE
  5
2ED
330
1E
100
AcDbEntity
  8
LAYER_1
  6
Continuous
 62
     7
100
AcDbPolyline
 90
        4
 70
     1
 43
0.0
 10
0.036984
 20
3.786264
 10
-0.460638
 20
3.828055
 10
-0.4557050000000001
 20
3.886819
 10
0.041913
 20
3.845038999999999
  0
LWPOLYLINE
  5
2F3
330
1E
100
AcDbEntity
  8
LAYER_1
  6
Continuous
 62
     7
100
AcDbPolyline
 90
        2
 70
     0
 43
0.0
 10
-0.165
 20
3.530512
 10
-0.135358
 20
3.8835
  0
LWPOLYLINE
  5
2F7
330
1E
100
AcDbEntity
  8
LAYER_1
  6
Continuous
 62
     7
100
AcDbPolyline
 90
        2
 70
     0
 43
0.0
 10
-0.140512
 20
3.528469
 10
-0.110858
 20
3.881457
  0
LWPOLYLINE
  5
2FB
330
1E
100
AcDbEntity
  8
LAYER_1
  6
Continuous
 62
     7
100
AcDbPolyline
 90
        2
 70
     0
 43
0.0
 10
-0.116028
 20
3.526412999999999
 10
-0.086386
 20
3.879401999999999
  0
LWPOLYLINE
  5
2FF
330
1E
100
AcDbEntity
  8
LAYER_1
  6
Continuous
 62
     7
100
AcDbPolyline
 90
        2
 70
     0
 43
0.0
 10
-0.091539
 20
3.524358
 10
-0.061886
 20
3.877345999999999
  0
LWPOLYLINE
  5
303
330
1E
100
AcDbEntity
  8
LAYER_1
  6
Continuous
 62
     7
100
AcDbPolyline
 90
        2
 70
     0
 43
0.0
 10
-0.067055
 20
3.522291
 10
-0.037413
 20
3.875291
  0
LWPOLYLINE
  5
307
330
1E
100
AcDbEntity
  8
LAYER_1
  6
Continuous
 62
     7
100
AcDbPolyline
 90
        2
 70
     0
 43
0.0
 10
-0.042567
 20
3.520248
 10
-0.012913
 20
3.873231999999999
  0
LWPOLYLINE
  5
30B
330
1E
100
AcDbEntity
  8
LAYER_1
  6
Continuous
 62
     7
100
AcDbPolyline
 90
        2
 70
     0
 43
0.0
 10
-0.018083
 20
3.518176999999999
 10
0.011567
 20
3.871164999999999
  0
LWPOLYLINE
  5
30F
330
1E
100
AcDbEntity
  8
LAYER_1
  6
Continuous
 62
     7
100
AcDbPolyline
 90
        2
 70
     0
 43
0.0
 10
0.006413
 20
3.516122
 10
0.036067
 20
3.869121999999999
  0
LWPOLYLINE
  5
313
330
1E
100
AcDbEntity
  8
LAYER_1
  6
Continuous
 62
     7
100
AcDbPolyline
 90
        4
 70
     1
 43
0.0
 10
-0.118248
 20
3.519719999999999
 10
-0.086913
 20
3.892941
 10
-0.028138
 20
3.887999999999999
 10
-0.059484
 20
3.514776
  0
LWPOLYLINE
  5
319
330
1E
100
AcDbEntity
  8
LAYER_1
  6
Continuous
 62
     7
100
AcDbPolyline
 90
        4
 70
     1
 43
0.0
 10
0.096665
 20
0.142248
 10
-0.285886
 20
-0.178748
 10
-0.323791
 20
-0.133567
 10
0.058748
 20
0.187429
  0
LWPOLYLINE
  5
31F
330
1E
100
AcDbEntity
  8
LAYER_1
  6
Continuous
 62
     7
100
AcDbPolyline
 90
        4
 70
     1
 43
0.0
 10
-0.156386
 20
0.4438310000000001
 10
-0.538941
 20
0.122846
 10
-0.576846
 20
0.168028
 10
-0.194303
 20
0.489012
  0
LWPOLYLINE
  5
325
330
1E
100
AcDbEntity
  8
LAYER_1
  6
Continuous
 62
     7
100
AcDbPolyline
 90
        2
 70
     0
 43
0.0
 10
-0.036374
 20
0.020957
 10
-0.339984
 20
0.382764
  0
LWPOLYLINE
  5
329
330
1E
100
AcDbEntity
  8
LAYER_1
  6
Continuous
 62
     7
100
AcDbPolyline
 90
        2
 70
     0
 43
0.0
 10
-0.017555
 20
0.036748
 10
-0.32115
 20
0.398567
  0
LWPOLYLINE
  5
32D
330
1E
100
AcDbEntity
  8
LAYER_1
  6
Continuous
 62
     7
100
AcDbPolyline
 90
        2
 70
     0
 43
0.0
 10
0.001264
 20
0.052555
 10
-0.302331
 20
0.414374
  0
LWPOLYLINE
  5
331
330
1E
100
AcDbEntity
  8
LAYER_1
  6
Continuous
 62
     7
100
AcDbPolyline
 90
        2
 70
     0
 43
0.0
 10
0.020094
 20
0.068346
 10
-0.283496
 20
0.43015
  0
LWPOLYLINE
  5
335
330
1E
100
AcDbEntity
  8
LAYER_1
  6
Continuous
 62
     7
100
AcDbPolyline
 90
        2
 70
     0
 43
0.0
 10
0.038913
 20
0.08415
 10
-0.264677
 20
0.4459570000000001
  0
LWPOLYLINE
  5
339
330
1E
100
AcDbEntity
  8
LAYER_1
  6
Continuous
 62
     7
100
AcDbPolyline
 90
        2
 70
     0
 43
0.0
 10
0.057748
 20
0.099929
 10
-0.245858
 20
0.461748
  0
LWPOLYLINE
  5
33D
330
1E
100
AcDbEntity
  8
LAYER_1
  6
Continuous
100
AcDbPolyline
 90
       12
 70
     1
 43
0.0
 10
-0.144638
 20
0.2755
 10
-0.15336
 20
0.262843
 10
-0.154526
 20
0.247836
 10
-0.147886
 20
0.233677
 10
-0.135094
 20
0.224674
 10
-0.120116
 20
0.223218
 10
-0.106138
 20
0.22961
 10
-0.097408
 20
0.242268
 10
-0.096245
 20
0.257273
 10
-0.102886
 20
0.271429
 10
-0.11567
 20
0.280428
 10
-0.130649
 20
0.281887
  0
LWPOLYLINE
  5
34B
330
1E
100
AcDbEntity
  8
LAYER_1
  6
Continuous
 62
     7
100
AcDbPolyline
 90
        4
 70
     0
 43
0.0
 10
-0.144638
 20
0.2755
 10
-0.15336
 20
0.262843
 10
-0.154526
 20
0.247836
 10
-0.147886
 20
0.233677
  0
LWPOLYLINE
  5
351
330
1E
100
AcDbEntity
  8
LAYER_1
  6
Continuous
 62
     7
100
AcDbPolyline
 90
        4
 70
     0
 43
0.0
 10
-0.147886
 20
0.233677
 10
-0.135094
 20
0.224674
 10
-0.120116
 20
0.223218
 10
-0.106138
 20
0.22961
  0
LWPOLYLINE
  5
357
330
1E
100
AcDbEntity
  8
LAYER_1
  6
Continuous
 62
     7
100
AcDbPolyline
 90
        4
 70
     0
 43
0.0
 10
-0.106138
 20
0.22961
 10
-0.097408
 20
0.242268
 10
-0.096245
 20
0.257273
 10
-0.102886
 20
0.271429
  0
LWPOLYLINE
  5
35D
330
1E
100
AcDbEntity
  8
LAYER_1
  6
Continuous
 62
     7
100
AcDbPolyline
 90
        4
 70
     0
 43
0.0
 10
-0.102886
 20
0.271429
 10
-0.11567
 20
0.280428
 10
-0.130649
 20
0.281887
 10
-0.144638
 20
0.2755
  0
LWPOLYLINE
  5
363
330
1E
100
AcDbEntity
  8
LAYER_1
  6
Continuous
 62
     7
100
AcDbPolyline
 90
        2
 70
     0
 43
0.0
 10
0.076567
 20
0.115732
 10
-0.227028
 20
0.477555
  0
LWPOLYLINE
  5
367
330
1E
100
AcDbEntity
  8
LAYER_1
  6
Continuous
 62
     7
100
AcDbPolyline
 90
        2
 70
     0
 43
0.0
 10
0.095402
 20
0.131528
 10
-0.208205
 20
0.4933460000000001
  0
TEXT
  5
36B
330
1E
100
AcDbEntity
  8
LAYER_1
 62
     7
100
AcDbText
 10
2.912638
 20
2.333345999999999
 30
0.0
 40
0.111024
  1
30 deg
 41
0.6784699900374064
  7
SN0
 72
     5
 11
3.32514
 21
2.333345999999999
 31
0.0
100
AcDbText
  0
LWPOLYLINE
  5
36C
330
1E
100
AcDbEntity
  8
LAYER_1
  6
Continuous
 62
     7
100
AcDbPolyline
 90
        4
 70
     0
 43
0.0
 10
1.506885999999999
 20
3.109775999999999
 10
1.508
 20
3.109728
 10
1.515798999999999
 20
3.109398
 10
1.536969
 20
3.108499999999999
  0
LWPOLYLINE
  5
372
330
1E
100
AcDbEntity
  8
LAYER_1
  6
Continuous
 62
     7
100
AcDbPolyline
 90
        4
 70
     0
 43
0.0
 10
1.536969
 20
3.108499999999999
 10
1.576051
 20
3.106648999999999
 10
1.629077999999999
 20
3.103088
 10
1.689929
 20
3.096969
  0
LWPOLYLINE
  5
378
330
1E
100
AcDbEntity
  8
LAYER_1
  6
Continuous
 62
     7
100
AcDbPolyline
 90
        4
 70
     0
 43
0.0
 10
1.689929
 20
3.096969
 10
1.753327999999999
 20
3.087657
 10
1.817441999999999
 20
3.075359999999999
 10
1.881275999999999
 20
3.0605
  0
LWPOLYLINE
  5
37E
330
1E
100
AcDbEntity
  8
LAYER_1
  6
Continuous
 62
     7
100
AcDbPolyline
 90
        4
 70
     0
 43
0.0
 10
1.881275999999999
 20
3.0605
 10
1.943997999999999
 20
3.043384
 10
2.005438999999999
 20
3.023846999999999
 10
2.065593999999999
 20
3.001609999999999
  0
LWPOLYLINE
  5
384
330
1E
100
AcDbEntity
  8
LAYER_1
  6
Continuous
 62
     7
100
AcDbPolyline
 90
        4
 70
     0
 43
0.0
 10
2.065593999999999
 20
3.001609999999999
 10
2.124499999999999
 20
2.976461999999999
 10
2.182263
 20
2.94847
 10
2.239039
 20
2.917775999999999
  0
LWPOLYLINE
  5
38A
330
1E
100
AcDbEntity
  8
LAYER_1
  6
Continuous
 62
     7
100
AcDbPolyline
 90
        4
 70
     0
 43
0.0
 10
2.239039
 20
2.917775999999999
 10
2.294694999999999
 20
2.884711
 10
2.348073999999999
 20
2.850367999999999
 10
2.397747999999999
 20
2.816027999999999
  0
LWPOLYLINE
  5
390
330
1E
100
AcDbEntity
  8
LAYER_1
  6
Continuous
 62
     7
100
AcDbPolyline
 90
        4
 70
     0
 43
0.0
 10
2.397747999999999
 20
2.816027999999999
 10
2.442810999999999
 20
2.782500999999999
 10
2.484316999999999
 20
2.748836999999999
 10
2.523830999999999
 20
2.713609999999999
  0
LWPOLYLINE
  5
396
330
1E
100
AcDbEntity
  8
LAYER_1
  6
Continuous
 62
     7
100
AcDbPolyline
 90
        4
 70
     0
 43
0.0
 10
2.523830999999999
 20
2.713609999999999
 10
2.56197
 20
2.676565999999999
 10
2.595555
 20
2.642077999999999
 10
2.620468999999999
 20
2.615692999999999
  0
LWPOLYLINE
  5
39C
330
1E
100
AcDbEntity
  8
LAYER_1
  6
Continuous
 62
     7
100
AcDbPolyline
 90
        4
 70
     0
 43
0.0
 10
2.620468999999999
 20
2.615692999999999
 10
2.633977
 20
2.601285999999999
 10
2.638954
 20
2.595979
 10
2.639664999999999
 20
2.595219999999999
  0
SOLID
  5
3A2
330
1E
100
AcDbEntity
  8
LAYER_1
  6
Continuous
 62
     7
100
AcDbTrace
 10
2.586440999999999
 20
2.696902
 30
0.0
 11
2.639676999999999
 21
2.595219999999999
 31
0.0
 12
2.586440999999999
 22
2.696902
 32
0.0
 13
2.541638
 23
2.654885999999999
 33
0.0
  0
LWPOLYLINE
  5
3A3
330
1E
100
AcDbEntity
  8
LAYER_1
  6
Continuous
 62
     7
100
AcDbPolyline
 90
        3
 70
     1
 43
0.0
 10
2.586440999999999
 20
2.696902
 10
2.639676999999999
 20
2.595219999999999
 10
2.541638
 20
2.654885999999999
  0
LWPOLYLINE
  5
3A8
330
1E
100
AcDbEntity
  8
LAYER_1
  6
Continuous
 62
     7
100
AcDbPolyline
 90
        3
 70
     0
 43
0.0
 10
2.586440999999999
 20
2.696902
 10
2.639676999999999
 20
2.595219999999999
 10
2.541638
 20
2.654885999999999
  0
LWPOLYLINE
  5
3AD
330
1E
100
AcDbEntity
  8
LAYER_1
  6
Continuous
 62
     7
100
AcDbPolyline
 90
        4
 70
     0
 43
0.0
 10
2.662776
 20
2.577512
 10
2.663415999999999
 20
2.576706
 10
2.667895
 20
2.571063
 10
2.680054999999999
 20
2.555747999999999
  0
LWPOLYLINE
  5
3B3
330
1E
100
AcDbEntity
  8
LAYER_1
  6
Continuous
 62
     7
100
AcDbPolyline
 90
        4
 70
     0
 43
0.0
 10
2.680054999999999
 20
2.555747999999999
 10
2.702437999999999
 20
2.527428
 10
2.732352
 20
2.488716999999999
 10
2.765819
 20
2.443747999999999
  0
LWPOLYLINE
  5
3B9
330
1E
100
AcDbEntity
  8
LAYER_1
  6
Continuous
 62
     7
100
AcDbPolyline
 90
        4
 70
     0
 43
0.0
 10
2.765819
 20
2.443747999999999
 10
2.799284
 20
2.396016999999999
 10
2.830906
 20
2.346432
 10
2.859263999999999
 20
2.295275999999999
  0
LWPOLYLINE
  5
3BF
330
1E
100
AcDbEntity
  8
LAYER_1
  6
Continuous
 62
     7
100
AcDbPolyline
 90
        4
 70
     0
 43
0.0
 10
2.859263999999999
 20
2.295275999999999
 10
2.883414
 20
2.24268
 10
2.904436999999999
 20
2.188091999999999
 10
2.923902
 20
2.130802999999999
  0
LWPOLYLINE
  5
3C5
330
1E
100
AcDbEntity
  8
LAYER_1
  6
Continuous
 62
     7
100
AcDbPolyline
 90
        4
 70
     0
 43
0.0
 10
2.923902
 20
2.130802999999999
 10
2.942743
 20
2.071591
 10
2.959456
 20
2.017208999999999
 10
2.971902
 20
1.975913
  0
LWPOLYLINE
  5
3CB
330
1E
100
AcDbEntity
  8
LAYER_1
  6
Continuous
 62
     7
100
AcDbPolyline
 90
        4
 70
     0
 43
0.0
 10
2.971902
 20
1.975913
 10
2.978655999999999
 20
1.953395
 10
2.981145
 20
1.945099
 10
2.9815
 20
1.943913
  0
SOLID
  5
3D1
330
1E
100
AcDbEntity
  8
LAYER_1
  6
Continuous
 62
     7
100
AcDbTrace
 10
2.979138
 20
2.058676999999999
 30
0.0
 11
2.9815
 21
1.943913
 31
0.0
 12
2.979138
 22
2.058676999999999
 32
0.0
 13
2.920303
 23
2.041027999999999
 33
0.0
  0
LWPOLYLINE
  5
3D2
330
1E
100
AcDbEntity
  8
LAYER_1
  6
Continuous
 62
     7
100
AcDbPolyline
 90
        3
 70
     1
 43
0.0
 10
2.979138
 20
2.058676999999999
 10
2.9815
 20
1.943913
 10
2.920303
 20
2.041027999999999
  0
LWPOLYLINE
  5
3D7
330
1E
100
AcDbEntity
  8
LAYER_1
  6
Continuous
 62
     7
100
AcDbPolyline
 90
        3
 70
     0
 43
0.0
 10
2.979138
 20
2.058676999999999
 10
2.9815
 20
1.943913
 10
2.920303
 20
2.041027999999999
  0
LWPOLYLINE
  5
3DC
330
1E
100
AcDbEntity
  8
LAYER_1
  6
DASHED
 62
     7
100
AcDbPolyline
 90
        2
 70
     0
 43
0.0
 10
2.19072
 20
1.732204999999999
 10
3.063149999999999
 20
1.891941
  0
LWPOLYLINE
  5
3E0
330
1E
100
AcDbEntity
  8
LAYER_1
  6
DASHED
 62
     7
100
AcDbPolyline
 90
        2
 70
     0
 43
0.0
 10
1.502609999999999
 20
1.656193
 10
1.502609999999999
 20
3.302763999999999
  0
LWPOLYLINE
  5
3E4
330
1E
100
AcDbEntity
  8
LAYER_1
  6
Continuous
 62
     7
100
AcDbPolyline
 90
        2
 70
     0
 43
0.0
 10
1.498763999999999
 20
3.742819
 10
1.508747999999999
 20
3.474791
  0
LWPOLYLINE
  5
3E8
330
1E
100
AcDbEntity
  8
LAYER_1
  6
Continuous
 62
     7
100
AcDbPolyline
 90
        2
 70
     0
 43
0.0
 10
1.615499999999999
 20
3.726693
 10
1.521803
 20
3.474791
  0
LWPOLYLINE
  5
3EC
330
1E
100
AcDbEntity
  8
LAYER_1
  6
Continuous
 62
     7
100
AcDbPolyline
 90
        4
 70
     0
 43
0.0
 10
-2.472512
 20
-1.640011999999999
 10
-2.472512
 20
1.385858
 10
-1.747527999999999
 20
1.385858
 10
-1.738318999999999
 20
-1.683028
  0
TEXT
  5
3F2
330
1E
100
AcDbEntity
  8
LAYER_1
 62
     7
100
AcDbText
 10
3.775858
 20
3.396248
 30
0.0
 40
0.111024
  1
-2
 41
0.5400363885286048
  7
SN0
 72
     5
 11
3.895772
 21
3.396248
 31
0.0
100
AcDbText
  0
LWPOLYLINE
  5
3F3
330
1E
100
AcDbEntity
  8
LAYER_1
  6
Continuous
 62
     7
100
AcDbPolyline
 90
        4
 70
     0
 43
0.0
 10
3.701205
 20
3.465149999999999
 10
3.700139
 20
3.465289999999999
 10
3.692679
 20
3.466269
 10
3.672429
 20
3.468929
  0
LWPOLYLINE
  5
3F9
330
1E
100
AcDbEntity
  8
LAYER_1
  6
Continuous
 62
     7
100
AcDbPolyline
 90
        4
 70
     0
 43
0.0
 10
3.672429
 20
3.468929
 10
3.634579
 20
3.473908999999999
 10
3.580648
 20
3.480998999999999
 10
3.513732
 20
3.489802999999999
  0
LWPOLYLINE
  5
3FF
330
1E
100
AcDbEntity
  8
LAYER_1
  6
Continuous
 62
     7
100
AcDbPolyline
 90
        4
 70
     0
 43
0.0
 10
3.513732
 20
3.489802999999999
 10
3.436955999999999
 20
3.499921
 10
3.353459999999999
 20
3.510926999999999
 10
3.266413
 20
3.522386
  0
LWPOLYLINE
  5
405
330
1E
100
AcDbEntity
  8
LAYER_1
  6
Continuous
 62
     7
100
AcDbPolyline
 90
        4
 70
     0
 43
0.0
 10
3.266413
 20
3.522386
 10
3.178453999999999
 20
3.533922
 10
3.090171999999999
 20
3.545471
 10
3.001638
 20
3.557027999999999
  0
LWPOLYLINE
  5
40B
330
1E
100
AcDbEntity
  8
LAYER_1
  6
Continuous
 62
     7
100
AcDbPolyline
 90
        4
 70
     0
 43
0.0
 10
3.001638
 20
3.557027999999999
 10
2.912913999999999
 20
3.568595999999999
 10
2.824084999999999
 20
3.580163999999999
 10
2.735247999999999
 20
3.591731999999999
  0
LWPOLYLINE
  5
411
330
1E
100
AcDbEntity
  8
LAYER_1
  6
Continuous
 62
     7
100
AcDbPolyline
 90
        4
 70
     0
 43
0.0
 10
2.735247999999999
 20
3.591731999999999
 10
2.646492999999999
 20
3.603294
 10
2.557771999999999
 20
3.614822
 10
2.469027999999999
 20
3.626291
  0
LWPOLYLINE
  5
417
330
1E
100
AcDbEntity
  8
LAYER_1
  6
Continuous
 62
     7
100
AcDbPolyline
 90
        4
 70
     0
 43
0.0
 10
2.469027999999999
 20
3.626291
 10
2.380186999999999
 20
3.637662999999999
 10
2.291348
 20
3.648944
 10
2.202609999999999
 20
3.660122
  0
LWPOLYLINE
  5
41D
330
1E
100
AcDbEntity
  8
LAYER_1
  6
Continuous
 62
     7
100
AcDbPolyline
 90
        4
 70
     0
 43
0.0
 10
2.202609999999999
 20
3.660122
 10
2.114059999999999
 20
3.671187
 10
2.025832999999999
 20
3.682108999999999
 10
1.938054999999999
 20
3.692858
  0
LWPOLYLINE
  5
423
330
1E
100
AcDbEntity
  8
LAYER_1
  6
Continuous
 62
     7
100
AcDbPolyline
 90
        4
 70
     0
 43
0.0
 10
1.938054999999999
 20
3.692858
 10
1.851053999999999
 20
3.703393
 10
1.765991999999999
 20
3.713701
 10
1.684231999999999
 20
3.723764
  0
LWPOLYLINE
  5
429
330
1E
100
AcDbEntity
  8
LAYER_1
  6
Continuous
 62
     7
100
AcDbPolyline
 90
        4
 70
     0
 43
0.0
 10
1.684231999999999
 20
3.723764
 10
1.606451
 20
3.733637
 10
1.530554999999999
 20
3.743635999999999
 10
1.453763999999999
 20
3.75415
  0
LWPOLYLINE
  5
42F
330
1E
100
AcDbEntity
  8
LAYER_1
  6
Continuous
 62
     7
100
AcDbPolyline
 90
        4
 70
     0
 43
0.0
 10
1.453763999999999
 20
3.75415
 10
1.373909999999999
 20
3.76546
 10
1.29119
 20
3.777388999999999
 10
1.206401999999999
 20
3.789649999999999
  0
LWPOLYLINE
  5
435
330
1E
100
AcDbEntity
  8
LAYER_1
  6
Continuous
 62
     7
100
AcDbPolyline
 90
        4
 70
     0
 43
0.0
 10
1.206401999999999
 20
3.789649999999999
 10
1.120276
 20
3.801984999999999
 10
1.033270999999999
 20
3.814248
 10
0.945776
 20
3.826330999999999
  0
LWPOLYLINE
  5
43B
330
1E
100
AcDbEntity
  8
LAYER_1
  6
Continuous
 62
     7
100
AcDbPolyline
 90
        4
 70
     0
 43
0.0
 10
0.945776
 20
3.826330999999999
 10
0.8581139999999999
 20
3.838169999999999
 10
0.770346
 20
3.849783999999999
 10
0.6824690000000001
 20
3.861231999999999
  0
LWPOLYLINE
  5
441
330
1E
100
AcDbEntity
  8
LAYER_1
  6
Continuous
 62
     7
100
AcDbPolyline
 90
        4
 70
     0
 43
0.0
 10
0.6824690000000001
 20
3.861231999999999
 10
0.5945020000000002
 20
3.872569999999999
 10
0.5065020000000001
 20
3.883780999999999
 10
0.418528
 20
3.894830999999999
  0
LWPOLYLINE
  5
447
330
1E
100
AcDbEntity
  8
LAYER_1
  6
Continuous
 62
     7
100
AcDbPolyline
 90
        4
 70
     0
 43
0.0
 10
0.418528
 20
3.894830999999999
 10
0.330627
 20
3.905682
 10
0.242749
 20
3.916341
 10
0.154831
 20
3.926802999999999
  0
LWPOLYLINE
  5
44D
330
1E
100
AcDbEntity
  8
LAYER_1
  6
Continuous
 62
     7
100
AcDbPolyline
 90
        4
 70
     0
 43
0.0
 10
0.154831
 20
3.926802999999999
 10
0.066825
 20
3.937076
 10
-0.021255
 20
3.947123999999999
 10
-0.109374
 20
3.956912999999999
  0
LWPOLYLINE
  5
453
330
1E
100
AcDbEntity
  8
LAYER_1
  6
Continuous
 62
     7
100
AcDbPolyline
 90
        4
 70
     0
 43
0.0
 10
-0.109374
 20
3.956912999999999
 10
-0.1975
 20
3.966426
 10
-0.285605
 20
3.975705
 10
-0.37365
 20
3.984819
  0
LWPOLYLINE
  5
459
330
1E
100
AcDbEntity
  8
LAYER_1
  6
Continuous
 62
     7
100
AcDbPolyline
 90
        4
 70
     0
 43
0.0
 10
-0.37365
 20
3.984819
 10
-0.461613
 20
3.993822
 10
-0.5495220000000001
 20
4.002657
 10
-0.637402
 20
4.011263999999999
  0
LWPOLYLINE
  5
45F
330
1E
100
AcDbEntity
  8
LAYER_1
  6
Continuous
 62
     7
100
AcDbPolyline
 90
        4
 70
     0
 43
0.0
 10
-0.637402
 20
4.011263999999999
 10
-0.7252840000000001
 20
4.019591999999999
 10
-0.813179
 20
4.027663999999999
 10
-0.901083
 20
4.035512
  0
LWPOLYLINE
  5
465
330
1E
100
AcDbEntity
  8
LAYER_1
  6
Continuous
 62
     7
100
AcDbPolyline
 90
        4
 70
     0
 43
0.0
 10
-0.901083
 20
4.035512
 10
-0.9889839999999999
 20
4.043146
 10
-1.076859999999999
 20
4.050553999999999
 10
-1.164676999999999
 20
4.057705
  0
LWPOLYLINE
  5
46B
330
1E
100
AcDbEntity
  8
LAYER_1
  6
Continuous
 62
     7
100
AcDbPolyline
 90
        4
 70
     0
 43
0.0
 10
-1.164676999999999
 20
4.057705
 10
-1.252423
 20
4.064561
 10
-1.340079999999999
 20
4.071127999999999
 10
-1.42765
 20
4.077401999999999
  0
LWPOLYLINE
  5
471
330
1E
100
AcDbEntity
  8
LAYER_1
  6
Continuous
 62
     7
100
AcDbPolyline
 90
        4
 70
     0
 43
0.0
 10
-1.42765
 20
4.077401999999999
 10
-1.515137
 20
4.083377999999999
 10
-1.602565
 20
4.089057
 10
-1.689968999999999
 20
4.094441
  0
LWPOLYLINE
  5
477
330
1E
100
AcDbEntity
  8
LAYER_1
  6
Continuous
 62
     7
100
AcDbPolyline
 90
        4
 70
     0
 43
0.0
 10
-1.689968999999999
 20
4.094441
 10
-1.777370999999999
 20
4.099528
 10
-1.864722
 20
4.104294999999999
 10
-1.951956999999999
 20
4.108705
  0
LWPOLYLINE
  5
47D
330
1E
100
AcDbEntity
  8
LAYER_1
  6
Continuous
 62
     7
100
AcDbPolyline
 90
        4
 70
     0
 43
0.0
 10
-1.951956999999999
 20
4.108705
 10
-2.039029
 20
4.112716
 10
-2.125986999999999
 20
4.116334999999999
 10
-2.212902
 20
4.119566999999999
  0
LWPOLYLINE
  5
483
330
1E
100
AcDbEntity
  8
LAYER_1
  6
Continuous
 62
     7
100
AcDbPolyline
 90
        4
 70
     0
 43
0.0
 10
-2.212902
 20
4.119566999999999
 10
-2.299797
 20
4.122404
 10
-2.386638
 20
4.124855999999999
 10
-2.473358
 20
4.126913
  0
LWPOLYLINE
  5
489
330
1E
100
AcDbEntity
  8
LAYER_1
  6
Continuous
 62
     7
100
AcDbPolyline
 90
        4
 70
     0
 43
0.0
 10
-2.473358
 20
4.126913
 10
-2.559922999999999
 20
4.128562999999999
 10
-2.646309
 20
4.129787999999999
 10
-2.732511999999999
 20
4.130555
  0
LWPOLYLINE
  5
48F
330
1E
100
AcDbEntity
  8
LAYER_1
  6
Continuous
 62
     7
100
AcDbPolyline
 90
        4
 70
     0
 43
0.0
 10
-2.732511999999999
 20
4.130555
 10
-2.818531
 20
4.130830999999999
 10
-2.904342999999999
 20
4.13058
 10
-2.989912999999999
 20
4.129763999999999
  0
LWPOLYLINE
  5
495
330
1E
100
AcDbEntity
  8
LAYER_1
  6
Continuous
 62
     7
100
AcDbPolyline
 90
        4
 70
     0
 43
0.0
 10
-2.989912999999999
 20
4.129763999999999
 10
-3.075216
 20
4.128365
 10
-3.16025
 20
4.126368
 10
-3.245012
 20
4.123776
  0
LWPOLYLINE
  5
49B
330
1E
100
AcDbEntity
  8
LAYER_1
  6
Continuous
 62
     7
100
AcDbPolyline
 90
        4
 70
     0
 43
0.0
 10
-3.245012
 20
4.123776
 10
-3.329496999999999
 20
4.120594999999999
 10
-3.413679
 20
4.116785
 10
-3.497530999999999
 20
4.112319
  0
LWPOLYLINE
  5
4A1
330
1E
100
AcDbEntity
  8
LAYER_1
  6
Continuous
 62
     7
100
AcDbPolyline
 90
        4
 70
     0
 43
0.0
 10
-3.497530999999999
 20
4.112319
 10
-3.581005
 20
4.107133999999999
 10
-3.664017999999999
 20
4.101196999999999
 10
-3.746476
 20
4.094428999999999
  0
LWPOLYLINE
  5
4A7
330
1E
100
AcDbEntity
  8
LAYER_1
  6
Continuous
 62
     7
100
AcDbPolyline
 90
        4
 70
     0
 43
0.0
 10
-3.746476
 20
4.094428999999999
 10
-3.828291
 20
4.086775
 10
-3.909392
 20
4.078224999999999
 10
-3.989712999999999
 20
4.068776
  0
LWPOLYLINE
  5
4AD
330
1E
100
AcDbEntity
  8
LAYER_1
  6
Continuous
 62
     7
100
AcDbPolyline
 90
        4
 70
     0
 43
0.0
 10
-3.989712999999999
 20
4.068776
 10
-4.069162
 20
4.058393999999999
 10
-4.147579
 20
4.047037999999999
 10
-4.224771999999999
 20
4.034638
  0
LWPOLYLINE
  5
4B3
330
1E
100
AcDbEntity
  8
LAYER_1
  6
Continuous
 62
     7
100
AcDbPolyline
 90
        4
 70
     0
 43
0.0
 10
-4.224771999999999
 20
4.034638
 10
-4.300524
 20
4.021130999999999
 10
-4.374562999999999
 20
4.00649
 10
-4.446598
 20
3.990705
  0
LWPOLYLINE
  5
4B9
330
1E
100
AcDbEntity
  8
LAYER_1
  6
Continuous
 62
     7
100
AcDbPolyline
 90
        4
 70
     0
 43
0.0
 10
-4.446598
 20
3.990705
 10
-4.516253999999999
 20
3.973812999999999
 10
-4.58283
 20
3.955963999999999
 10
-4.645542999999999
 20
3.937358
  0
LWPOLYLINE
  5
4BF
330
1E
100
AcDbEntity
  8
LAYER_1
  6
Continuous
 62
     7
100
AcDbPolyline
 90
        4
 70
     0
 43
0.0
 10
-4.645542999999999
 20
3.937358
 10
-4.703637999999999
 20
3.918257
 10
-4.756510999999999
 20
3.899069
 10
-4.803594
 20
3.880264
  0
LWPOLYLINE
  5
4C5
330
1E
100
AcDbEntity
  8
LAYER_1
  6
Continuous
 62
     7
100
AcDbPolyline
 90
        4
 70
     0
 43
0.0
 10
-4.803594
 20
3.880264
 10
-4.8445
 20
3.862246999999999
 10
-4.879528999999999
 20
3.845259999999999
 10
-4.909161
 20
3.829483999999999
  0
LWPOLYLINE
  5
4CB
330
1E
100
AcDbEntity
  8
LAYER_1
  6
Continuous
 62
     7
100
AcDbPolyline
 90
        4
 70
     0
 43
0.0
 10
-4.909161
 20
3.829483999999999
 10
-4.933920999999999
 20
3.815044999999999
 10
-4.954487
 20
3.801851999999999
 10
-4.971574999999999
 20
3.789763999999999
  0
LWPOLYLINE
  5
4D1
330
1E
100
AcDbEntity
  8
LAYER_1
  6
Continuous
 62
     7
100
AcDbPolyline
 90
        4
 70
     0
 43
0.0
 10
-4.971574999999999
 20
3.789763999999999
 10
-4.985852999999999
 20
3.778655
 10
-4.997798999999999
 20
3.768374999999999
 10
-5.007838999999999
 20
3.758776
  0
LWPOLYLINE
  5
4D7
330
1E
100
AcDbEntity
  8
LAYER_1
  6
Continuous
 62
     7
100
AcDbPolyline
 90
        4
 70
     0
 43
0.0
 10
-5.007838999999999
 20
3.758776
 10
-5.016361999999999
 20
3.749715
 10
-5.023604999999999
 20
3.741131999999999
 10
-5.029764
 20
3.732969
  0
LWPOLYLINE
  5
4DD
330
1E
100
AcDbEntity
  8
LAYER_1
  6
Continuous
 62
     7
100
AcDbPolyline
 90
        4
 70
     0
 43
0.0
 10
-5.029764
 20
3.732969
 10
-5.03499
 20
3.725162999999999
 10
-5.039301
 20
3.717686
 10
-5.042660999999999
 20
3.7105
  0
LWPOLYLINE
  5
4E3
330
1E
100
AcDbEntity
  8
LAYER_1
  6
Continuous
 62
     7
100
AcDbPolyline
 90
        4
 70
     0
 43
0.0
 10
-5.042660999999999
 20
3.7105
 10
-5.045048
 20
3.703555999999999
 10
-5.04649
 20
3.696776999999999
 10
-5.047023999999999
 20
3.690066999999999
  0
LWPOLYLINE
  5
4E9
330
1E
100
AcDbEntity
  8
LAYER_1
  6
Continuous
 62
     7
100
AcDbPolyline
 90
        4
 70
     0
 43
0.0
 10
-5.047023999999999
 20
3.690066999999999
 10
-5.046655999999999
 20
3.683359999999999
 10
-5.045315
 20
3.676715
 10
-5.042898
 20
3.670219999999999
  0
LWPOLYLINE
  5
4EF
330
1E
100
AcDbEntity
  8
LAYER_1
  6
Continuous
 62
     7
100
AcDbPolyline
 90
        4
 70
     0
 43
0.0
 10
-5.042898
 20
3.670219999999999
 10
-5.039318999999999
 20
3.663948999999999
 10
-5.034568
 20
3.657869999999999
 10
-5.028646
 20
3.651912999999999
  0
LWPOLYLINE
  5
4F5
330
1E
100
AcDbEntity
  8
LAYER_1
  6
Continuous
 62
     7
100
AcDbPolyline
 90
        4
 70
     0
 43
0.0
 10
-5.028646
 20
3.651912999999999
 10
-5.021539999999999
 20
3.645998999999999
 10
-5.013203999999999
 20
3.640047
 10
-5.003579
 20
3.633957
  0
LWPOLYLINE
  5
4FB
330
1E
100
AcDbEntity
  8
LAYER_1
  6
Continuous
 62
     7
100
AcDbPolyline
 90
        4
 70
     0
 43
0.0
 10
-5.003579
 20
3.633957
 10
-4.992534
 20
3.627635999999999
 10
-4.979718
 20
3.621055
 10
-4.964705
 20
3.614205
  0
LWPOLYLINE
  5
501
330
1E
100
AcDbEntity
  8
LAYER_1
  6
Continuous
 62
     7
100
AcDbPolyline
 90
        4
 70
     0
 43
0.0
 10
-4.964705
 20
3.614205
 10
-4.946988
 20
3.607045999999999
 10
-4.925718999999999
 20
3.599437
 10
-4.899961
 20
3.591219999999999
  0
LWPOLYLINE
  5
507
330
1E
100
AcDbEntity
  8
LAYER_1
  6
Continuous
 62
     7
100
AcDbPolyline
 90
        4
 70
     0
 43
0.0
 10
-4.899961
 20
3.591219999999999
 10
-4.868788999999999
 20
3.582276
 10
-4.831312999999999
 20
3.572724
 10
-4.786654
 20
3.562732
  0
LWPOLYLINE
  5
50D
330
1E
100
AcDbEntity
  8
LAYER_1
  6
Continuous
 62
     7
100
AcDbPolyline
 90
        4
 70
     0
 43
0.0
 10
-4.786654
 20
3.562732
 10
-4.734234999999999
 20
3.552481999999999
 10
-4.674743
 20
3.542276999999999
 10
-4.609169
 20
3.532441
  0
LWPOLYLINE
  5
513
330
1E
100
AcDbEntity
  8
LAYER_1
  6
Continuous
 62
     7
100
AcDbPolyline
 90
        4
 70
     0
 43
0.0
 10
-4.609169
 20
3.532441
 10
-4.538508
 20
3.523262999999999
 10
-4.463731
 20
3.514809999999999
 10
-4.385815
 20
3.507122
  0
LWPOLYLINE
  5
519
330
1E
100
AcDbEntity
  8
LAYER_1
  6
Continuous
 62
     7
100
AcDbPolyline
 90
        4
 70
     0
 43
0.0
 10
-4.385815
 20
3.507122
 10
-4.305634999999999
 20
3.500230999999999
 10
-4.223676
 20
3.49408
 10
-4.140330999999999
 20
3.488622
  0
LWPOLYLINE
  5
51F
330
1E
100
AcDbEntity
  8
LAYER_1
  6
Continuous
 62
     7
100
AcDbPolyline
 90
        4
 70
     0
 43
0.0
 10
-4.140330999999999
 20
3.488622
 10
-4.055956
 20
3.483816
 10
-3.970781999999999
 20
3.479601
 10
-3.885003999999999
 20
3.475912999999999
  0
LWPOLYLINE
  5
525
330
1E
100
AcDbEntity
  8
LAYER_1
  6
Continuous
 62
     7
100
AcDbPolyline
 90
        4
 70
     0
 43
0.0
 10
-3.885003999999999
 20
3.475912999999999
 10
-3.798784999999999
 20
3.472694
 10
-3.712131999999999
 20
3.469882
 10
-3.625016
 20
3.467412999999999
  0
LWPOLYLINE
  5
52B
330
1E
100
AcDbEntity
  8
LAYER_1
  6
Continuous
 62
     7
100
AcDbPolyline
 90
        4
 70
     0
 43
0.0
 10
-3.625016
 20
3.467412999999999
 10
-3.537419999999999
 20
3.46524
 10
-3.449459999999999
 20
3.463333999999999
 10
-3.361267999999999
 20
3.461705
  0
LWPOLYLINE
  5
531
330
1E
100
AcDbEntity
  8
LAYER_1
  6
Continuous
 62
     7
100
AcDbPolyline
 90
        4
 70
     0
 43
0.0
 10
-3.361267999999999
 20
3.461705
 10
-3.272937999999999
 20
3.460372
 10
-3.184474
 20
3.459248999999999
 10
-3.095842999999999
 20
3.458276
  0
LWPOLYLINE
  5
537
330
1E
100
AcDbEntity
  8
LAYER_1
  6
Continuous
 62
     7
100
AcDbPolyline
 90
        4
 70
     0
 43
0.0
 10
-3.095842999999999
 20
3.458276
 10
-3.007016999999999
 20
3.457422
 10
-2.918031
 20
3.45669
 10
-2.828913
 20
3.456122
  0
LWPOLYLINE
  5
53D
330
1E
100
AcDbEntity
  8
LAYER_1
  6
Continuous
 62
     7
100
AcDbPolyline
 90
        4
 70
     0
 43
0.0
 10
-2.828913
 20
3.456122
 10
-2.739683
 20
3.455719
 10
-2.650379999999999
 20
3.455484999999999
 10
-2.561039
 20
3.455385999999999
  0
LWPOLYLINE
  5
543
330
1E
100
AcDbEntity
  8
LAYER_1
  6
Continuous
 62
     7
100
AcDbPolyline
 90
        4
 70
     0
 43
0.0
 10
-2.561039
 20
3.455385999999999
 10
-2.47169
 20
3.455366
 10
-2.382271999999999
 20
3.455416999999999
 10
-2.29272
 20
3.455499999999999
  0
LWPOLYLINE
  5
549
330
1E
100
AcDbEntity
  8
LAYER_1
  6
Continuous
 62
     7
100
AcDbPolyline
 90
        4
 70
     0
 43
0.0
 10
-2.29272
 20
3.455499999999999
 10
-2.202999999999999
 20
3.455583999999999
 10
-2.113180999999999
 20
3.455696
 10
-2.023357999999999
 20
3.455873999999999
  0
LWPOLYLINE
  5
54F
330
1E
100
AcDbEntity
  8
LAYER_1
  6
Continuous
 62
     7
100
AcDbPolyline
 90
        4
 70
     0
 43
0.0
 10
-2.023357999999999
 20
3.455873999999999
 10
-1.933614
 20
3.456139999999999
 10
-1.843892999999999
 20
3.456471
 10
-1.754138
 20
3.456830999999999
  0
LWPOLYLINE
  5
555
330
1E
100
AcDbEntity
  8
LAYER_1
  6
Continuous
 62
     7
100
AcDbPolyline
 90
        4
 70
     0
 43
0.0
 10
-1.754138
 20
3.456830999999999
 10
-1.664293999999999
 20
3.457201
 10
-1.574392
 20
3.457605
 10
-1.484456999999999
 20
3.458066999999999
  0
LWPOLYLINE
  5
55B
330
1E
100
AcDbEntity
  8
LAYER_1
  6
Continuous
 62
     7
100
AcDbPolyline
 90
        4
 70
     0
 43
0.0
 10
-1.484456999999999
 20
3.458066999999999
 10
-1.394509
 20
3.458622
 10
-1.304557999999999
 20
3.459237999999999
 10
-1.214609999999999
 20
3.459886
  0
LWPOLYLINE
  5
561
330
1E
100
AcDbEntity
  8
LAYER_1
  6
Continuous
 62
     7
100
AcDbPolyline
 90
        4
 70
     0
 43
0.0
 10
-1.214609999999999
 20
3.459886
 10
-1.124661
 20
3.460547
 10
-1.03471
 20
3.461199999999999
 10
-0.9447639999999999
 20
3.461858
  0
LWPOLYLINE
  5
567
330
1E
100
AcDbEntity
  8
LAYER_1
  6
Continuous
 62
     7
100
AcDbPolyline
 90
        4
 70
     0
 43
0.0
 10
-0.9447639999999999
 20
3.461858
 10
-0.8548020000000001
 20
3.462505999999999
 10
-0.764815
 20
3.463119999999999
 10
-0.6747640000000001
 20
3.463665
  0
LWPOLYLINE
  5
56D
330
1E
100
AcDbEntity
  8
LAYER_1
  6
Continuous
 62
     7
100
AcDbPolyline
 90
        4
 70
     0
 43
0.0
 10
-0.6747640000000001
 20
3.463665
 10
-0.5846390000000001
 20
3.46413
 10
-0.4944810000000001
 20
3.464562999999999
 10
-0.4043580000000001
 20
3.465027999999999
  0
LWPOLYLINE
  5
573
330
1E
100
AcDbEntity
  8
LAYER_1
  6
Continuous
 62
     7
100
AcDbPolyline
 90
        4
 70
     0
 43
0.0
 10
-0.4043580000000001
 20
3.465027999999999
 10
-0.314304
 20
3.465575999999999
 10
-0.224313
 20
3.466196
 10
-0.134358
 20
3.466845999999999
  0
LWPOLYLINE
  5
579
330
1E
100
AcDbEntity
  8
LAYER_1
  6
Continuous
 62
     7
100
AcDbPolyline
 90
        4
 70
     0
 43
0.0
 10
-0.134358
 20
3.466845999999999
 10
-0.044406
 20
3.467493
 10
0.045578
 20
3.468105
 10
0.135622
 20
3.468649999999999
  0
LWPOLYLINE
  5
57F
330
1E
100
AcDbEntity
  8
LAYER_1
  6
Continuous
 62
     7
100
AcDbPolyline
 90
        4
 70
     0
 43
0.0
 10
0.135622
 20
3.468649999999999
 10
0.225752
 20
3.469113999999999
 10
0.315909
 20
3.469548
 10
0.406039
 20
3.470012
  0
LWPOLYLINE
  5
585
330
1E
100
AcDbEntity
  8
LAYER_1
  6
Continuous
 62
     7
100
AcDbPolyline
 90
        4
 70
     0
 43
0.0
 10
0.406039
 20
3.470012
 10
0.4960850000000001
 20
3.470551999999999
 10
0.586073
 20
3.471128999999999
 10
0.676028
 20
3.471676999999999
  0
LWPOLYLINE
  5
58B
330
1E
100
AcDbEntity
  8
LAYER_1
  6
Continuous
 62
     7
100
AcDbPolyline
 90
        4
 70
     0
 43
0.0
 10
0.676028
 20
3.471676999999999
 10
0.7659510000000001
 20
3.472141999999999
 10
0.855776
 20
3.472506999999999
 10
0.9454129999999999
 20
3.472776
  0
LWPOLYLINE
  5
591
330
1E
100
AcDbEntity
  8
LAYER_1
  6
Continuous
 62
     7
100
AcDbPolyline
 90
        4
 70
     0
 43
0.0
 10
0.9454129999999999
 20
3.472776
 10
1.034599999999999
 20
3.472973999999999
 10
1.122554
 20
3.473116999999999
 10
1.208331
 20
3.473231999999999
  0
LWPOLYLINE
  5
597
330
1E
100
AcDbEntity
  8
LAYER_1
  6
Continuous
 62
     7
100
AcDbPolyline
 90
        4
 70
     0
 43
0.0
 10
1.208331
 20
3.473231999999999
 10
1.291090999999999
 20
3.473355999999999
 10
1.370314
 20
3.473467999999999
 10
1.445583
 20
3.473555
  0
LWPOLYLINE
  5
59D
330
1E
100
AcDbEntity
  8
LAYER_1
  6
Continuous
 62
     7
100
AcDbPolyline
 90
        4
 70
     0
 43
0.0
 10
1.445583
 20
3.473555
 10
1.517137
 20
3.473615
 10
1.587945
 20
3.473631999999999
 10
1.661638
 20
3.473609999999999
  0
LWPOLYLINE
  5
5A3
330
1E
100
AcDbEntity
  8
LAYER_1
  6
Continuous
 62
     7
100
AcDbPolyline
 90
        4
 70
     0
 43
0.0
 10
1.661638
 20
3.473609999999999
 10
1.740949999999999
 20
3.473552999999999
 10
1.825
 20
3.473462
 10
1.911999999999999
 20
3.473330999999999
  0
LWPOLYLINE
  5
5A9
330
1E
100
AcDbEntity
  8
LAYER_1
  6
Continuous
 62
     7
100
AcDbPolyline
 90
        4
 70
     0
 43
0.0
 10
1.911999999999999
 20
3.473330999999999
 10
2.000391999999999
 20
3.473162999999999
 10
2.089561999999999
 20
3.472929
 10
2.179122
 20
3.472622
  0
LWPOLYLINE
  5
5AF
330
1E
100
AcDbEntity
  8
LAYER_1
  6
Continuous
 62
     7
100
AcDbPolyline
 90
        4
 70
     0
 43
0.0
 10
2.179122
 20
3.472622
 10
2.268743999999999
 20
3.472220999999999
 10
2.358362
 20
3.471754
 10
2.447983999999999
 20
3.471248
  0
LWPOLYLINE
  5
5B5
330
1E
100
AcDbEntity
  8
LAYER_1
  6
Continuous
 62
     7
100
AcDbPolyline
 90
        4
 70
     0
 43
0.0
 10
2.447983999999999
 20
3.471248
 10
2.537593
 20
3.470744999999999
 10
2.627170999999999
 20
3.470169
 10
2.716677
 20
3.469469
  0
LWPOLYLINE
  5
5BB
330
1E
100
AcDbEntity
  8
LAYER_1
  6
Continuous
 62
     7
100
AcDbPolyline
 90
        4
 70
     0
 43
0.0
 10
2.716677
 20
3.469469
 10
2.806097
 20
3.468594999999999
 10
2.895481999999999
 20
3.467594999999999
 10
2.984901999999999
 20
3.466527999999999
  0
LWPOLYLINE
  5
5C1
330
1E
100
AcDbEntity
  8
LAYER_1
  6
Continuous
 62
     7
100
AcDbPolyline
 90
        4
 70
     0
 43
0.0
 10
2.984901999999999
 20
3.466527999999999
 10
3.074396
 20
3.465441999999999
 10
3.163949999999999
 20
3.464358
 10
3.253538999999999
 20
3.463276
  0
LWPOLYLINE
  5
5C7
330
1E
100
AcDbEntity
  8
LAYER_1
  6
Continuous
 62
     7
100
AcDbPolyline
 90
        4
 70
     0
 43
0.0
 10
3.253538999999999
 20
3.463276
 10
3.342586
 20
3.462191999999999
 10
3.428326
 20
3.461123
 10
3.507457
 20
3.460094
  0
LWPOLYLINE
  5
5CD
330
1E
100
AcDbEntity
  8
LAYER_1
  6
Continuous
 62
     7
100
AcDbPolyline
 90
        4
 70
     0
 43
0.0
 10
3.507457
 20
3.460094
 10
3.576645999999999
 20
3.459133
 10
3.632568
 20
3.458307
 10
3.671886
 20
3.457705
  0
LWPOLYLINE
  5
5D3
330
1E
100
AcDbEntity
  8
LAYER_1
  6
Continuous
 62
     7
100
AcDbPolyline
 90
        4
 70
     0
 43
0.0
 10
3.671886
 20
3.457705
 10
3.692938999999999
 20
3.457383
 10
3.700694999999999
 20
3.457265
 10
3.701802999999999
 20
3.457248
  0
SOLID
  5
5D9
330
1E
100
AcDbEntity
  8
LAYER_1
  6
Continuous
100
AcDbTrace
 10
1.505011999999999
 20
3.778373999999999
 30
0.0
 11
1.500290999999999
 21
3.720983999999999
 31
0.0
 12
1.620791
 22
3.758763999999999
 32
0.0
 13
1.604776
 23
3.707176999999999
 33
0.0
  0
LWPOLYLINE
  5
5DA
330
1E
100
AcDbEntity
  8
LAYER_1
  6
Continuous
100
AcDbPolyline
 90
        4
 70
     1
 43
0.0
 10
1.505011999999999
 20
3.778373999999999
 10
1.500290999999999
 20
3.720983999999999
 10
1.604776
 20
3.707176999999999
 10
1.620791
 20
3.758763999999999
  0
LWPOLYLINE
  5
5E0
330
1E
100
AcDbEntity
  8
LAYER_1
  6
Continuous
 62
     7
100
AcDbPolyline
 90
        4
 70
     0
 43
0.0
 10
1.533330999999999
 20
3.619969
 10
2.249093999999999
 20
3.619969
 10
2.249093999999999
 20
3.515512
 10
1.522567
 20
3.512441
  0
LWPOLYLINE
  5
5E6
330
1E
100
AcDbEntity
  8
LAYER_1
  6
Continuous
 62
     7
100
AcDbPolyline
 90
        4
 70
     0
 43
0.0
 10
1.521039
 20
3.513983999999999
 10
0.8175550000000001
 20
3.572346
 10
0.826776
 20
3.678330999999999
 10
1.531790999999999
 20
3.618428999999999
  0
LWPOLYLINE
  5
5EC
330
1E
100
AcDbEntity
  8
LAYER_1
  6
Continuous
 62
     7
100
AcDbPolyline
 90
        4
 70
     0
 43
0.0
 10
-4.862406
 20
3.701346
 10
-4.873153
 20
3.74059
 10
-4.901392999999999
 20
3.768480999999999
 10
-4.941122
 20
3.779094
  0
LWPOLYLINE
  5
5F2
330
1E
100
AcDbEntity
  8
LAYER_1
  6
Continuous
 62
     7
100
AcDbPolyline
 90
        4
 70
     0
 43
0.0
 10
-4.941122
 20
3.779094
 10
-4.980851
 20
3.768480999999999
 10
-5.009091
 20
3.74059
 10
-5.019839
 20
3.701346
  0
LWPOLYLINE
  5
5F8
330
1E
100
AcDbEntity
  8
LAYER_1
  6
Continuous
 62
     7
100
AcDbPolyline
 90
        4
 70
     0
 43
0.0
 10
-5.019839
 20
3.701346
 10
-5.009091
 20
3.662098999999999
 10
-4.980851
 20
3.634199999999999
 10
-4.941122
 20
3.623582999999999
  0
LWPOLYLINE
  5
5FE
330
1E
100
AcDbEntity
  8
LAYER_1
  6
Continuous
 62
     7
100
AcDbPolyline
 90
        4
 70
     0
 43
0.0
 10
-4.941122
 20
3.623582999999999
 10
-4.901392999999999
 20
3.634199999999999
 10
-4.873153
 20
3.662098999999999
 10
-4.862406
 20
3.701346
  0
LWPOLYLINE
  5
604
330
1E
100
AcDbEntity
  8
LAYER_1
  6
Continuous
 62
     7
100
AcDbPolyline
 90
        4
 70
     0
 43
0.0
 10
-4.878161
 20
3.701346
 10
-4.886759999999999
 20
3.732744999999999
 10
-4.909351999999999
 20
3.755062
 10
-4.941133999999999
 20
3.763555
  0
LWPOLYLINE
  5
60A
330
1E
100
AcDbEntity
  8
LAYER_1
  6
Continuous
 62
     7
100
AcDbPolyline
 90
        4
 70
     0
 43
0.0
 10
-4.941133999999999
 20
3.763555
 10
-4.972916
 20
3.755062
 10
-4.995508
 20
3.732744999999999
 10
-5.004106
 20
3.701346
  0
LWPOLYLINE
  5
610
330
1E
100
AcDbEntity
  8
LAYER_1
  6
Continuous
 62
     7
100
AcDbPolyline
 90
        4
 70
     0
 43
0.0
 10
-5.004106
 20
3.701346
 10
-4.995508
 20
3.669953
 10
-4.972916
 20
3.647633
 10
-4.941133999999999
 20
3.639137999999999
  0
LWPOLYLINE
  5
616
330
1E
100
AcDbEntity
  8
LAYER_1
  6
Continuous
 62
     7
100
AcDbPolyline
 90
        4
 70
     0
 43
0.0
 10
-4.941133999999999
 20
3.639137999999999
 10
-4.909351999999999
 20
3.647633
 10
-4.886759999999999
 20
3.669953
 10
-4.878161
 20
3.701346
  0
LWPOLYLINE
  5
61C
330
1E
100
AcDbEntity
  8
LAYER_1
  6
Continuous
 62
     7
100
AcDbPolyline
 90
        4
 70
     0
 43
0.0
 10
1.461137999999999
 20
1.655583
 10
2.216830999999999
 20
1.790747999999999
 10
2.235263999999999
 20
1.686302999999999
 10
1.505677
 20
1.557276
  0
SOLID
  5
622
330
1E
100
AcDbEntity
  8
LAYER_1
  6
Continuous
 62
   253
100
AcDbTrace
 10
1.101704999999999
 20
1.399677
 30
0.0
 11
0.9534839999999999
 21
1.276803
 31
0.0
 12
0.7461220000000001
 22
1.399677
 32
0.0
 13
0.7461220000000001
 23
1.276803
 33
0.0
  0
LWPOLYLINE
  5
623
330
1E
100
AcDbEntity
  8
LAYER_1
  6
Continuous
 62
   253
100
AcDbPolyline
 90
        4
 70
     1
 43
0.0
 10
1.101704999999999
 20
1.399677
 10
0.9534839999999999
 20
1.276803
 10
0.7461220000000001
 20
1.276803
 10
0.7461220000000001
 20
1.399677
  0
LWPOLYLINE
  5
629
330
1E
100
AcDbEntity
  8
LAYER_1
  6
Continuous
 62
     7
100
AcDbPolyline
 90
        4
 70
     1
 43
0.0
 10
1.101704999999999
 20
1.399677
 10
0.9534839999999999
 20
1.276803
 10
0.7461220000000001
 20
1.276803
 10
0.7461220000000001
 20
1.399677
  0
SOLID
  5
62F
330
1E
100
AcDbEntity
  8
LAYER_1
  6
Continuous
 62
   253
100
AcDbTrace
 10
1.235345999999999
 20
1.277566999999999
 30
0.0
 11
1.383554999999999
 21
1.400441
 31
0.0
 12
1.497219999999999
 22
1.277566999999999
 32
0.0
 13
1.495677
 23
1.399677
 33
0.0
  0
LWPOLYLINE
  5
630
330
1E
100
AcDbEntity
  8
LAYER_1
  6
Continuous
 62
   253
100
AcDbPolyline
 90
        4
 70
     1
 43
0.0
 10
1.235345999999999
 20
1.277566999999999
 10
1.383554999999999
 20
1.400441
 10
1.495677
 20
1.399677
 10
1.497219999999999
 20
1.277566999999999
  0
LWPOLYLINE
  5
636
330
1E
100
AcDbEntity
  8
LAYER_1
  6
Continuous
 62
     7
100
AcDbPolyline
 90
        4
 70
     1
 43
0.0
 10
1.235345999999999
 20
1.277566999999999
 10
1.383554999999999
 20
1.400441
 10
1.495677
 20
1.399677
 10
1.497219999999999
 20
1.277566999999999
  0
LWPOLYLINE
  5
63C
330
1E
100
AcDbEntity
  8
LAYER_1
  6
Continuous
 62
   253
100
AcDbPolyline
 90
        5
 70
     1
 43
0.0
 10
2.452609999999999
 20
3.619941
 10
2.508665
 20
3.613791
 10
2.508665
 20
3.512412999999999
 10
2.315901999999999
 20
3.512412999999999
 10
2.315901999999999
 20
3.619165
  0
LWPOLYLINE
  5
643
330
1E
100
AcDbEntity
  8
LAYER_1
  6
Continuous
 62
     7
100
AcDbPolyline
 90
        5
 70
     1
 43
0.0
 10
2.452609999999999
 20
3.619941
 10
2.508665
 20
3.613791
 10
2.508665
 20
3.512412999999999
 10
2.315901999999999
 20
3.512412999999999
 10
2.315901999999999
 20
3.619165
  0
LWPOLYLINE
  5
64A
330
1E
100
AcDbEntity
  8
LAYER_1
  6
Continuous
 62
     7
100
AcDbPolyline
 90
        4
 70
     1
 43
0.0
 10
1.585538999999999
 20
3.65065
 10
2.202231999999999
 20
3.65065
 10
2.44415
 20
3.619941
 10
1.585538999999999
 20
3.619941
  0
LWPOLYLINE
  5
650
330
1E
100
AcDbEntity
  8
LAYER_1
  6
Continuous
 62
     7
100
AcDbPolyline
 90
        4
 70
     1
 43
0.0
 10
1.533330999999999
 20
3.513193
 10
2.510205
 20
3.514731999999999
 10
2.510205
 20
3.484012
 10
1.533330999999999
 20
3.484012
  0
LWPOLYLINE
  5
656
330
1E
100
AcDbEntity
  8
LAYER_1
  6
Continuous
 62
     7
100
AcDbPolyline
 90
       11
 70
     0
 43
0.0
 10
1.52411
 20
3.475555
 10
1.940345999999999
 20
3.30661
 10
2.378874
 20
3.126901999999999
 10
2.979440999999999
 20
2.878066999999999
 10
3.25822
 20
2.759790999999999
 10
3.589999999999999
 20
2.620028
 10
3.593830999999999
 20
2.630011999999999
 10
3.027054999999999
 20
2.946413
 10
2.532468999999999
 20
3.225192999999999
 10
2.059385999999999
 20
3.492456999999999
 10
1.739138
 20
3.668319
  0
LWPOLYLINE
  5
663
330
1E
100
AcDbEntity
  8
LAYER_1
  6
Continuous
 62
     7
100
AcDbPolyline
 90
       11
 70
     0
 43
0.0
 10
1.523330999999999
 20
3.473263999999999
 10
1.969538999999999
 20
3.619165
 10
2.420345999999999
 20
3.762791
 10
3.040122
 20
3.958622
 10
3.330412999999999
 20
4.046941
 10
3.674469
 20
4.152929
 10
3.670637999999999
 20
4.162912999999999
 10
3.033204999999999
 20
4.041566999999999
 10
2.474874
 20
3.937122
 10
1.941122
 20
3.837276
 10
1.582469
 20
3.766621999999999
  0
LWPOLYLINE
  5
670
330
1E
100
AcDbEntity
  8
LAYER_1
  6
Continuous
 62
     7
100
AcDbPolyline
 90
        4
 70
     0
 43
0.0
 10
1.478038999999999
 20
1.951109999999999
 10
2.270594
 20
2.328956999999999
 10
2.500983999999999
 20
1.80672
 10
2.500983999999999
 20
1.40122
  0
LWPOLYLINE
  5
676
330
1E
100
AcDbEntity
  8
LAYER_1
  6
DASHED
 62
     7
100
AcDbPolyline
 90
        4
 70
     0
 43
0.0
 10
1.481109999999999
 20
1.779066999999999
 10
2.170764
 20
2.109302999999999
 10
2.316676999999999
 20
1.785219999999999
 10
2.316676999999999
 20
1.392012
  0
LWPOLYLINE
  5
67C
330
1E
100
AcDbEntity
  8
LAYER_1
  6
Continuous
 62
     7
100
AcDbPolyline
 90
        6
 70
     1
 43
0.0
 10
1.447149999999999
 20
3.655499999999999
 10
1.484193
 20
3.625248
 10
1.475940999999999
 20
3.520941
 10
1.434276
 20
3.493083
 10
-0.200386
 20
3.62765
 10
-0.186677
 20
3.790109999999999
  0
LWPOLYLINE
  5
684
330
1E
100
AcDbEntity
  8
LAYER_1
  6
Continuous
 62
     7
100
AcDbPolyline
 90
        5
 70
     1
 43
0.0
 10
1.496456999999999
 20
3.745122
 10
1.505677
 20
3.474803
 10
0.7499690000000001
 20
3.474803
 10
0.7499690000000001
 20
3.846499999999999
 10
0.9988030000000001
 20
3.818858
  0
LWPOLYLINE
  5
68B
330
1E
100
AcDbEntity
  8
LAYER_1
  6
Continuous
 62
     7
100
AcDbPolyline
 90
        4
 70
     0
 43
0.0
 10
1.262999999999999
 20
3.731941
 10
1.221785
 20
3.723924999999999
 10
1.185246
 20
3.70181
 10
1.158039
 20
3.668499999999999
  0
LWPOLYLINE
  5
691
330
1E
100
AcDbEntity
  8
LAYER_1
  6
Continuous
 62
     7
100
AcDbPolyline
 90
        4
 70
     0
 43
0.0
 10
1.158039
 20
3.668499999999999
 10
1.144039
 20
3.627324999999999
 10
1.144039
 20
3.58338
 10
1.158039
 20
3.542205
  0
LWPOLYLINE
  5
697
330
1E
100
AcDbEntity
  8
LAYER_1
  6
Continuous
 62
     7
100
AcDbPolyline
 90
        4
 70
     0
 43
0.0
 10
1.158039
 20
3.542205
 10
1.185246
 20
3.508894
 10
1.221785
 20
3.48678
 10
1.262999999999999
 20
3.478763999999999
  0
LWPOLYLINE
  5
69D
330
1E
100
AcDbEntity
  8
LAYER_1
  6
Continuous
 62
     7
100
AcDbPolyline
 90
        4
 70
     0
 43
0.0
 10
1.262999999999999
 20
3.478763999999999
 10
1.304196999999999
 20
3.48678
 10
1.340738999999999
 20
3.508894
 10
1.367956999999999
 20
3.542205
  0
LWPOLYLINE
  5
6A3
330
1E
100
AcDbEntity
  8
LAYER_1
  6
Continuous
 62
     7
100
AcDbPolyline
 90
        4
 70
     0
 43
0.0
 10
1.367956999999999
 20
3.542205
 10
1.381945999999999
 20
3.58338
 10
1.381945999999999
 20
3.627324999999999
 10
1.367956999999999
 20
3.668499999999999
  0
LWPOLYLINE
  5
6A9
330
1E
100
AcDbEntity
  8
LAYER_1
  6
Continuous
 62
     7
100
AcDbPolyline
 90
        4
 70
     0
 43
0.0
 10
1.367956999999999
 20
3.668499999999999
 10
1.340738999999999
 20
3.70181
 10
1.304196999999999
 20
3.723924999999999
 10
1.262999999999999
 20
3.731941
  0
LWPOLYLINE
  5
6AF
330
1E
100
AcDbEntity
  8
LAYER_1
  6
DASHED
 62
     7
100
AcDbPolyline
 90
        4
 70
     0
 43
0.0
 10
1.094038999999999
 20
3.738083
 10
1.052831999999999
 20
3.730066
 10
1.016289999999999
 20
3.707950999999999
 10
0.9890830000000001
 20
3.674637999999999
  0
LWPOLYLINE
  5
6B5
330
1E
100
AcDbEntity
  8
LAYER_1
  6
DASHED
 62
     7
100
AcDbPolyline
 90
        4
 70
     0
 43
0.0
 10
0.9890830000000001
 20
3.674637999999999
 10
0.975083
 20
3.633466
 10
0.975083
 20
3.58953
 10
0.9890830000000001
 20
3.548358
  0
LWPOLYLINE
  5
6BB
330
1E
100
AcDbEntity
  8
LAYER_1
  6
DASHED
 62
     7
100
AcDbPolyline
 90
        4
 70
     0
 43
0.0
 10
0.9890830000000001
 20
3.548358
 10
1.016289999999999
 20
3.515041999999999
 10
1.052831999999999
 20
3.492920999999999
 10
1.094038999999999
 20
3.484901999999999
  0
LWPOLYLINE
  5
6C1
330
1E
100
AcDbEntity
  8
LAYER_1
  6
DASHED
 62
     7
100
AcDbPolyline
 90
        4
 70
     0
 43
0.0
 10
1.094038999999999
 20
3.484901999999999
 10
1.135238999999999
 20
3.492920999999999
 10
1.171781999999999
 20
3.515041999999999
 10
1.199
 20
3.548358
  0
LWPOLYLINE
  5
6C7
330
1E
100
AcDbEntity
  8
LAYER_1
  6
DASHED
 62
     7
100
AcDbPolyline
 90
        4
 70
     0
 43
0.0
 10
1.199
 20
3.548358
 10
1.21299
 20
3.58953
 10
1.21299
 20
3.633466
 10
1.199
 20
3.674637999999999
  0
LWPOLYLINE
  5
6CD
330
1E
100
AcDbEntity
  8
LAYER_1
  6
DASHED
 62
     7
100
AcDbPolyline
 90
        4
 70
     0
 43
0.0
 10
1.199
 20
3.674637999999999
 10
1.171781999999999
 20
3.707950999999999
 10
1.135238999999999
 20
3.730066
 10
1.094038999999999
 20
3.738083
  0
TEXT
  5
6D3
330
1E
100
AcDbEntity
  8
LAYER_1
 62
     7
100
AcDbText
 10
0.034205
 20
2.341177
 30
0.0
 40
0.111024
  1
horizontal
 41
0.7140982594870508
  7
SN0
 72
     5
 11
0.619382
 21
2.341177
 31
0.0
100
AcDbText
  0
TEXT
  5
6D4
330
1E
100
AcDbEntity
  8
LAYER_1
 62
     7
100
AcDbText
 10
0.034205
 20
2.206011999999999
 30
0.0
 40
0.111024
  1
motion
 41
0.7290441706297734
  7
SN0
 72
     5
 11
0.4389120000000001
 21
2.206011999999999
 31
0.0
100
AcDbText
  0
TEXT
  5
6D5
330
1E
100
AcDbEntity
  8
LAYER_1
 62
     7
100
AcDbText
 10
0.034205
 20
2.070842999999999
 30
0.0
 40
0.111024
  1
restraint
 41
0.6993428529785537
  7
SN0
 72
     5
 11
0.5222520000000001
 21
2.070842999999999
 31
0.0
100
AcDbText
  0
TEXT
  5
6D6
330
1E
100
AcDbEntity
  8
LAYER_1
 62
     7
100
AcDbText
 10
0.034205
 20
2.683546999999999
 30
0.0
 40
0.111024
  1
vert. grain
 41
0.6684333752956439
  7
SN0
 72
     5
 11
0.6349700000000001
 21
2.683546999999999
 31
0.0
100
AcDbText
  0
TEXT
  5
6D7
330
1E
100
AcDbEntity
  8
LAYER_1
 62
     7
100
AcDbText
 10
0.034205
 20
2.548378
 30
0.0
 40
0.111024
  1
basswood
 41
0.7557979995790387
  7
SN0
 72
     5
 11
0.641566
 21
2.548378
 31
0.0
100
AcDbText
  0
TEXT
  5
6D8
330
1E
100
AcDbEntity
  8
LAYER_1
 62
     7
100
AcDbText
 10
2.381177
 20
4.526723999999999
 30
0.0
 40
0.111024
  1
endgrain 
 41
0.6566411399870834
  7
SN0
 72
     5
 11
2.943571
 21
4.526723999999999
 31
0.0
100
AcDbText
  0
TEXT
  5
6D9
330
1E
100
AcDbEntity
  8
LAYER_1
 62
     7
100
AcDbText
 10
2.381177
 20
4.391558999999999
 30
0.0
 40
0.111024
  1
basswood 
 41
0.6894123976248232
  7
SN0
 72
     5
 11
3.026311
 21
4.391558999999999
 31
0.0
100
AcDbText
  0
TEXT
  5
6DA
330
1E
100
AcDbEntity
  8
LAYER_1
 62
     7
100
AcDbText
 10
2.381177
 20
4.256394
 30
0.0
 40
0.111024
  1
edging
 41
0.7432022045089174
  7
SN0
 72
     5
 11
2.785884999999999
 21
4.256394
 31
0.0
100
AcDbText
  0
LWPOLYLINE
  5
6DB
330
1E
100
AcDbEntity
  8
LAYER_1
  6
Continuous
 62
     7
100
AcDbPolyline
 90
        4
 70
     0
 43
0.0
 10
2.233731999999999
 20
4.420956999999999
 10
2.231304999999999
 20
4.420805
 10
2.214316999999999
 20
4.419741999999999
 10
2.168204999999999
 20
4.416858
  0
LWPOLYLINE
  5
6E1
330
1E
100
AcDbEntity
  8
LAYER_1
  6
Continuous
 62
     7
100
AcDbPolyline
 90
        4
 70
     0
 43
0.0
 10
2.168204999999999
 20
4.416858
 10
2.08833
 20
4.410116
 10
2.009822
 20
4.392898
 10
1.977731999999999
 20
4.357469
  0
LWPOLYLINE
  5
6E7
330
1E
100
AcDbEntity
  8
LAYER_1
  6
Continuous
 62
     7
100
AcDbPolyline
 90
        5
 70
     0
 43
0.0
 10
1.977731999999999
 20
4.357469
 10
2.005186999999999
 20
4.314658
 10
2.066818999999999
 20
4.256099999999999
 10
2.14535
 20
4.180644
 10
2.2235
 20
4.087137999999999
  0
LWPOLYLINE
  5
6EE
330
1E
100
AcDbEntity
  8
LAYER_1
  6
Continuous
 62
     7
100
AcDbPolyline
 90
        6
 70
     0
 43
0.0
 10
2.2235
 20
4.087137999999999
 10
2.275777999999999
 20
3.999831
 10
2.317833
 20
3.907213999999999
 10
2.350746
 20
3.816266999999999
 10
2.375598
 20
3.733969999999999
 10
2.393469
 20
3.667302999999999
  0
LWPOLYLINE
  5
6F6
330
1E
100
AcDbEntity
  8
LAYER_1
  6
Continuous
 62
     7
100
AcDbPolyline
 90
        4
 70
     0
 43
0.0
 10
2.393469
 20
3.667302999999999
 10
2.410769999999999
 20
3.601008
 10
2.417145
 20
3.576583999999999
 10
2.418054999999999
 20
3.573094
  0
LWPOLYLINE
  5
6FC
330
1E
100
AcDbEntity
  8
LAYER_1
  6
DASHED
 62
     7
100
AcDbPolyline
 90
        2
 70
     0
 43
0.0
 10
-1.003747999999999
 20
3.898803
 10
-0.4166380000000001
 20
3.842264
  0
LWPOLYLINE
  5
700
330
1E
100
AcDbEntity
  8
LAYER_1
  6
DASHED
 62
     7
100
AcDbPolyline
 90
        2
 70
     0
 43
0.0
 10
-1.026345999999999
 20
3.664149999999999
 10
-0.439232
 20
3.607622
  0
LWPOLYLINE
  5
704
330
1E
100
AcDbEntity
  8
LAYER_1
  6
Continuous
 62
     7
100
AcDbPolyline
 90
        4
 70
     1
 43
0.0
 10
-2.244886
 20
-3.544688999999999
 10
-1.745504
 20
-3.544688999999999
 10
-1.745504
 20
-3.485705
 10
-2.244886
 20
-3.485705
  0
LWPOLYLINE
  5
70A
330
1E
100
AcDbEntity
  8
LAYER_1
  6
Continuous
 62
     7
100
AcDbPolyline
 90
        4
 70
     1
 43
0.0
 10
-2.244886
 20
-3.150992
 10
-1.745504
 20
-3.150992
 10
-1.745504
 20
-3.092008
 10
-2.244886
 20
-3.092008
  0
LWPOLYLINE
  5
710
330
1E
100
AcDbEntity
  8
LAYER_1
  6
Continuous
 62
     7
100
AcDbPolyline
 90
        2
 70
     0
 43
0.0
 10
-1.925402
 20
-3.552083
 10
-1.925402
 20
-3.079763999999999
  0
LWPOLYLINE
  5
714
330
1E
100
AcDbEntity
  8
LAYER_1
  6
Continuous
 62
     7
100
AcDbPolyline
 90
        2
 70
     0
 43
0.0
 10
-1.900818999999999
 20
-3.552083
 10
-1.900818999999999
 20
-3.079763999999999
  0
LWPOLYLINE
  5
718
330
1E
100
AcDbEntity
  8
LAYER_1
  6
Continuous
 62
     7
100
AcDbPolyline
 90
        2
 70
     0
 43
0.0
 10
-1.876248
 20
-3.552083
 10
-1.876248
 20
-3.079763999999999
  0
LWPOLYLINE
  5
71C
330
1E
100
AcDbEntity
  8
LAYER_1
  6
Continuous
 62
     7
100
AcDbPolyline
 90
        2
 70
     0
 43
0.0
 10
-1.851665
 20
-3.552083
 10
-1.851665
 20
-3.079763999999999
  0
LWPOLYLINE
  5
720
330
1E
100
AcDbEntity
  8
LAYER_1
  6
Continuous
 62
     7
100
AcDbPolyline
 90
        2
 70
     0
 43
0.0
 10
-1.827093999999999
 20
-3.552083
 10
-1.827093999999999
 20
-3.079763999999999
  0
LWPOLYLINE
  5
724
330
1E
100
AcDbEntity
  8
LAYER_1
  6
Continuous
 62
     7
100
AcDbPolyline
 90
        2
 70
     0
 43
0.0
 10
-1.802527999999999
 20
-3.552083
 10
-1.802527999999999
 20
-3.079763999999999
  0
LWPOLYLINE
  5
728
330
1E
100
AcDbEntity
  8
LAYER_1
  6
Continuous
100
AcDbPolyline
 90
       12
 70
     1
 43
0.0
 10
-1.84472
 20
-3.287512
 10
-1.859541999999999
 20
-3.291598999999999
 10
-1.870074999999999
 20
-3.302341
 10
-1.874083
 20
-3.317457
 10
-1.870074999999999
 20
-3.332573
 10
-1.859541999999999
 20
-3.343313999999999
 10
-1.84472
 20
-3.347401999999999
 10
-1.829895999999999
 20
-3.343313999999999
 10
-1.819356999999999
 20
-3.332573
 10
-1.815345999999999
 20
-3.317457
 10
-1.819356999999999
 20
-3.302341
 10
-1.829895999999999
 20
-3.291598999999999
  0
LWPOLYLINE
  5
736
330
1E
100
AcDbEntity
  8
LAYER_1
  6
Continuous
 62
     7
100
AcDbPolyline
 90
        4
 70
     0
 43
0.0
 10
-1.84472
 20
-3.287512
 10
-1.859541999999999
 20
-3.291598999999999
 10
-1.870074999999999
 20
-3.302341
 10
-1.874083
 20
-3.317457
  0
LWPOLYLINE
  5
73C
330
1E
100
AcDbEntity
  8
LAYER_1
  6
Continuous
 62
     7
100
AcDbPolyline
 90
        4
 70
     0
 43
0.0
 10
-1.874083
 20
-3.317457
 10
-1.870074999999999
 20
-3.332573
 10
-1.859541999999999
 20
-3.343313999999999
 10
-1.84472
 20
-3.347401999999999
  0
LWPOLYLINE
  5
742
330
1E
100
AcDbEntity
  8
LAYER_1
  6
Continuous
 62
     7
100
AcDbPolyline
 90
        4
 70
     0
 43
0.0
 10
-1.84472
 20
-3.347401999999999
 10
-1.829895999999999
 20
-3.343313999999999
 10
-1.819356999999999
 20
-3.332573
 10
-1.815345999999999
 20
-3.317457
  0
LWPOLYLINE
  5
748
330
1E
100
AcDbEntity
  8
LAYER_1
  6
Continuous
 62
     7
100
AcDbPolyline
 90
        4
 70
     0
 43
0.0
 10
-1.815345999999999
 20
-3.317457
 10
-1.819356999999999
 20
-3.302341
 10
-1.829895999999999
 20
-3.291598999999999
 10
-1.84472
 20
-3.287512
  0
LWPOLYLINE
  5
74E
330
1E
100
AcDbEntity
  8
LAYER_1
  6
Continuous
 62
     7
100
AcDbPolyline
 90
        2
 70
     0
 43
0.0
 10
-1.777941
 20
-3.552083
 10
-1.777941
 20
-3.079763999999999
  0
LWPOLYLINE
  5
752
330
1E
100
AcDbEntity
  8
LAYER_1
  6
Continuous
 62
     7
100
AcDbPolyline
 90
        2
 70
     0
 43
0.0
 10
-1.753374
 20
-3.552083
 10
-1.753374
 20
-3.079763999999999
  0
LWPOLYLINE
  5
756
330
1E
100
AcDbEntity
  8
LAYER_1
  6
Continuous
 62
   153
100
AcDbPolyline
 90
       12
 70
     1
 43
0.0
 10
-2.779456999999999
 20
-3.515441
 10
-2.783538999999999
 20
-3.500362
 10
-2.794264
 20
-3.489644999999999
 10
-2.809346
 20
-3.485566999999999
 10
-2.824427999999999
 20
-3.489644999999999
 10
-2.835150999999999
 20
-3.500362
 10
-2.839231999999999
 20
-3.515441
 10
-2.835150999999999
 20
-3.530523
 10
-2.824427999999999
 20
-3.541248
 10
-2.809346
 20
-3.545330999999999
 10
-2.794264
 20
-3.541248
 10
-2.783538999999999
 20
-3.530523
  0
LWPOLYLINE
  5
764
330
1E
100
AcDbEntity
  8
LAYER_1
  6
Continuous
 62
     7
100
AcDbPolyline
 90
        4
 70
     0
 43
0.0
 10
-2.779456999999999
 20
-3.515441
 10
-2.783538999999999
 20
-3.500362
 10
-2.794264
 20
-3.489644999999999
 10
-2.809346
 20
-3.485566999999999
  0
LWPOLYLINE
  5
76A
330
1E
100
AcDbEntity
  8
LAYER_1
  6
Continuous
 62
     7
100
AcDbPolyline
 90
        4
 70
     0
 43
0.0
 10
-2.809346
 20
-3.485566999999999
 10
-2.824427999999999
 20
-3.489644999999999
 10
-2.835150999999999
 20
-3.500362
 10
-2.839231999999999
 20
-3.515441
  0
LWPOLYLINE
  5
770
330
1E
100
AcDbEntity
  8
LAYER_1
  6
Continuous
 62
     7
100
AcDbPolyline
 90
        4
 70
     0
 43
0.0
 10
-2.839231999999999
 20
-3.515441
 10
-2.835150999999999
 20
-3.530523
 10
-2.824427999999999
 20
-3.541248
 10
-2.809346
 20
-3.545330999999999
  0
LWPOLYLINE
  5
776
330
1E
100
AcDbEntity
  8
LAYER_1
  6
Continuous
 62
     7
100
AcDbPolyline
 90
        4
 70
     0
 43
0.0
 10
-2.809346
 20
-3.545330999999999
 10
-2.794264
 20
-3.541248
 10
-2.783538999999999
 20
-3.530523
 10
-2.779456999999999
 20
-3.515441
  0
LWPOLYLINE
  5
77C
330
1E
100
AcDbEntity
  8
LAYER_1
  6
Continuous
 62
   153
100
AcDbPolyline
 90
       12
 70
     1
 43
0.0
 10
-2.779456999999999
 20
-3.122231999999999
 10
-2.783538999999999
 20
-3.107145999999999
 10
-2.794264
 20
-3.096424999999999
 10
-2.809346
 20
-3.092346
 10
-2.824427999999999
 20
-3.096424999999999
 10
-2.835150999999999
 20
-3.107145999999999
 10
-2.839231999999999
 20
-3.122231999999999
 10
-2.835150999999999
 20
-3.137312
 10
-2.824427999999999
 20
-3.148031
 10
-2.809346
 20
-3.152109999999999
 10
-2.794264
 20
-3.148031
 10
-2.783538999999999
 20
-3.137312
  0
LWPOLYLINE
  5
78A
330
1E
100
AcDbEntity
  8
LAYER_1
  6
Continuous
 62
     7
100
AcDbPolyline
 90
        4
 70
     0
 43
0.0
 10
-2.779456999999999
 20
-3.122231999999999
 10
-2.783538999999999
 20
-3.107145999999999
 10
-2.794264
 20
-3.096424999999999
 10
-2.809346
 20
-3.092346
  0
LWPOLYLINE
  5
790
330
1E
100
AcDbEntity
  8
LAYER_1
  6
Continuous
 62
     7
100
AcDbPolyline
 90
        4
 70
     0
 43
0.0
 10
-2.809346
 20
-3.092346
 10
-2.824427999999999
 20
-3.096424999999999
 10
-2.835150999999999
 20
-3.107145999999999
 10
-2.839231999999999
 20
-3.122231999999999
  0
LWPOLYLINE
  5
796
330
1E
100
AcDbEntity
  8
LAYER_1
  6
Continuous
 62
     7
100
AcDbPolyline
 90
        4
 70
     0
 43
0.0
 10
-2.839231999999999
 20
-3.122231999999999
 10
-2.835150999999999
 20
-3.137312
 10
-2.824427999999999
 20
-3.148031
 10
-2.809346
 20
-3.152109999999999
  0
LWPOLYLINE
  5
79C
330
1E
100
AcDbEntity
  8
LAYER_1
  6
Continuous
 62
     7
100
AcDbPolyline
 90
        4
 70
     0
 43
0.0
 10
-2.809346
 20
-3.152109999999999
 10
-2.794264
 20
-3.148031
 10
-2.783538999999999
 20
-3.137312
 10
-2.779456999999999
 20
-3.122231999999999
  0
TEXT
  5
7A2
330
1E
100
AcDbEntity
  8
LAYER_1
 62
     7
100
AcDbText
 10
-3.105488
 20
-2.604290999999999
 30
0.0
 40
0.142902
  1
Torque Yoke
 41
0.721525888632164
  7
SN0
 72
     5
 11
-2.118602
 21
-2.604290999999999
 31
0.0
100
AcDbText
  0
LWPOLYLINE
  5
7A3
330
1E
100
AcDbEntity
  8
LAYER_1
  6
Continuous
 62
     7
100
AcDbPolyline
 90
        2
 70
     0
 43
0.0
 10
-2.222468999999999
 20
-3.582901999999999
 10
-2.222468999999999
 20
-3.80715
  0
LWPOLYLINE
  5
7A7
330
1E
100
AcDbEntity
  8
LAYER_1
  6
Continuous
 62
     7
100
AcDbPolyline
 90
        2
 70
     0
 43
0.0
 10
-1.944609999999999
 20
-3.582901999999999
 10
-1.944609999999999
 20
-3.801012
  0
LWPOLYLINE
  5
7AB
330
1E
100
AcDbEntity
  8
LAYER_1
  6
Continuous
 62
     7
100
AcDbPolyline
 90
        2
 70
     0
 43
0.0
 10
-1.749704999999999
 20
-3.582901999999999
 10
-1.749704999999999
 20
-4.092845999999999
  0
LWPOLYLINE
  5
7AF
330
1E
100
AcDbEntity
  8
LAYER_1
  6
Continuous
 62
     7
100
AcDbPolyline
 90
        2
 70
     0
 43
0.0
 10
-1.944609999999999
 20
-3.991469
 10
-1.944609999999999
 20
-4.089776
  0
LWPOLYLINE
  5
7B3
330
1E
100
AcDbEntity
  8
LAYER_1
  6
Continuous
 62
     7
100
AcDbPolyline
 90
        2
 70
     0
 43
0.0
 10
-2.494331
 20
-3.120583
 10
-2.297719999999999
 20
-3.120583
  0
LWPOLYLINE
  5
7B7
330
1E
100
AcDbEntity
  8
LAYER_1
  6
Continuous
 62
     7
100
AcDbPolyline
 90
        2
 70
     0
 43
0.0
 10
-2.494331
 20
-3.513791
 10
-2.297719999999999
 20
-3.513791
  0
LWPOLYLINE
  5
7BB
330
1E
100
AcDbEntity
  8
LAYER_1
  6
Continuous
 62
     7
100
AcDbPolyline
 90
        2
 70
     0
 43
0.0
 10
-2.810583
 20
-3.318705
 10
-2.810583
 20
-4.301732
  0
TEXT
  5
7BF
330
1E
100
AcDbEntity
  8
LAYER_1
 62
     7
100
AcDbText
 10
-2.498928999999999
 20
-3.343512
 30
0.0
 40
0.111024
  1
10mm
 41
0.7221006268914821
  7
SN0
 72
     5
 11
-2.1248
 21
-3.343512
 31
0.0
100
AcDbText
  0
TEXT
  5
7C0
330
1E
100
AcDbEntity
  8
LAYER_1
 62
     7
100
AcDbText
 10
-2.188661
 20
-3.870362
 30
0.0
 40
0.111024
  1
7mm
 41
0.7255122246610584
  7
SN0
 72
     5
 11
-1.889478
 21
-3.870362
 31
0.0
100
AcDbText
  0
TEXT
  5
7C1
330
1E
100
AcDbEntity
  8
LAYER_1
 62
     7
100
AcDbText
 10
-2.005472
 20
-4.202137999999999
 30
0.0
 40
0.111024
  1
5mm
 41
0.7255122246610576
  7
SN0
 72
     5
 11
-1.706288999999999
 21
-4.202137999999999
 31
0.0
100
AcDbText
  0
TEXT
  5
7C2
330
1E
100
AcDbEntity
  8
LAYER_1
 62
     7
100
AcDbText
 10
-1.787449
 20
-2.744972
 30
0.0
 40
0.111024
  1
1/2" x 0.0625"
 41
0.5968787687441692
  7
SN0
 72
     5
 11
-0.9480559999999998
 21
-2.744972
 31
0.0
100
AcDbText
  0
TEXT
  5
7C3
330
1E
100
AcDbEntity
  8
LAYER_1
 62
     7
100
AcDbText
 10
-1.787449
 20
-2.880138
 30
0.0
 40
0.111024
  1
dowel pins
 41
0.6928251921920582
  7
SN0
 72
     5
 11
-1.150109999999999
 21
-2.880138
 31
0.0
100
AcDbText
  0
TEXT
  5
7C4
330
1E
100
AcDbEntity
  8
LAYER_1
 62
     7
100
AcDbText
 10
-3.068621999999999
 20
-2.961063
 30
0.0
 40
0.111024
  1
3K CF tow
 41
0.6883084488528023
  7
SN0
 72
     5
 11
-2.439077
 21
-2.961063
 31
0.0
100
AcDbText
  0
LWPOLYLINE
  5
7C5
330
1E
100
AcDbEntity
  8
LAYER_1
  6
Continuous
 62
     7
100
AcDbPolyline
 90
        4
 70
     0
 43
0.0
 10
-1.186886
 20
-3.233401999999999
 10
-1.939527999999999
 20
-3.233401999999999
 10
-1.939527999999999
 20
-3.398137999999999
 10
-1.186886
 20
-3.398137999999999
  0
LWPOLYLINE
  5
7CB
330
1E
100
AcDbEntity
  8
LAYER_1
  6
Continuous
 62
     7
100
AcDbPolyline
 90
        4
 70
     0
 43
0.0
 10
-1.186886
 20
-3.248385999999999
 10
-1.939527999999999
 20
-3.248385999999999
 10
-1.939527999999999
 20
-3.383164999999999
 10
-1.186886
 20
-3.383164999999999
  0
LWPOLYLINE
  5
7D1
330
1E
100
AcDbEntity
  8
LAYER_1
  6
Continuous
 62
     7
100
AcDbPolyline
 90
        4
 70
     0
 43
0.0
 10
-1.186886
 20
-3.262874
 10
-1.939527999999999
 20
-3.262874
 10
-1.939527999999999
 20
-3.368692999999999
 10
-1.186886
 20
-3.368692999999999
  0
LWPOLYLINE
  5
7D7
330
1E
100
AcDbEntity
  8
LAYER_1
  6
Continuous
 62
     7
100
AcDbPolyline
 90
        4
 70
     0
 43
0.0
 10
-1.844290999999999
 20
-2.795066999999999
 10
-1.845959999999999
 20
-2.795028999999999
 10
-1.857640999999999
 20
-2.794761999999999
 10
-1.889345999999999
 20
-2.794039
  0
LWPOLYLINE
  5
7DD
330
1E
100
AcDbEntity
  8
LAYER_1
  6
Continuous
 62
     7
100
AcDbPolyline
 90
        4
 70
     0
 43
0.0
 10
-1.889345999999999
 20
-2.794039
 10
-1.945059
 20
-2.793772
 10
-2.004642
 20
-2.799422
 10
-2.041929
 20
-2.817583
  0
LWPOLYLINE
  5
7E3
330
1E
100
AcDbEntity
  8
LAYER_1
  6
Continuous
 62
     7
100
AcDbPolyline
 90
        4
 70
     0
 43
0.0
 10
-2.041929
 20
-2.817583
 10
-2.039575
 20
-2.852549
 10
-2.015607
 20
-2.89935
 10
-1.996874
 20
-2.950705
  0
LWPOLYLINE
  5
7E9
330
1E
100
AcDbEntity
  8
LAYER_1
  6
Continuous
 62
     7
100
AcDbPolyline
 90
        4
 70
     0
 43
0.0
 10
-1.996874
 20
-2.950705
 10
-2.003203
 20
-2.999824
 10
-2.02637
 20
-3.041884
 10
-2.051137999999999
 20
-3.072566999999999
  0
LWPOLYLINE
  5
7EF
330
1E
100
AcDbEntity
  8
LAYER_1
  6
Continuous
 62
     7
100
AcDbPolyline
 90
        4
 70
     0
 43
0.0
 10
-2.051137999999999
 20
-3.072566999999999
 10
-2.065552999999999
 20
-3.089134
 10
-2.070863
 20
-3.095238
 10
-2.071622
 20
-3.096109999999999
  0
LWPOLYLINE
  5
7F5
330
1E
100
AcDbEntity
  8
LAYER_1
  6
Continuous
 62
     7
100
AcDbPolyline
 90
        4
 70
     0
 43
0.0
 10
-1.340495999999999
 20
-3.083830999999999
 10
-1.341974999999999
 20
-3.083793
 10
-1.352327999999999
 20
-3.083525999999999
 10
-1.380429
 20
-3.082802999999999
  0
LWPOLYLINE
  5
7FB
330
1E
100
AcDbEntity
  8
LAYER_1
  6
Continuous
 62
     7
100
AcDbPolyline
 90
        4
 70
     0
 43
0.0
 10
-1.380429
 20
-3.082802999999999
 10
-1.430107999999999
 20
-3.082005
 10
-1.485025999999999
 20
-3.083938
 10
-1.523790999999999
 20
-3.092011999999999
  0
LWPOLYLINE
  5
801
330
1E
100
AcDbEntity
  8
LAYER_1
  6
Continuous
 62
     7
100
AcDbPolyline
 90
        4
 70
     0
 43
0.0
 10
-1.523790999999999
 20
-3.092011999999999
 10
-1.533386
 20
-3.109005999999999
 10
-1.534329
 20
-3.135101999999999
 10
-1.555527999999999
 20
-3.169845999999999
  0
LWPOLYLINE
  5
807
330
1E
100
AcDbEntity
  8
LAYER_1
  6
Continuous
 62
     7
100
AcDbPolyline
 90
        4
 70
     0
 43
0.0
 10
-1.555527999999999
 20
-3.169845999999999
 10
-1.616208
 20
-3.211443
 10
-1.696917999999999
 20
-3.252816999999999
 10
-1.768527999999999
 20
-3.285555
  0
LWPOLYLINE
  5
80D
330
1E
100
AcDbEntity
  8
LAYER_1
  6
Continuous
 62
     7
100
AcDbPolyline
 90
        4
 70
     0
 43
0.0
 10
-1.768527999999999
 20
-3.285555
 10
-1.808870999999999
 20
-3.303566
 10
-1.823734999999999
 20
-3.310201999999999
 10
-1.825858
 20
-3.31115
  0
LWPOLYLINE
  5
813
330
1E
100
AcDbEntity
  8
LAYER_1
  6
Continuous
 62
     7
100
AcDbPolyline
 90
        4
 70
     0
 43
0.0
 10
-2.707275999999999
 20
-3.318845999999999
 10
-2.721358
 20
-3.266782
 10
-2.758359999999999
 20
-3.229775999999999
 10
-2.810413
 20
-3.215692999999999
  0
LWPOLYLINE
  5
819
330
1E
100
AcDbEntity
  8
LAYER_1
  6
Continuous
 62
     7
100
AcDbPolyline
 90
        4
 70
     0
 43
0.0
 10
-2.810413
 20
-3.215692999999999
 10
-2.862477999999999
 20
-3.229775999999999
 10
-2.899484
 20
-3.266782
 10
-2.913567
 20
-3.318845999999999
  0
LWPOLYLINE
  5
81F
330
1E
100
AcDbEntity
  8
LAYER_1
  6
Continuous
 62
     7
100
AcDbPolyline
 90
        4
 70
     0
 43
0.0
 10
-2.913567
 20
-3.318845999999999
 10
-2.899484
 20
-3.370899999999999
 10
-2.862477999999999
 20
-3.407901999999999
 10
-2.810413
 20
-3.421983999999999
  0
LWPOLYLINE
  5
825
330
1E
100
AcDbEntity
  8
LAYER_1
  6
Continuous
 62
     7
100
AcDbPolyline
 90
        4
 70
     0
 43
0.0
 10
-2.810413
 20
-3.421983999999999
 10
-2.758359999999999
 20
-3.407901999999999
 10
-2.721358
 20
-3.370899999999999
 10
-2.707275999999999
 20
-3.318845999999999
  0
LWPOLYLINE
  5
82B
330
1E
100
AcDbEntity
  8
LAYER_1
  6
Continuous
 62
     7
100
AcDbPolyline
 90
        4
 70
     0
 43
0.0
 10
-2.744149999999999
 20
-3.318830999999999
 10
-2.7532
 20
-3.285384999999999
 10
-2.776975
 20
-3.261613
 10
-2.810413
 20
-3.252566999999999
  0
LWPOLYLINE
  5
831
330
1E
100
AcDbEntity
  8
LAYER_1
  6
Continuous
 62
     7
100
AcDbPolyline
 90
        4
 70
     0
 43
0.0
 10
-2.810413
 20
-3.252566999999999
 10
-2.843861
 20
-3.261613
 10
-2.867636
 20
-3.285384999999999
 10
-2.876684999999999
 20
-3.318830999999999
  0
LWPOLYLINE
  5
837
330
1E
100
AcDbEntity
  8
LAYER_1
  6
Continuous
 62
     7
100
AcDbPolyline
 90
        4
 70
     0
 43
0.0
 10
-2.876684999999999
 20
-3.318830999999999
 10
-2.867636
 20
-3.352276
 10
-2.843861
 20
-3.376048
 10
-2.810413
 20
-3.385094
  0
LWPOLYLINE
  5
83D
330
1E
100
AcDbEntity
  8
LAYER_1
  6
Continuous
 62
     7
100
AcDbPolyline
 90
        4
 70
     0
 43
0.0
 10
-2.810413
 20
-3.385094
 10
-2.776975
 20
-3.376048
 10
-2.7532
 20
-3.352276
 10
-2.744149999999999
 20
-3.318830999999999
  0
LWPOLYLINE
  5
843
330
1E
100
AcDbEntity
  8
LAYER_1
  6
Continuous
 62
     7
100
AcDbPolyline
 90
        4
 70
     0
 43
0.0
 10
-2.726649999999999
 20
-3.318845999999999
 10
-2.738088999999999
 20
-3.276564
 10
-2.768141999999999
 20
-3.246506999999999
 10
-2.810413
 20
-3.235066999999999
  0
LWPOLYLINE
  5
849
330
1E
100
AcDbEntity
  8
LAYER_1
  6
Continuous
 62
     7
100
AcDbPolyline
 90
        4
 70
     0
 43
0.0
 10
-2.810413
 20
-3.235066999999999
 10
-2.852693999999999
 20
-3.246506999999999
 10
-2.882747
 20
-3.276564
 10
-2.894184999999999
 20
-3.318845999999999
  0
LWPOLYLINE
  5
84F
330
1E
100
AcDbEntity
  8
LAYER_1
  6
Continuous
 62
     7
100
AcDbPolyline
 90
        4
 70
     0
 43
0.0
 10
-2.894184999999999
 20
-3.318845999999999
 10
-2.882747
 20
-3.361124999999999
 10
-2.852693999999999
 20
-3.391175
 10
-2.810413
 20
-3.402609999999999
  0
LWPOLYLINE
  5
855
330
1E
100
AcDbEntity
  8
LAYER_1
  6
Continuous
 62
     7
100
AcDbPolyline
 90
        4
 70
     0
 43
0.0
 10
-2.810413
 20
-3.402609999999999
 10
-2.768141999999999
 20
-3.391175
 10
-2.738088999999999
 20
-3.361124999999999
 10
-2.726649999999999
 20
-3.318845999999999
  0
LWPOLYLINE
  5
85B
330
1E
100
AcDbEntity
  8
LAYER_1
  6
Continuous
 62
     7
100
AcDbPolyline
 90
        4
 70
     0
 43
0.0
 10
-2.813748
 20
-3.070011999999999
 10
-2.828352999999999
 20
-3.071508
 10
-2.841645999999999
 20
-3.076872999999999
 10
-2.853177
 20
-3.085885999999999
  0
LWPOLYLINE
  5
861
330
1E
100
AcDbEntity
  8
LAYER_1
  6
Continuous
 62
     7
100
AcDbPolyline
 90
        4
 70
     0
 43
0.0
 10
-2.853177
 20
-3.085885999999999
 10
-2.862854999999999
 20
-3.098863999999999
 10
-2.87208
 20
-3.118383999999999
 10
-2.882613999999999
 20
-3.147583
  0
LWPOLYLINE
  5
867
330
1E
100
AcDbEntity
  8
LAYER_1
  6
Continuous
 62
     7
100
AcDbPolyline
 90
        4
 70
     0
 43
0.0
 10
-2.882613999999999
 20
-3.147583
 10
-2.895461
 20
-3.187692999999999
 10
-2.908591999999999
 20
-3.232467999999999
 10
-2.91922
 20
-3.273775999999999
  0
LWPOLYLINE
  5
86D
330
1E
100
AcDbEntity
  8
LAYER_1
  6
Continuous
 62
     7
100
AcDbPolyline
 90
        4
 70
     0
 43
0.0
 10
-2.91922
 20
-3.273775999999999
 10
-2.924977999999999
 20
-3.306095999999999
 10
-2.925158
 20
-3.334316
 10
-2.91948
 20
-3.365941
  0
LWPOLYLINE
  5
873
330
1E
100
AcDbEntity
  8
LAYER_1
  6
Continuous
 62
     7
100
AcDbPolyline
 90
        4
 70
     0
 43
0.0
 10
-2.91948
 20
-3.365941
 10
-2.908279
 20
-3.405955999999999
 10
-2.894407
 20
-3.449148999999999
 10
-2.881334999999999
 20
-3.487791
  0
LWPOLYLINE
  5
879
330
1E
100
AcDbEntity
  8
LAYER_1
  6
Continuous
 62
     7
100
AcDbPolyline
 90
        4
 70
     0
 43
0.0
 10
-2.881334999999999
 20
-3.487791
 10
-2.871504999999999
 20
-3.516007
 10
-2.863264
 20
-3.53535
 10
-2.853940999999999
 20
-3.549231999999999
  0
LWPOLYLINE
  5
87F
330
1E
100
AcDbEntity
  8
LAYER_1
  6
Continuous
 62
     7
100
AcDbPolyline
 90
        4
 70
     0
 43
0.0
 10
-2.853940999999999
 20
-3.549231999999999
 10
-2.841511999999999
 20
-3.56029
 10
-2.826520999999999
 20
-3.568042999999999
 10
-2.810164999999999
 20
-3.571248
  0
LWPOLYLINE
  5
885
330
1E
100
AcDbEntity
  8
LAYER_1
  6
Continuous
 62
     7
100
AcDbPolyline
 90
        4
 70
     0
 43
0.0
 10
-2.810164999999999
 20
-3.571248
 10
-2.793633
 20
-3.569012
 10
-2.778068999999999
 20
-3.561879
 10
-2.764609999999999
 20
-3.550764
  0
LWPOLYLINE
  5
88B
330
1E
100
AcDbEntity
  8
LAYER_1
  6
Continuous
 62
     7
100
AcDbPolyline
 90
        4
 70
     0
 43
0.0
 10
-2.764609999999999
 20
-3.550764
 10
-2.753878999999999
 20
-3.535949
 10
-2.74452
 20
-3.515156999999999
 10
-2.734649999999999
 20
-3.485483999999999
  0
LWPOLYLINE
  5
891
330
1E
100
AcDbEntity
  8
LAYER_1
  6
Continuous
 62
     7
100
AcDbPolyline
 90
        4
 70
     0
 43
0.0
 10
-2.734649999999999
 20
-3.485483999999999
 10
-2.723095
 20
-3.4458
 10
-2.711479999999999
 20
-3.401963999999999
 10
-2.702138
 20
-3.361594
  0
LWPOLYLINE
  5
897
330
1E
100
AcDbEntity
  8
LAYER_1
  6
Continuous
 62
     7
100
AcDbPolyline
 90
        4
 70
     0
 43
0.0
 10
-2.702138
 20
-3.361594
 10
-2.697115999999999
 20
-3.329848999999999
 10
-2.697268
 20
-3.302029
 10
-2.703165
 20
-3.270969
  0
LWPOLYLINE
  5
89D
330
1E
100
AcDbEntity
  8
LAYER_1
  6
Continuous
 62
     7
100
AcDbPolyline
 90
        4
 70
     0
 43
0.0
 10
-2.703165
 20
-3.270969
 10
-2.714693
 20
-3.231897
 10
-2.729008
 20
-3.189634999999999
 10
-2.742583
 20
-3.151413
  0
LWPOLYLINE
  5
8A3
330
1E
100
AcDbEntity
  8
LAYER_1
  6
Continuous
 62
     7
100
AcDbPolyline
 90
        4
 70
     0
 43
0.0
 10
-2.742583
 20
-3.151413
 10
-2.752915999999999
 20
-3.122818999999999
 10
-2.7616
 20
-3.102874
 10
-2.771247999999999
 20
-3.088957
  0
LWPOLYLINE
  5
8A9
330
1E
100
AcDbEntity
  8
LAYER_1
  6
Continuous
 62
     7
100
AcDbPolyline
 90
        4
 70
     0
 43
0.0
 10
-2.771247999999999
 20
-3.088957
 10
-2.783806999999999
 20
-3.078924
 10
-2.798467
 20
-3.072534999999999
 10
-2.813748
 20
-3.070011999999999
  0
LWPOLYLINE
  5
8AF
330
1E
100
AcDbEntity
  8
LAYER_1
  6
Continuous
 62
     7
100
AcDbPolyline
 90
        4
 70
     0
 43
0.0
 10
-2.81272
 20
-3.079483999999999
 10
-2.823856999999999
 20
-3.081243999999999
 10
-2.833681999999999
 20
-3.085566
 10
-2.841402
 20
-3.091763999999999
  0
LWPOLYLINE
  5
8B5
330
1E
100
AcDbEntity
  8
LAYER_1
  6
Continuous
 62
     7
100
AcDbPolyline
 90
        4
 70
     0
 43
0.0
 10
-2.841402
 20
-3.091763999999999
 10
-2.846427
 20
-3.099237
 10
-2.849005
 20
-3.107679
 10
-2.849593999999999
 20
-3.116858
  0
LWPOLYLINE
  5
8BB
330
1E
100
AcDbEntity
  8
LAYER_1
  6
Continuous
 62
     7
100
AcDbPolyline
 90
        4
 70
     0
 43
0.0
 10
-2.849593999999999
 20
-3.116858
 10
-2.848461999999999
 20
-3.126566999999999
 10
-2.845172
 20
-3.136673
 10
-2.839093999999999
 20
-3.147066999999999
  0
LWPOLYLINE
  5
8C1
330
1E
100
AcDbEntity
  8
LAYER_1
  6
Continuous
 62
     7
100
AcDbPolyline
 90
        4
 70
     0
 43
0.0
 10
-2.839093999999999
 20
-3.147066999999999
 10
-2.829528999999999
 20
-3.157906999999999
 10
-2.815469999999999
 20
-3.17045
 10
-2.795831
 20
-3.186231999999999
  0
LWPOLYLINE
  5
8C7
330
1E
100
AcDbEntity
  8
LAYER_1
  6
Continuous
 62
     7
100
AcDbPolyline
 90
        4
 70
     0
 43
0.0
 10
-2.795831
 20
-3.186231999999999
 10
-2.770650999999999
 20
-3.206253999999999
 10
-2.744386999999999
 20
-3.229350999999999
 10
-2.722622
 20
-3.253819
  0
LWPOLYLINE
  5
8CD
330
1E
100
AcDbEntity
  8
LAYER_1
  6
Continuous
 62
     7
100
AcDbPolyline
 90
        4
 70
     0
 43
0.0
 10
-2.722622
 20
-3.253819
 10
-2.709566
 20
-3.278201
 10
-2.704018
 20
-3.302132999999999
 10
-2.703413
 20
-3.325495999999999
  0
LWPOLYLINE
  5
8D3
330
1E
100
AcDbEntity
  8
LAYER_1
  6
Continuous
 62
     7
100
AcDbPolyline
 90
        4
 70
     0
 43
0.0
 10
-2.703413
 20
-3.325495999999999
 10
-2.706015
 20
-3.348281999999999
 10
-2.713281
 20
-3.370894999999999
 10
-2.727484
 20
-3.393845999999999
  0
LWPOLYLINE
  5
8D9
330
1E
100
AcDbEntity
  8
LAYER_1
  6
Continuous
 62
     7
100
AcDbPolyline
 90
        4
 70
     0
 43
0.0
 10
-2.727484
 20
-3.393845999999999
 10
-2.749658999999999
 20
-3.417273999999999
 10
-2.775873999999999
 20
-3.439792999999999
 10
-2.800957
 20
-3.459637999999999
  0
LWPOLYLINE
  5
8DF
330
1E
100
AcDbEntity
  8
LAYER_1
  6
Continuous
 62
     7
100
AcDbPolyline
 90
        4
 70
     0
 43
0.0
 10
-2.800957
 20
-3.459637999999999
 10
-2.820683999999999
 20
-3.475592999999999
 10
-2.834727999999999
 20
-3.488651
 10
-2.843704999999999
 20
-3.500345999999999
  0
LWPOLYLINE
  5
8E5
330
1E
100
AcDbEntity
  8
LAYER_1
  6
Continuous
 62
     7
100
AcDbPolyline
 90
        4
 70
     0
 43
0.0
 10
-2.843704999999999
 20
-3.500345999999999
 10
-2.848263
 20
-3.511823999999999
 10
-2.849124999999999
 20
-3.522737999999999
 10
-2.847027999999999
 20
-3.532345999999999
  0
LWPOLYLINE
  5
8EB
330
1E
100
AcDbEntity
  8
LAYER_1
  6
Continuous
 62
     7
100
AcDbPolyline
 90
        4
 70
     0
 43
0.0
 10
-2.847027999999999
 20
-3.532345999999999
 10
-2.842709
 20
-3.540066999999999
 10
-2.836852999999999
 20
-3.54603
 10
-2.830138
 20
-3.550512
  0
LWPOLYLINE
  5
8F1
330
1E
100
AcDbEntity
  8
LAYER_1
  6
Continuous
 62
     7
100
AcDbPolyline
 90
        4
 70
     0
 43
0.0
 10
-2.830138
 20
-3.550512
 10
-2.8231
 20
-3.553738999999999
 10
-2.815666999999999
 20
-3.555655
 10
-2.80761
 20
-3.55615
  0
LWPOLYLINE
  5
8F7
330
1E
100
AcDbEntity
  8
LAYER_1
  6
Continuous
 62
     7
100
AcDbPolyline
 90
        4
 70
     0
 43
0.0
 10
-2.80761
 20
-3.55615
 10
-2.798897
 20
-3.555120999999999
 10
-2.790294999999999
 20
-3.552562
 10
-2.782775999999999
 20
-3.548469
  0
LWPOLYLINE
  5
8FD
330
1E
100
AcDbEntity
  8
LAYER_1
  6
Continuous
 62
     7
100
AcDbPolyline
 90
        4
 70
     0
 43
0.0
 10
-2.782775999999999
 20
-3.548469
 10
-2.777089
 20
-3.542858999999999
 10
-2.773106
 20
-3.53589
 10
-2.770484
 20
-3.527731999999999
  0
LWPOLYLINE
  5
903
330
1E
100
AcDbEntity
  8
LAYER_1
  6
Continuous
 62
     7
100
AcDbPolyline
 90
        4
 70
     0
 43
0.0
 10
-2.770484
 20
-3.527731999999999
 10
-2.769150999999999
 20
-3.518555
 10
-2.770033999999999
 20
-3.508582
 10
-2.774331
 20
-3.498038999999999
  0
LWPOLYLINE
  5
909
330
1E
100
AcDbEntity
  8
LAYER_1
  6
Continuous
 62
     7
100
AcDbPolyline
 90
        4
 70
     0
 43
0.0
 10
-2.774331
 20
-3.498038999999999
 10
-2.783133999999999
 20
-3.486898
 10
-2.797177
 20
-3.474104
 10
-2.817083
 20
-3.458358
  0
LWPOLYLINE
  5
90F
330
1E
100
AcDbEntity
  8
LAYER_1
  6
Continuous
 62
     7
100
AcDbPolyline
 90
        4
 70
     0
 43
0.0
 10
-2.817083
 20
-3.458358
 10
-2.842509999999999
 20
-3.438776999999999
 10
-2.869303
 20
-3.416237999999999
 10
-2.892342999999999
 20
-3.392055
  0
LWPOLYLINE
  5
915
330
1E
100
AcDbEntity
  8
LAYER_1
  6
Continuous
 62
     7
100
AcDbPolyline
 90
        4
 70
     0
 43
0.0
 10
-2.892342999999999
 20
-3.392055
 10
-2.907647
 20
-3.367386
 10
-2.915783
 20
-3.342827999999999
 10
-2.918457
 20
-3.318845999999999
  0
LWPOLYLINE
  5
91B
330
1E
100
AcDbEntity
  8
LAYER_1
  6
Continuous
 62
     7
100
AcDbPolyline
 90
        4
 70
     0
 43
0.0
 10
-2.918457
 20
-3.318845999999999
 10
-2.916786999999999
 20
-3.295776
 10
-2.909543999999999
 20
-3.273559999999999
 10
-2.894906
 20
-3.252027999999999
  0
LWPOLYLINE
  5
921
330
1E
100
AcDbEntity
  8
LAYER_1
  6
Continuous
 62
     7
100
AcDbPolyline
 90
        4
 70
     0
 43
0.0
 10
-2.894906
 20
-3.252027999999999
 10
-2.872260999999999
 20
-3.231108
 10
-2.845866
 20
-3.211158999999999
 10
-2.821177
 20
-3.192638
  0
LWPOLYLINE
  5
927
330
1E
100
AcDbEntity
  8
LAYER_1
  6
Continuous
 62
     7
100
AcDbPolyline
 90
        4
 70
     0
 43
0.0
 10
-2.821177
 20
-3.192638
 10
-2.802491999999999
 20
-3.175899999999999
 10
-2.789434999999999
 20
-3.160984
 10
-2.780469
 20
-3.147831
  0
LWPOLYLINE
  5
92D
330
1E
100
AcDbEntity
  8
LAYER_1
  6
Continuous
 62
     7
100
AcDbPolyline
 90
        4
 70
     0
 43
0.0
 10
-2.780469
 20
-3.147831
 10
-2.774322
 20
-3.136309999999999
 10
-2.770672999999999
 20
-3.125987999999999
 10
-2.769468999999999
 20
-3.116346
  0
LWPOLYLINE
  5
933
330
1E
100
AcDbEntity
  8
LAYER_1
  6
Continuous
 62
     7
100
AcDbPolyline
 90
        4
 70
     0
 43
0.0
 10
-2.769468999999999
 20
-3.116346
 10
-2.770691999999999
 20
-3.107037
 10
-2.774474999999999
 20
-3.098354
 10
-2.780984
 20
-3.090748
  0
LWPOLYLINE
  5
939
330
1E
100
AcDbEntity
  8
LAYER_1
  6
Continuous
 62
     7
100
AcDbPolyline
 90
        4
 70
     0
 43
0.0
 10
-2.780984
 20
-3.090748
 10
-2.790176999999999
 20
-3.084694999999999
 10
-2.801135999999999
 20
-3.08075
 10
-2.81272
 20
-3.079483999999999
  0
LWPOLYLINE
  5
93F
330
1E
100
AcDbEntity
  8
LAYER_1
  6
Continuous
 62
     7
100
AcDbPolyline
 90
        4
 70
     0
 43
0.0
 10
-3.120689
 20
-2.936386
 10
-3.121541999999999
 20
-2.936422999999999
 10
-3.127516999999999
 20
-2.936687
 10
-3.143731999999999
 20
-2.937402
  0
LWPOLYLINE
  5
945
330
1E
100
AcDbEntity
  8
LAYER_1
  6
Continuous
 62
     7
100
AcDbPolyline
 90
        4
 70
     0
 43
0.0
 10
-3.143731999999999
 20
-2.937402
 10
-3.171152
 20
-2.939771999999999
 10
-3.194134999999999
 20
-2.948852
 10
-3.192886
 20
-2.970677
  0
LWPOLYLINE
  5
94B
330
1E
100
AcDbEntity
  8
LAYER_1
  6
Continuous
 62
     7
100
AcDbPolyline
 90
        4
 70
     0
 43
0.0
 10
-3.192886
 20
-2.970677
 10
-3.154350999999999
 20
-3.008633999999999
 10
-3.092493999999999
 20
-3.055524
 10
-3.02802
 20
-3.1015
  0
LWPOLYLINE
  5
951
330
1E
100
AcDbEntity
  8
LAYER_1
  6
Continuous
 62
     7
100
AcDbPolyline
 90
        4
 70
     0
 43
0.0
 10
-3.02802
 20
-3.1015
 10
-2.977772
 20
-3.138472999999999
 10
-2.943109
 20
-3.165379999999999
 10
-2.921527999999999
 20
-3.182901999999999
  0
LWPOLYLINE
  5
957
330
1E
100
AcDbEntity
  8
LAYER_1
  6
Continuous
 62
     7
100
AcDbPolyline
 90
        4
 70
     0
 43
0.0
 10
-2.921527999999999
 20
-3.182901999999999
 10
-2.910359999999999
 20
-3.192088999999999
 10
-2.906245
 20
-3.195472999999999
 10
-2.905657
 20
-3.195956999999999
  0
TEXT
  5
95D
330
1E
100
AcDbEntity
  8
LAYER_1
 62
     7
100
AcDbText
 10
-1.613649999999999
 20
-3.572385999999999
 30
0.0
 40
0.111024
  1
Hypo tubing torque/bending shaft:
 41
0.659751522301918
  7
SN0
 72
     5
 11
0.4128850000000001
 21
-3.572385999999999
 31
0.0
100
AcDbText
  0
TEXT
  5
95E
330
1E
100
AcDbEntity
  8
LAYER_1
 62
     7
100
AcDbText
 10
-1.613649999999999
 20
-3.707555
 30
0.0
 40
0.111024
  1
 #8 (0.165" OD) outside 
 41
0.6225813895236722
  7
SN0
 72
     5
 11
-0.162099
 21
-3.707555
 31
0.0
100
AcDbText
  0
TEXT
  5
95F
330
1E
100
AcDbEntity
  8
LAYER_1
 62
     7
100
AcDbText
 10
-1.613649999999999
 20
-3.842719999999999
 30
0.0
 40
0.111024
  1
#10 (0.134" OD) inside
 41
0.6551766432984725
  7
SN0
 72
     5
 11
-0.245439
 21
-3.842719999999999
 31
0.0
100
AcDbText
  0
LWPOLYLINE
  5
960
330
1E
100
AcDbEntity
  8
LAYER_1
  6
Continuous
 62
     7
100
AcDbPolyline
 90
        4
 70
     0
 43
0.0
 10
-2.861661
 20
-3.654303
 10
-2.861661
 20
-3.954121999999999
 10
-2.757665
 20
-3.954121999999999
 10
-2.757665
 20
-3.654303
  0
LWPOLYLINE
  5
966
330
1E
100
AcDbEntity
  8
LAYER_1
  6
Continuous
 62
     7
100
AcDbPolyline
 90
        4
 70
     1
 43
0.0
 10
0.7960550000000001
 20
1.044263999999999
 10
0.894354
 20
1.044263999999999
 10
0.894354
 20
1.788909
 10
0.7960550000000001
 20
1.788909
  0
LWPOLYLINE
  5
96C
330
1E
100
AcDbEntity
  8
LAYER_1
  6
Continuous
 62
   153
100
AcDbPolyline
 90
       12
 70
     1
 43
0.0
 10
0.887902
 20
3.776609999999999
 10
0.879301
 20
3.808002999999999
 10
0.8567059999999999
 20
3.830323
 10
0.8249290000000002
 20
3.838819
 10
0.793145
 20
3.830323
 10
0.770554
 20
3.808002999999999
 10
0.761957
 20
3.776609999999999
 10
0.770554
 20
3.745209999999999
 10
0.793145
 20
3.722894
 10
0.8249290000000002
 20
3.714401999999999
 10
0.8567059999999999
 20
3.722894
 10
0.879301
 20
3.745209999999999
  0
LWPOLYLINE
  5
97A
330
1E
100
AcDbEntity
  8
LAYER_1
  6
Continuous
 62
     7
100
AcDbPolyline
 90
        4
 70
     0
 43
0.0
 10
0.887902
 20
3.776609999999999
 10
0.879301
 20
3.808002999999999
 10
0.8567059999999999
 20
3.830323
 10
0.8249290000000002
 20
3.838819
  0
LWPOLYLINE
  5
980
330
1E
100
AcDbEntity
  8
LAYER_1
  6
Continuous
 62
     7
100
AcDbPolyline
 90
        4
 70
     0
 43
0.0
 10
0.8249290000000002
 20
3.838819
 10
0.793145
 20
3.830323
 10
0.770554
 20
3.808002999999999
 10
0.761957
 20
3.776609999999999
  0
LWPOLYLINE
  5
986
330
1E
100
AcDbEntity
  8
LAYER_1
  6
Continuous
 62
     7
100
AcDbPolyline
 90
        4
 70
     0
 43
0.0
 10
0.761957
 20
3.776609999999999
 10
0.770554
 20
3.745209999999999
 10
0.793145
 20
3.722894
 10
0.8249290000000002
 20
3.714401999999999
  0
LWPOLYLINE
  5
98C
330
1E
100
AcDbEntity
  8
LAYER_1
  6
Continuous
 62
     7
100
AcDbPolyline
 90
        4
 70
     0
 43
0.0
 10
0.8249290000000002
 20
3.714401999999999
 10
0.8567059999999999
 20
3.722894
 10
0.879301
 20
3.745209999999999
 10
0.887902
 20
3.776609999999999
  0
LWPOLYLINE
  5
992
330
1E
100
AcDbEntity
  8
LAYER_1
  6
Continuous
 62
     7
100
AcDbPolyline
 90
       12
 70
     1
 43
0.0
 10
0.8721499999999998
 20
3.776609999999999
 10
0.8657
 20
3.800155999999999
 10
0.848754
 20
3.816894
 10
0.8249129999999999
 20
3.823263999999999
 10
0.801079
 20
3.816894
 10
0.7841390000000001
 20
3.800155999999999
 10
0.7776930000000001
 20
3.776609999999999
 10
0.7841390000000001
 20
3.753063999999999
 10
0.801079
 20
3.736326999999999
 10
0.8249129999999999
 20
3.729957
 10
0.848754
 20
3.736326999999999
 10
0.8657
 20
3.753063999999999
  0
LWPOLYLINE
  5
9A0
330
1E
100
AcDbEntity
  8
LAYER_1
  6
Continuous
 62
     7
100
AcDbPolyline
 90
        4
 70
     0
 43
0.0
 10
0.8721499999999998
 20
3.776609999999999
 10
0.8657
 20
3.800155999999999
 10
0.848754
 20
3.816894
 10
0.8249129999999999
 20
3.823263999999999
  0
LWPOLYLINE
  5
9A6
330
1E
100
AcDbEntity
  8
LAYER_1
  6
Continuous
 62
     7
100
AcDbPolyline
 90
        4
 70
     0
 43
0.0
 10
0.8249129999999999
 20
3.823263999999999
 10
0.801079
 20
3.816894
 10
0.7841390000000001
 20
3.800155999999999
 10
0.7776930000000001
 20
3.776609999999999
  0
LWPOLYLINE
  5
9AC
330
1E
100
AcDbEntity
  8
LAYER_1
  6
Continuous
 62
     7
100
AcDbPolyline
 90
        4
 70
     0
 43
0.0
 10
0.7776930000000001
 20
3.776609999999999
 10
0.7841390000000001
 20
3.753063999999999
 10
0.801079
 20
3.736326999999999
 10
0.8249129999999999
 20
3.729957
  0
LWPOLYLINE
  5
9B2
330
1E
100
AcDbEntity
  8
LAYER_1
  6
Continuous
 62
     7
100
AcDbPolyline
 90
        4
 70
     0
 43
0.0
 10
0.8249129999999999
 20
3.729957
 10
0.848754
 20
3.736326999999999
 10
0.8657
 20
3.753063999999999
 10
0.8721499999999998
 20
3.776609999999999
  0
LWPOLYLINE
  5
9B8
330
1E
100
AcDbEntity
  8
LAYER_1
  6
Continuous
 62
     7
100
AcDbPolyline
 90
        4
 70
     0
 43
0.0
 10
0.8206379999999999
 20
2.241331
 10
0.8230649999999998
 20
2.241026999999999
 10
0.8400529999999999
 20
2.238903
 10
0.8861649999999999
 20
2.233138
  0
LWPOLYLINE
  5
9BE
330
1E
100
AcDbEntity
  8
LAYER_1
  6
Continuous
 62
     7
100
AcDbPolyline
 90
        4
 70
     0
 43
0.0
 10
0.8861649999999999
 20
2.233138
 10
0.967017
 20
2.22115
 10
1.052424999999999
 20
2.197332999999999
 10
1.103248
 20
2.155318999999999
  0
LWPOLYLINE
  5
9C4
330
1E
100
AcDbEntity
  8
LAYER_1
  6
Continuous
 62
     7
100
AcDbPolyline
 90
        4
 70
     0
 43
0.0
 10
1.103248
 20
2.155318999999999
 10
1.093162999999999
 20
2.089781
 10
1.047123
 20
1.999668999999999
 10
1.002901999999999
 20
1.884984
  0
LWPOLYLINE
  5
9CA
330
1E
100
AcDbEntity
  8
LAYER_1
  6
Continuous
 62
     7
100
AcDbPolyline
 90
        5
 70
     0
 43
0.0
 10
1.002901999999999
 20
1.884984
 10
0.9898430000000001
 20
1.784697
 10
0.992144
 20
1.68172
 10
1.002893
 20
1.587190999999999
 10
1.015176999999999
 20
1.512248
  0
LWPOLYLINE
  5
9D1
330
1E
100
AcDbEntity
  8
LAYER_1
  6
Continuous
 62
     7
100
AcDbPolyline
 90
        4
 70
     0
 43
0.0
 10
1.015176999999999
 20
1.512248
 10
1.025276
 20
1.454603
 10
1.028996
 20
1.433365
 10
1.029527999999999
 20
1.430330999999999
  0
SOLID
  5
9D7
330
1E
100
AcDbEntity
  8
LAYER_1
  6
Continuous
 62
     7
100
AcDbTrace
 10
1.04072
 20
1.544554999999999
 30
0.0
 11
1.029527999999999
 21
1.430330999999999
 31
0.0
 12
1.04072
 22
1.544554999999999
 32
0.0
 13
0.9802049999999999
 23
1.533969
 33
0.0
  0
LWPOLYLINE
  5
9D8
330
1E
100
AcDbEntity
  8
LAYER_1
  6
Continuous
 62
     7
100
AcDbPolyline
 90
        3
 70
     1
 43
0.0
 10
1.04072
 20
1.544554999999999
 10
1.029527999999999
 20
1.430330999999999
 10
0.9802049999999999
 20
1.533969
  0
LWPOLYLINE
  5
9DD
330
1E
100
AcDbEntity
  8
LAYER_1
  6
Continuous
 62
     7
100
AcDbPolyline
 90
        3
 70
     0
 43
0.0
 10
1.04072
 20
1.544554999999999
 10
1.029527999999999
 20
1.430330999999999
 10
0.9802049999999999
 20
1.533969
  0
TEXT
  5
9E2
330
1E
100
AcDbEntity
  8
LAYER_1
 62
     7
100
AcDbText
 10
1.496456999999999
 20
-4.083231999999999
 30
0.0
 40
0.142902
  1
Supra F3J/TD 
 41
0.6531224195602582
  7
SN2
 72
     5
 11
2.616446999999999
 21
-4.083231999999999
 31
0.0
100
AcDbText
  0
TEXT
  5
9E3
330
1E
100
AcDbEntity
  8
LAYER_1
 62
     7
100
AcDbText
 10
1.496456999999999
 20
-4.255259999999999
 30
0.0
 40
0.142902
  1
Aileron RDS
 41
0.7404871944677459
  7
SN2
 72
     5
 11
2.443772
 21
-4.255259999999999
 31
0.0
100
AcDbText
  0
LWPOLYLINE
  5
9E4
330
1E
100
AcDbEntity
  8
LAYER_1
  6
DASHED
 62
     7
100
AcDbPolyline
 90
       15
 70
     1
 43
0.0
 10
-0.647764
 20
-1.718428999999999
 10
-1.022538999999999
 20
-1.693845999999999
 10
-1.738302999999999
 20
-0.8767049999999999
 10
-1.738302999999999
 20
-0.400555
 10
-1.019468999999999
 20
0.201555
 10
-0.8351499999999999
 20
-0.022705
 10
-0.537177
 20
0.229193
 10
-0.205402
 20
0.50261
 10
-0.070232
 20
0.490319
 10
0.123291
 20
0.247622
 10
0.111012
 20
0.109386
 10
-0.239193
 20
-0.188594
 10
0.154012
 20
-0.664732
 10
-0.110165
 20
-0.889
 10
0.071067
 20
-1.104028
  0
TEXT
  5
9F5
330
1E
100
AcDbEntity
  8
LAYER_1
 62
     7
100
AcDbText
 10
-1.279054999999999
 20
-3.100941
 30
0.0
 40
0.111024
  1
0.0625" dowel pin
 41
0.6600583092438587
  7
SN0
 72
     5
 11
-0.211227
 21
-3.100941
 31
0.0
100
AcDbText
  0
LWPOLYLINE
  5
9F6
330
1E
100
AcDbEntity
  8
LAYER_1
  6
Continuous
 62
     7
100
AcDbPolyline
 90
        4
 70
     1
 43
0.0
 10
-1.248469
 20
-1.153495999999999
 10
-1.572319
 20
-0.7675670000000001
 10
-1.497011999999999
 20
-0.704374
 10
-1.173165
 20
-1.090303
  0
LWPOLYLINE
  5
9FC
330
1E
100
AcDbEntity
  8
LAYER_1
  6
Continuous
 62
     7
100
AcDbPolyline
 90
        4
 70
     1
 43
0.0
 10
-1.014999999999999
 20
-1.442263999999999
 10
-1.338845999999999
 20
-1.056330999999999
 10
-1.263538999999999
 20
-0.9931379999999998
 10
-0.9397049999999998
 20
-1.379067
  0
LWPOLYLINE
  5
A02
330
1E
100
AcDbEntity
  8
LAYER_1
  6
Continuous
 62
     7
100
AcDbPolyline
 90
        4
 70
     0
 43
0.0
 10
-1.385038999999999
 20
-0.461996
 10
-1.385797999999999
 20
-0.4611620000000001
 10
-1.391105
 20
-0.455321
 10
-1.405512
 20
-0.439469
  0
LWPOLYLINE
  5
A08
330
1E
100
AcDbEntity
  8
LAYER_1
  6
Continuous
 62
     7
100
AcDbPolyline
 90
        4
 70
     0
 43
0.0
 10
-1.405512
 20
-0.439469
 10
-1.432170999999999
 20
-0.411442
 10
-1.468620999999999
 20
-0.380455
 10
-1.510984
 20
-0.358567
  0
LWPOLYLINE
  5
A0E
330
1E
100
AcDbEntity
  8
LAYER_1
  6
Continuous
 62
     7
100
AcDbPolyline
 90
        4
 70
     0
 43
0.0
 10
-1.510984
 20
-0.358567
 10
-1.555166999999999
 20
-0.355311
 10
-1.596167
 20
-0.370025
 10
-1.628747999999999
 20
-0.399528
  0
LWPOLYLINE
  5
A14
330
1E
100
AcDbEntity
  8
LAYER_1
  6
Continuous
 62
     7
100
AcDbPolyline
 90
        4
 70
     0
 43
0.0
 10
-1.628747999999999
 20
-0.399528
 10
-1.648347999999999
 20
-0.4407550000000001
 10
-1.653165999999999
 20
-0.4910810000000001
 10
-1.642054999999999
 20
-0.548012
  0
LWPOLYLINE
  5
A1A
330
1E
100
AcDbEntity
  8
LAYER_1
  6
Continuous
 62
     7
100
AcDbPolyline
 90
        4
 70
     0
 43
0.0
 10
-1.642054999999999
 20
-0.548012
 10
-1.615845
 20
-0.6080100000000001
 10
-1.583266
 20
-0.663457
 10
-1.555012
 20
-0.7057050000000001
  0
LWPOLYLINE
  5
A20
330
1E
100
AcDbEntity
  8
LAYER_1
  6
Continuous
 62
     7
100
AcDbPolyline
 90
        4
 70
     0
 43
0.0
 10
-1.555012
 20
-0.7057050000000001
 10
-1.539158999999999
 20
-0.728761
 10
-1.533319
 20
-0.7372550000000001
 10
-1.532484
 20
-0.7384689999999999
  0
LWPOLYLINE
  5
A26
330
1E
100
AcDbEntity
  8
LAYER_1
  6
Continuous
 62
     7
100
AcDbPolyline
 90
        4
 70
     0
 43
0.0
 10
-0.9795389999999999
 20
-1.402012
 10
-0.9790079999999999
 20
-1.402731999999999
 10
-0.9752919999999999
 20
-1.407777
 10
-0.9652049999999999
 20
-1.421469
  0
LWPOLYLINE
  5
A2C
330
1E
100
AcDbEntity
  8
LAYER_1
  6
Continuous
 62
     7
100
AcDbPolyline
 90
        4
 70
     0
 43
0.0
 10
-0.9652049999999999
 20
-1.421469
 10
-0.9460469999999999
 20
-1.446871999999999
 10
-0.917111
 20
-1.482065999999999
 10
-0.8781649999999999
 20
-1.523857999999999
  0
LWPOLYLINE
  5
A32
330
1E
100
AcDbEntity
  8
LAYER_1
  6
Continuous
 62
     7
100
AcDbPolyline
 90
        4
 70
     0
 43
0.0
 10
-0.8781649999999999
 20
-1.523857999999999
 10
-0.832267
 20
-1.568502
 10
-0.795704
 20
-1.609952
 10
-0.7880390000000001
 20
-1.641622
  0
LWPOLYLINE
  5
A38
330
1E
100
AcDbEntity
  8
LAYER_1
  6
Continuous
 62
     7
100
AcDbPolyline
 90
        4
 70
     0
 43
0.0
 10
-0.7880390000000001
 20
-1.641622
 10
-0.82324
 20
-1.656560999999999
 10
-0.8927979999999999
 20
-1.646472
 10
-0.98261
 20
-1.602704999999999
  0
LWPOLYLINE
  5
A3E
330
1E
100
AcDbEntity
  8
LAYER_1
  6
Continuous
 62
     7
100
AcDbPolyline
 90
        5
 70
     0
 43
0.0
 10
-0.98261
 20
-1.602704999999999
 10
-1.055452999999999
 20
-1.544483999999999
 10
-1.129933
 20
-1.470229999999999
 10
-1.204219
 20
-1.387720999999999
 10
-1.276483999999999
 20
-1.304732
  0
LWPOLYLINE
  5
A45
330
1E
100
AcDbEntity
  8
LAYER_1
  6
Continuous
 62
     7
100
AcDbPolyline
 90
        4
 70
     0
 43
0.0
 10
-1.276483999999999
 20
-1.304732
 10
-1.366787999999999
 20
-1.205521999999999
 10
-1.447306999999999
 20
-1.1302
 10
-1.515082999999999
 20
-1.089693
  0
LWPOLYLINE
  5
A4B
330
1E
100
AcDbEntity
  8
LAYER_1
  6
Continuous
 62
     7
100
AcDbPolyline
 90
        4
 70
     0
 43
0.0
 10
-1.515082999999999
 20
-1.089693
 10
-1.567835
 20
-1.091852
 10
-1.606025999999999
 20
-1.132244
 10
-1.630790999999999
 20
-1.203357999999999
  0
LWPOLYLINE
  5
A51
330
1E
100
AcDbEntity
  8
LAYER_1
  6
Continuous
 62
     7
100
AcDbPolyline
 90
        4
 70
     0
 43
0.0
 10
-1.630790999999999
 20
-1.203357999999999
 10
-1.643722
 20
-1.297529999999999
 10
-1.648233
 20
-1.406489999999999
 10
-1.648193
 20
-1.521818999999999
  0
LWPOLYLINE
  5
A57
330
1E
100
AcDbEntity
  8
LAYER_1
  6
Continuous
 62
     7
100
AcDbPolyline
 90
        4
 70
     0
 43
0.0
 10
-1.648193
 20
-1.521818999999999
 10
-1.646902
 20
-1.634531999999999
 10
-1.645384999999999
 20
-1.733365
 10
-1.644093999999999
 20
-1.806484
  0
LWPOLYLINE
  5
A5D
330
1E
100
AcDbEntity
  8
LAYER_1
  6
Continuous
 62
     7
100
AcDbPolyline
 90
        4
 70
     0
 43
0.0
 10
-1.644093999999999
 20
-1.806484
 10
-1.643381999999999
 20
-1.846116
 10
-1.64312
 20
-1.860716999999999
 10
-1.643083
 20
-1.862802999999999
  0
LWPOLYLINE
  5
A63
330
1E
100
AcDbEntity
  8
LAYER_1
  6
Continuous
 62
     7
100
AcDbPolyline
 90
        4
 70
     0
 43
0.0
 10
1.671291
 20
1.055555
 10
1.670002
 20
1.055479
 10
1.660973
 20
1.054945999999999
 10
1.636468999999999
 20
1.0535
  0
LWPOLYLINE
  5
A69
330
1E
100
AcDbEntity
  8
LAYER_1
  6
Continuous
 62
     7
100
AcDbPolyline
 90
        4
 70
     0
 43
0.0
 10
1.636468999999999
 20
1.0535
 10
1.595213
 20
1.052364999999999
 10
1.561688
 20
1.059419
 10
1.566845999999999
 20
1.08422
  0
LWPOLYLINE
  5
A6F
330
1E
100
AcDbEntity
  8
LAYER_1
  6
Continuous
 62
     7
100
AcDbPolyline
 90
        4
 70
     0
 43
0.0
 10
1.566845999999999
 20
1.08422
 10
1.630333
 20
1.134206999999999
 10
1.726584999999999
 20
1.208315999999999
 10
1.818748
 20
1.303358
  0
LWPOLYLINE
  5
A75
330
1E
100
AcDbEntity
  8
LAYER_1
  6
Continuous
 62
     7
100
AcDbPolyline
 90
        4
 70
     0
 43
0.0
 10
1.818748
 20
1.303358
 10
1.878058
 20
1.413264999999999
 10
1.908241999999999
 20
1.520443
 10
1.921138
 20
1.604412999999999
  0
LWPOLYLINE
  5
A7B
330
1E
100
AcDbEntity
  8
LAYER_1
  6
Continuous
 62
     7
100
AcDbPolyline
 90
        4
 70
     0
 43
0.0
 10
1.921138
 20
1.604412999999999
 10
1.926902999999999
 20
1.650525
 10
1.929026999999999
 20
1.667513999999999
 10
1.929331
 20
1.669940999999999
  0
TEXT
  5
A81
330
1E
100
AcDbEntity
  8
LAYER_1
 62
     7
100
AcDbText
 10
1.478028
 20
-4.615566999999999
 30
0.0
 40
0.142902
  1
MD  12 Jul 04
 41
0.6178050487403874
  7
SN3
 72
     5
 11
2.541659
 21
-4.615566999999999
 31
0.0
100
AcDbText
  0
TEXT
  5
A82
330
1E
100
AcDbEntity
  8
LAYER_1
 62
     7
100
AcDbText
 10
1.781877999999999
 20
1.069161
 30
0.0
 40
0.111024
  1
Wiper rod:
 41
0.7006930933852138
  7
SN0
 72
     5
 11
2.404227999999999
 21
1.069161
 31
0.0
100
AcDbText
  0
TEXT
  5
A83
330
1E
100
AcDbEntity
  8
LAYER_1
 62
     7
100
AcDbText
 10
1.781877999999999
 20
0.9339959999999999
 30
0.0
 40
0.111024
  1
0.104" Stainless steel,
 41
0.6773934232179962
  7
SN0
 72
     5
 11
3.114114999999999
 21
0.9339959999999999
 31
0.0
100
AcDbText
  0
TEXT
  5
A84
330
1E
100
AcDbEntity
  8
LAYER_1
 62
     7
100
AcDbText
 10
1.781877999999999
 20
0.7988310000000001
 30
0.0
 40
0.111024
  1
soldered into hypo tube shaft 
 41
0.6385354517942066
  7
SN0
 72
     5
 11
3.554197
 21
0.7988310000000001
 31
0.0
100
AcDbText
  0
LWPOLYLINE
  5
A85
330
1E
100
AcDbEntity
  8
LAYER_1
  6
Continuous
 62
     7
100
AcDbPolyline
 90
        4
 70
     0
 43
0.0
 10
1.505303
 20
1.556275999999999
 10
0.970791
 20
1.106231999999999
 10
0.9047319999999999
 20
1.18765
 10
1.462303
 20
1.656122
  0
TEXT
  5
A8B
330
1E
100
AcDbEntity
  8
LAYER_1
 62
     7
100
AcDbText
 10
-3.047122
 20
-4.546173
 30
0.0
 40
0.111024
  1
wiper arm in plane
 41
0.6393925936093405
  7
SN0
 72
     5
 11
-1.945118999999999
 21
-4.546173
 31
0.0
100
AcDbText
  0
TEXT
  5
A8C
330
1E
100
AcDbEntity
  8
LAYER_1
 62
     7
100
AcDbText
 10
-3.047122
 20
-4.681339
 30
0.0
 40
0.111024
  1
with yoke pins
 41
0.6658545735541316
  7
SN0
 72
     5
 11
-2.198734999999999
 21
-4.681339
 31
0.0
100
AcDbText
  0
LWPOLYLINE
  5
A8D
330
1E
100
AcDbEntity
  8
LAYER_1
  6
Continuous
 62
     7
100
AcDbPolyline
 90
        4
 70
     0
 43
0.0
 10
-3.091874
 20
-4.566126
 10
-3.093334
 20
-4.566126
 10
-3.103556999999999
 20
-4.566126
 10
-3.131302999999999
 20
-4.566126
  0
LWPOLYLINE
  5
A93
330
1E
100
AcDbEntity
  8
LAYER_1
  6
Continuous
 62
     7
100
AcDbPolyline
 90
        4
 70
     0
 43
0.0
 10
-3.131302999999999
 20
-4.566126
 10
-3.179049
 20
-4.565216
 10
-3.224177999999999
 20
-4.558844999999999
 10
-3.237795
 20
-4.541551
  0
LWPOLYLINE
  5
A99
330
1E
100
AcDbEntity
  8
LAYER_1
  6
Continuous
 62
     7
100
AcDbPolyline
 90
        4
 70
     0
 43
0.0
 10
-3.237795
 20
-4.541551
 10
-3.200000999999999
 20
-4.507742999999999
 10
-3.126937999999999
 20
-4.451291
 10
-3.043747999999999
 20
-4.365937
  0
LWPOLYLINE
  5
A9F
330
1E
100
AcDbEntity
  8
LAYER_1
  6
Continuous
 62
     7
100
AcDbPolyline
 90
        4
 70
     0
 43
0.0
 10
-3.043747999999999
 20
-4.365937
 10
-2.971616
 20
-4.251288999999999
 10
-2.915865
 20
-4.130383999999999
 10
-2.877862
 20
-4.032122
  0
LWPOLYLINE
  5
AA5
330
1E
100
AcDbEntity
  8
LAYER_1
  6
Continuous
 62
     7
100
AcDbPolyline
 90
        4
 70
     0
 43
0.0
 10
-2.877862
 20
-4.032122
 10
-2.857687999999999
 20
-3.977712
 10
-2.850254999999999
 20
-3.957666999999999
 10
-2.849192999999999
 20
-3.954803
  0
LWPOLYLINE
  5
AAB
330
1E
100
AcDbEntity
  8
LAYER_1
  6
Continuous
 62
     7
100
AcDbPolyline
 90
        6
 70
     1
 43
0.0
 10
1.337886
 20
1.586999999999999
 10
1.396247999999999
 20
1.599291
 10
1.463830999999999
 20
1.519412999999999
 10
1.442331
 20
1.461054999999999
 10
-0.155083
 20
0.118594
 10
-0.259528
 20
0.247622
  0
TEXT
  5
AB3
330
1E
100
AcDbEntity
  8
LAYER_1
 62
     7
100
AcDbText
 10
0.284205
 20
0.233583
 30
0.0
 40
0.111024
  1
JR horn,
 41
0.6993429152803624
  7
SN0
 72
     5
 11
0.794436
 21
0.233583
 31
0.0
100
AcDbText
  0
TEXT
  5
AB4
330
1E
100
AcDbEntity
  8
LAYER_1
 62
     7
100
AcDbText
 10
0.284205
 20
0.098413
 30
0.0
 40
0.111024
  1
drilled for
 41
0.6326189973903399
  7
SN0
 72
     5
 11
0.839403
 21
0.098413
 31
0.0
100
AcDbText
  0
TEXT
  5
AB5
330
1E
100
AcDbEntity
  8
LAYER_1
 62
     7
100
AcDbText
 10
0.284205
 20
-0.036748
 30
0.0
 40
0.111024
  1
holes at 5mm radius.
 41
0.6475972408269718
  7
SN0
 72
     5
 11
1.537298999999999
 21
-0.036748
 31
0.0
100
AcDbText
  0
TEXT
  5
AB6
330
1E
100
AcDbEntity
  8
LAYER_1
 62
     7
100
AcDbText
 10
0.284205
 20
-0.171917
 30
0.0
 40
0.111024
  1
Pins horizontal with
 41
0.6728120442757398
  7
SN0
 72
     5
 11
1.447363999999999
 21
-0.171917
 31
0.0
100
AcDbText
  0
TEXT
  5
AB7
330
1E
100
AcDbEntity
  8
LAYER_1
 62
     7
100
AcDbText
 10
0.284205
 20
-0.307083
 30
0.0
 40
0.111024
  1
servo centered.
 41
0.7073135820410914
  7
SN0
 72
     5
 11
1.215332
 21
-0.307083
 31
0.0
100
AcDbText
  0
TEXT
  5
AB8
330
1E
100
AcDbEntity
  8
LAYER_1
 62
     7
100
AcDbText
 10
1.218083
 20
-3.510193
 30
0.0
 40
0.142902
  1
Metal hardware obtained from
 41
0.665341717088185
  7
SN4
 72
     5
 11
3.509026
 21
-3.510193
 31
0.0
100
AcDbText
  0
TEXT
  5
AB9
330
1E
100
AcDbEntity
  8
LAYER_1
 62
     7
100
AcDbText
 10
1.218083
 20
-3.682223999999999
 30
0.0
 40
0.142902
  1
www.smallparts.com
 41
0.7121658860467522
  7
SN4
 72
     5
 11
2.79794
 21
-3.682223999999999
 31
0.0
100
AcDbText
  0
ENDSEC
  0
SECTION
  2
OBJECTS
  0
DICTIONARY
  5
C
330
0
100
AcDbDictionary
281
     1
  3
ACAD_GROUP
350
D
  3
ACAD_LAYOUT
350
19
  3
ACAD_MLINESTYLE
350
16
  3
ACAD_PLOTSETTINGS
350
18
  3
ACAD_PLOTSTYLENAME
350
E
  0
DICTIONARY
  5
D
102
{ACAD_REACTORS
330
C
102
}
330
C
100
AcDbDictionary
281
     1
  0
DICTIONARY
  5
19
102
{ACAD_REACTORS
330
C
102
}
330
C
100
AcDbDictionary
281
     1
  3
Layout1
350
1D
  3
Model
350
21
  0
DICTIONARY
  5
16
102
{ACAD_REACTORS
330
C
102
}
330
C
100
AcDbDictionary
281
     1
  3
Standard
350
17
  0
DICTIONARY
  5
18
102
{ACAD_REACTORS
330
C
102
}
330
C
100
AcDbDictionary
281
     1
  0
ACDBDICTIONARYWDFLT
  5
E
102
{ACAD_REACTORS
330
C
102
}
330
C
100
AcDbDictionary
281
     1
  3
Normal
350
F
100
AcDbDictionaryWithDefault
340
F
  0
LAYOUT
  5
1D
102
{ACAD_REACTORS
330
19
102
}
330
19
100
AcDbPlotSettings
  1

  2
Epson FX-80
  4

  6

 40
0.0
 41
0.0
 42
0.0
 43
0.0
 44
0.0
 45
0.0
 46
0.0
 47
0.0
 48
0.0
 49
0.0
140
0.0
141
0.0
142
1.0
143
1.0
 70
   688
 72
     0
 73
     0
 74
     5
  7

 75
    16
147
1.0
148
0.0
149
0.0
100
AcDbLayout
  1
Layout1
 70
     1
 71
     1
 10
0.0
 20
0.0
 11
12.0
 21
9.0
 12
0.0
 22
0.0
 32
0.0
 14
1.000000000000000E+20
 24
1.000000000000000E+20
 34
1.000000000000000E+20
 15
-1.000000000000000E+20
 25
-1.000000000000000E+20
 35
-1.000000000000000E+20
146
0.0
 13
0.0
 23
0.0
 33
0.0
 16
1.0
 26
0.0
 36
0.0
 17
0.0
 27
1.0
 37
0.0
 76
     0
330
1A
  0
LAYOUT
  5
21
102
{ACAD_REACTORS
330
19
102
}
330
19
100
AcDbPlotSettings
  1

  2
Epson FX-80
  4

  6

 40
0.0
 41
0.0
 42
0.0
 43
0.0
 44
0.0
 45
0.0
 46
0.0
 47
0.0
 48
0.0
 49
0.0
140
0.0
141
0.0
142
1.0
143
1.0
 70
  1712
 72
     0
 73
     0
 74
     0
  7

 75
     0
147
1.0
148
0.0
149
0.0
100
AcDbLayout
  1
Model
 70
     1
 71
     0
 10
0.0
 20
0.0
 11
12.0
 21
9.0
 12
0.0
 22
0.0
 32
0.0
 14
0.0
 24
0.0
 34
0.0
 15
0.0
 25
0.0
 35
0.0
146
0.0
 13
0.0
 23
0.0
 33
0.0
 16
1.0
 26
0.0
 36
0.0
 17
0.0
 27
1.0
 37
0.0
 76
     0
330
1E
  0
MLINESTYLE
  5
17
102
{ACAD_REACTORS
330
16
102
}
330
16
100
AcDbMlineStyle
  2
STANDARD
 70
     0
  3

 62
   256
 51
90.0
 52
90.0
 71
     2
 49
0.5
 62
   256
  6
BYLAYER
 49
-0.5
 62
   256
  6
BYLAYER
  0
ACDBPLACEHOLDER
  5
F
102
{ACAD_REACTORS
330
E
102
}
330
E
  0
ENDSEC
  0
EOF
