  0
SECTION
  2
HEADER
  9
$ACADVER
  1
AC1015
  9
$ACADMAINTVER
 70
    10
  9
$DWGCODEPAGE
  3
ANSI_1252
  9
$INSBASE
 10
0.0
 20
0.0
 30
0.0
  9
$EXTMIN
 10
-3.794893950819671
 20
-4.924940572322399
 30
0.0
  9
$EXTMAX
 10
8.774318994634382
 20
4.899361000000019
 30
0.0
  9
$LIMMIN
 10
0.0
 20
0.0
  9
$LIMMAX
 10
12.0
 20
9.0
  9
$ORTHOMODE
 70
     0
  9
$REGENMODE
 70
     1
  9
$FILLMODE
 70
     1
  9
$QTEXTMODE
 70
     0
  9
$MIRRTEXT
 70
     1
  9
$LTSCALE
 40
0.000394
  9
$ATTMODE
 70
     1
  9
$TEXTSIZE
 40
0.2
  9
$TRACEWID
 40
0.05
  9
$TEXTSTYLE
  7
Standard
  9
$CLAYER
  8
0
  9
$CELTYPE
  6
CONTINUOUS
  9
$CECOLOR
 62
   256
  9
$CELTSCALE
 40
1.0
  9
$DISPSILH
 70
     0
  9
$DIMSCALE
 40
1.0
  9
$DIMASZ
 40
0.18
  9
$DIMEXO
 40
0.0625
  9
$DIMDLI
 40
0.38
  9
$DIMRND
 40
0.0
  9
$DIMDLE
 40
0.0
  9
$DIMEXE
 40
0.18
  9
$DIMTP
 40
0.0
  9
$DIMTM
 40
0.0
  9
$DIMTXT
 40
0.18
  9
$DIMCEN
 40
0.09
  9
$DIMTSZ
 40
0.0
  9
$DIMTOL
 70
     0
  9
$DIMLIM
 70
     0
  9
$DIMTIH
 70
     1
  9
$DIMTOH
 70
     1
  9
$DIMSE1
 70
     0
  9
$DIMSE2
 70
     0
  9
$DIMTAD
 70
     0
  9
$DIMZIN
 70
     0
  9
$DIMBLK
  1

  9
$DIMASO
 70
     1
  9
$DIMSHO
 70
     1
  9
$DIMPOST
  1

  9
$DIMAPOST
  1

  9
$DIMALT
 70
     0
  9
$DIMALTD
 70
     2
  9
$DIMALTF
 40
25.4
  9
$DIMLFAC
 40
1.0
  9
$DIMTOFL
 70
     0
  9
$DIMTVP
 40
0.0
  9
$DIMTIX
 70
     0
  9
$DIMSOXD
 70
     0
  9
$DIMSAH
 70
     0
  9
$DIMBLK1
  1

  9
$DIMBLK2
  1

  9
$DIMSTYLE
  2
Standard
  9
$DIMCLRD
 70
     0
  9
$DIMCLRE
 70
     0
  9
$DIMCLRT
 70
     0
  9
$DIMTFAC
 40
1.0
  9
$DIMGAP
 40
0.09
  9
$DIMJUST
 70
     0
  9
$DIMSD1
 70
     0
  9
$DIMSD2
 70
     0
  9
$DIMTOLJ
 70
     1
  9
$DIMTZIN
 70
     0
  9
$DIMALTZ
 70
     0
  9
$DIMALTTZ
 70
     0
  9
$DIMUPT
 70
     0
  9
$DIMDEC
 70
     4
  9
$DIMTDEC
 70
     4
  9
$DIMALTU
 70
     2
  9
$DIMALTTD
 70
     2
  9
$DIMTXSTY
  7
Standard
  9
$DIMAUNIT
 70
     0
  9
$DIMADEC
 70
     0
  9
$DIMALTRND
 40
0.0
  9
$DIMAZIN
 70
     0
  9
$DIMDSEP
 70
    46
  9
$DIMATFIT
 70
     3
  9
$DIMFRAC
 70
     0
  9
$DIMLDRBLK
  1

  9
$DIMLUNIT
 70
     2
  9
$DIMLWD
 70
    -2
  9
$DIMLWE
 70
    -2
  9
$DIMTMOVE
 70
     0
  9
$LUNITS
 70
     2
  9
$LUPREC
 70
     4
  9
$SKETCHINC
 40
0.1
  9
$FILLETRAD
 40
0.0
  9
$AUNITS
 70
     0
  9
$AUPREC
 70
     0
  9
$MENU
  1
.
  9
$ELEVATION
 40
0.0
  9
$PELEVATION
 40
0.0
  9
$THICKNESS
 40
0.0
  9
$LIMCHECK
 70
     0
  9
$CHAMFERA
 40
0.0
  9
$CHAMFERB
 40
0.0
  9
$CHAMFERC
 40
0.0
  9
$CHAMFERD
 40
0.0
  9
$SKPOLY
 70
     0
  9
$TDCREATE
 40
2453215.876212361
  9
$TDUCREATE
 40
2453216.042879028
  9
$TDUPDATE
 40
2453215.876608761
  9
$TDUUPDATE
 40
2453216.043275428
  9
$TDINDWG
 40
0.0003968634
  9
$TDUSRTIMER
 40
0.0003968634
  9
$USRTIMER
 70
     1
  9
$ANGBASE
 50
0.0
  9
$ANGDIR
 70
     0
  9
$PDMODE
 70
    35
  9
$PDSIZE
 40
0.000315
  9
$PLINEWID
 40
0.0
  9
$SPLFRAME
 70
     0
  9
$SPLINETYPE
 70
     6
  9
$SPLINESEGS
 70
     8
  9
$HANDSEED
  5
890
  9
$SURFTAB1
 70
     6
  9
$SURFTAB2
 70
     6
  9
$SURFTYPE
 70
     6
  9
$SURFU
 70
     6
  9
$SURFV
 70
     6
  9
$UCSBASE
  2

  9
$UCSNAME
  2

  9
$UCSORG
 10
0.0
 20
0.0
 30
0.0
  9
$UCSXDIR
 10
1.0
 20
0.0
 30
0.0
  9
$UCSYDIR
 10
0.0
 20
1.0
 30
0.0
  9
$UCSORTHOREF
  2

  9
$UCSORTHOVIEW
 70
     0
  9
$UCSORGTOP
 10
0.0
 20
0.0
 30
0.0
  9
$UCSORGBOTTOM
 10
0.0
 20
0.0
 30
0.0
  9
$UCSORGLEFT
 10
0.0
 20
0.0
 30
0.0
  9
$UCSORGRIGHT
 10
0.0
 20
0.0
 30
0.0
  9
$UCSORGFRONT
 10
0.0
 20
0.0
 30
0.0
  9
$UCSORGBACK
 10
0.0
 20
0.0
 30
0.0
  9
$PUCSBASE
  2

  9
$PUCSNAME
  2

  9
$PUCSORG
 10
0.0
 20
0.0
 30
0.0
  9
$PUCSXDIR
 10
1.0
 20
0.0
 30
0.0
  9
$PUCSYDIR
 10
0.0
 20
1.0
 30
0.0
  9
$PUCSORTHOREF
  2

  9
$PUCSORTHOVIEW
 70
     0
  9
$PUCSORGTOP
 10
0.0
 20
0.0
 30
0.0
  9
$PUCSORGBOTTOM
 10
0.0
 20
0.0
 30
0.0
  9
$PUCSORGLEFT
 10
0.0
 20
0.0
 30
0.0
  9
$PUCSORGRIGHT
 10
0.0
 20
0.0
 30
0.0
  9
$PUCSORGFRONT
 10
0.0
 20
0.0
 30
0.0
  9
$PUCSORGBACK
 10
0.0
 20
0.0
 30
0.0
  9
$USERI1
 70
     0
  9
$USERI2
 70
     0
  9
$USERI3
 70
     0
  9
$USERI4
 70
     0
  9
$USERI5
 70
     0
  9
$USERR1
 40
0.0
  9
$USERR2
 40
0.0
  9
$USERR3
 40
0.0
  9
$USERR4
 40
0.0
  9
$USERR5
 40
0.0
  9
$WORLDVIEW
 70
     1
  9
$SHADEDGE
 70
     3
  9
$SHADEDIF
 70
    70
  9
$TILEMODE
 70
     1
  9
$MAXACTVP
 70
    64
  9
$PINSBASE
 10
0.0
 20
0.0
 30
0.0
  9
$PLIMCHECK
 70
     0
  9
$PEXTMIN
 10
1.000000000000000E+20
 20
1.000000000000000E+20
 30
1.000000000000000E+20
  9
$PEXTMAX
 10
-1.000000000000000E+20
 20
-1.000000000000000E+20
 30
-1.000000000000000E+20
  9
$PLIMMIN
 10
0.0
 20
0.0
  9
$PLIMMAX
 10
12.0
 20
9.0
  9
$UNITMODE
 70
     0
  9
$VISRETAIN
 70
     1
  9
$PLINEGEN
 70
     0
  9
$PSLTSCALE
 70
     1
  9
$TREEDEPTH
 70
  3020
  9
$CMLSTYLE
  2
Standard
  9
$CMLJUST
 70
     0
  9
$CMLSCALE
 40
1.0
  9
$PROXYGRAPHICS
 70
     1
  9
$MEASUREMENT
 70
     0
  9
$CELWEIGHT
370
    -1
  9
$ENDCAPS
280
     0
  9
$JOINSTYLE
280
     0
  9
$LWDISPLAY
290
     0
  9
$INSUNITS
 70
     0
  9
$HYPERLINKBASE
  1

  9
$STYLESHEET
  1

  9
$XEDIT
290
     1
  9
$CEPSNTYPE
380
     0
  9
$PSTYLEMODE
290
     1
  9
$FINGERPRINTGUID
  2
{0192B3FE-21A8-49AC-94F5-DCC601F822C4}
  9
$VERSIONGUID
  2
{6E5CC7FE-2BD5-4F5D-AD2B-AF6FF4E39A2D}
  9
$EXTNAMES
290
     1
  9
$PSVPSCALE
 40
0.0
  9
$OLESTARTUP
290
     0
  0
ENDSEC
  0
SECTION
  2
CLASSES
  0
CLASS
  1
ACDBDICTIONARYWDFLT
  2
AcDbDictionaryWithDefault
  3
AutoCAD 2000
 90
        0
280
     0
281
     0
  0
CLASS
  1
ACDBPLACEHOLDER
  2
AcDbPlaceHolder
  3
AutoCAD 2000
 90
        0
280
     0
281
     0
  0
CLASS
  1
LAYOUT
  2
AcDbLayout
  3
AutoCAD 2000
 90
        0
280
     0
281
     0
  0
ENDSEC
  0
SECTION
  2
TABLES
  0
TABLE
  2
VPORT
  5
8
330
0
100
AcDbSymbolTable
 70
     2
  0
VPORT
  5
88F
330
8
100
AcDbSymbolTableRecord
100
AcDbViewportTableRecord
  2
*Active
 70
     0
 10
0.0
 20
0.0
 11
1.0
 21
1.0
 12
-1.523901714317315
 22
2.050157297576046
 13
0.0
 23
0.0
 14
1.0
 24
1.0
 15
0.0
 25
0.0
 16
0.0
 26
0.0
 36
1.0
 17
0.0
 27
0.0
 37
0.0
 40
2.435516189989989
 41
1.760330578512396
 42
50.0
 43
0.0
 44
0.0
 50
0.0
 51
0.0
 71
     0
 72
   100
 73
     1
 74
     1
 75
     0
 76
     0
 77
     0
 78
     0
281
     0
 65
     1
110
0.0
120
0.0
130
0.0
111
1.0
121
0.0
131
0.0
112
0.0
122
1.0
132
0.0
 79
     0
146
0.0
  0
ENDTAB
  0
TABLE
  2
LTYPE
  5
5
330
0
100
AcDbSymbolTable
 70
    10
  0
LTYPE
  5
13
330
5
100
AcDbSymbolTableRecord
100
AcDbLinetypeTableRecord
  2
ByBlock
 70
     0
  3

 72
    65
 73
     0
 40
0.0
  0
LTYPE
  5
14
330
5
100
AcDbSymbolTableRecord
100
AcDbLinetypeTableRecord
  2
ByLayer
 70
     0
  3

 72
    65
 73
     0
 40
0.0
  0
LTYPE
  5
15
330
5
100
AcDbSymbolTableRecord
100
AcDbLinetypeTableRecord
  2
CONTINUOUS
 70
     0
  3
Solid line
 72
    65
 73
     0
 40
0.0
  0
LTYPE
  5
22
330
5
100
AcDbSymbolTableRecord
100
AcDbLinetypeTableRecord
  2
DASHED
 70
     0
  3
__ __ __ __ __ __ __ __ __ __ __ __ __ __ __
 72
    65
 73
     2
 40
0.000003
 49
0.000002
 74
     0
 49
-0.000001
 74
     0
  0
LTYPE
  5
23
330
5
100
AcDbSymbolTableRecord
100
AcDbLinetypeTableRecord
  2
HIDDEN
 70
     0
  3
 _ _ _ _ _ _ _ _ _ _ _ _ _ _ _ _ _ _ _ _ _ _
 72
    65
 73
     2
 40
0.000001
 49
0.000001
 74
     0
 49
0.0
 74
     0
  0
LTYPE
  5
24
330
5
100
AcDbSymbolTableRecord
100
AcDbLinetypeTableRecord
  2
CENTER
 70
     0
  3
____ _ ____ _ ____ _ ____ _ ____ _ ____ _ ____
 72
    65
 73
     4
 40
0.000008
 49
0.000005
 74
     0
 49
-0.000001
 74
     0
 49
0.000001
 74
     0
 49
-0.000001
 74
     0
  0
LTYPE
  5
25
330
5
100
AcDbSymbolTableRecord
100
AcDbLinetypeTableRecord
  2
PHANTOM
 70
     0
  3
_____ _ _ _____ _ _ _____ _ _ _____ _ _ ____
 72
    65
 73
     6
 40
0.00001
 49
0.000005
 74
     0
 49
-0.000001
 74
     0
 49
0.000001
 74
     0
 49
-0.000001
 74
     0
 49
0.000001
 74
     0
 49
-0.000001
 74
     0
  0
LTYPE
  5
26
330
5
100
AcDbSymbolTableRecord
100
AcDbLinetypeTableRecord
  2
DOT
 70
     0
  3
...............................................
 72
    65
 73
     2
 40
0.000001
 49
0.0
 74
     0
 49
-0.000001
 74
     0
  0
LTYPE
  5
27
330
5
100
AcDbSymbolTableRecord
100
AcDbLinetypeTableRecord
  2
DASHDOT
 70
     0
  3
__ . __ . __ . __ . __ . __ . __ . __ . __ . __
 72
    65
 73
     4
 40
0.000004
 49
0.000002
 74
     0
 49
-0.000001
 74
     0
 49
0.0
 74
     0
 49
-0.000001
 74
     0
  0
LTYPE
  5
28
330
5
100
AcDbSymbolTableRecord
100
AcDbLinetypeTableRecord
  2
BORDER
 70
     0
  3
__ __ . __ __ . __ __ . __ __ . __ __ . __ __
 72
    65
 73
     6
 40
0.000007
 49
0.000002
 74
     0
 49
-0.000001
 74
     0
 49
0.000002
 74
     0
 49
-0.000001
 74
     0
 49
0.0
 74
     0
 49
-0.000001
 74
     0
  0
LTYPE
  5
29
330
5
100
AcDbSymbolTableRecord
100
AcDbLinetypeTableRecord
  2
DIVIDE
 70
     0
  3
__ . . __ . . __ . . __ . . __ . . __ . . __
 72
    65
 73
     6
 40
0.000005
 49
0.000002
 74
     0
 49
-0.000001
 74
     0
 49
0.0
 74
     0
 49
-0.000001
 74
     0
 49
0.0
 74
     0
 49
-0.000001
 74
     0
  0
LTYPE
  5
2A
330
5
100
AcDbSymbolTableRecord
100
AcDbLinetypeTableRecord
  2
DOTDOT
 70
     0
  3
 . .  . .  . .  . .  . .  . . 
 72
    65
 73
     5
 40
0.000002
 49
-0.000001
 74
     0
 49
0.0
 74
     0
 49
-0.000001
 74
     0
 49
0.0
 74
     0
 49
-0.000001
 74
     0
  0
ENDTAB
  0
TABLE
  2
LAYER
  5
2
330
0
100
AcDbSymbolTable
 70
     4
  0
LAYER
  5
10
330
2
100
AcDbSymbolTableRecord
100
AcDbLayerTableRecord
  2
0
 70
     0
 62
     7
  6
CONTINUOUS
370
    -3
390
F
  0
LAYER
  5
33
330
2
100
AcDbSymbolTableRecord
100
AcDbLayerTableRecord
  2
FOREGROUND
 70
     0
 62
     7
  6
CONTINUOUS
370
    -3
390
F
  0
LAYER
  5
34
330
2
100
AcDbSymbolTableRecord
100
AcDbLayerTableRecord
  2
BACKGROUND
 70
     1
 62
    -7
  6
CONTINUOUS
370
    -3
390
F
  0
LAYER
  5
35
330
2
100
AcDbSymbolTableRecord
100
AcDbLayerTableRecord
  2
LAYER_1
 70
     0
 62
     7
  6
CONTINUOUS
370
    -3
390
F
  0
ENDTAB
  0
TABLE
  2
STYLE
  5
3
330
0
100
AcDbSymbolTable
 70
     9
  0
STYLE
  5
11
330
3
100
AcDbSymbolTableRecord
100
AcDbTextStyleTableRecord
  2
Standard
 70
     0
 40
0.0
 41
1.0
 50
0.0
 71
     0
 42
0.2
  3
txt
  4

  0
STYLE
  5
2B
330
3
100
AcDbSymbolTableRecord
100
AcDbTextStyleTableRecord
  2
SN0
 70
     0
 40
0.0
 41
0.000004
 50
0.0
 71
     0
 42
0.0
  3
ROMAND
  4

  0
STYLE
  5
2C
330
3
100
AcDbSymbolTableRecord
100
AcDbTextStyleTableRecord
  2
SV0
 70
     4
 40
0.0
 41
0.000004
 50
0.0
 71
     0
 42
0.0
  3
ROMAND
  4

  0
STYLE
  5
2D
330
3
100
AcDbSymbolTableRecord
100
AcDbTextStyleTableRecord
  2
SN1
 70
     0
 40
0.0
 41
0.000004
 50
0.0
 71
     0
 42
0.0
  3
ROMAND
  4

  0
STYLE
  5
2E
330
3
100
AcDbSymbolTableRecord
100
AcDbTextStyleTableRecord
  2
SV1
 70
     4
 40
0.0
 41
0.000004
 50
0.0
 71
     0
 42
0.0
  3
ROMAND
  4

  0
STYLE
  5
2F
330
3
100
AcDbSymbolTableRecord
100
AcDbTextStyleTableRecord
  2
SN2
 70
     0
 40
0.0
 41
0.000004
 50
0.0
 71
     0
 42
0.0
  3
ROMAND
  4

  0
STYLE
  5
30
330
3
100
AcDbSymbolTableRecord
100
AcDbTextStyleTableRecord
  2
SV2
 70
     4
 40
0.0
 41
0.000004
 50
0.0
 71
     0
 42
0.0
  3
ROMAND
  4

  0
STYLE
  5
31
330
3
100
AcDbSymbolTableRecord
100
AcDbTextStyleTableRecord
  2
SN3
 70
     0
 40
0.0
 41
0.000004
 50
0.0
 71
     0
 42
0.0
  3
ROMAND
  4

  0
STYLE
  5
32
330
3
100
AcDbSymbolTableRecord
100
AcDbTextStyleTableRecord
  2
SV3
 70
     4
 40
0.0
 41
0.000004
 50
0.0
 71
     0
 42
0.0
  3
ROMAND
  4

  0
ENDTAB
  0
TABLE
  2
VIEW
  5
6
330
0
100
AcDbSymbolTable
 70
     0
  0
ENDTAB
  0
TABLE
  2
UCS
  5
7
330
0
100
AcDbSymbolTable
 70
     0
  0
ENDTAB
  0
TABLE
  2
APPID
  5
9
330
0
100
AcDbSymbolTable
 70
     1
  0
APPID
  5
12
330
9
100
AcDbSymbolTableRecord
100
AcDbRegAppTableRecord
  2
ACAD
 70
     0
  0
ENDTAB
  0
TABLE
  2
DIMSTYLE
  5
A
330
0
100
AcDbSymbolTable
 70
     1
100
AcDbDimStyleTable
 71
     0
  0
DIMSTYLE
105
88D
330
A
100
AcDbSymbolTableRecord
100
AcDbDimStyleTableRecord
  2
Standard
 70
     0
340
11
  0
ENDTAB
  0
TABLE
  2
BLOCK_RECORD
  5
1
330
0
100
AcDbSymbolTable
 70
     0
  0
BLOCK_RECORD
  5
1E
330
1
100
AcDbSymbolTableRecord
100
AcDbBlockTableRecord
  2
*Model_Space
340
21
  0
BLOCK_RECORD
  5
1A
330
1
100
AcDbSymbolTableRecord
100
AcDbBlockTableRecord
  2
*Paper_Space
340
1D
  0
ENDTAB
  0
ENDSEC
  0
SECTION
  2
BLOCKS
  0
BLOCK
  5
1F
330
1E
100
AcDbEntity
  8
0
100
AcDbBlockBegin
  2
*Model_Space
 70
     0
 10
0.0
 20
0.0
 30
0.0
  3
*Model_Space
  1

  0
ENDBLK
  5
20
330
1E
100
AcDbEntity
  8
0
100
AcDbBlockEnd
  0
BLOCK
  5
1B
330
1A
100
AcDbEntity
 67
     1
  8
0
100
AcDbBlockBegin
  2
*Paper_Space
 70
     0
 10
0.0
 20
0.0
 30
0.0
  3
*Paper_Space
  1

  0
ENDBLK
  5
1C
330
1A
100
AcDbEntity
 67
     1
  8
0
100
AcDbBlockEnd
  0
ENDSEC
  0
SECTION
  2
ENTITIES
  0
TEXT
  5
39
330
1E
100
AcDbEntity
  8
LAYER_1
 62
     7
100
AcDbText
 10
-0.289083
 20
3.640094
 30
0.0
 40
0.110729
  1
basswood
 41
0.7621947799535235
  7
SN0
 72
     5
 11
0.321791
 21
3.640094
 31
0.0
100
AcDbText
  0
TEXT
  5
3A
330
1E
100
AcDbEntity
  8
LAYER_1
 62
     7
100
AcDbText
 10
-0.289083
 20
3.504929
 30
0.0
 40
0.110729
  1
block
 41
0.7333434804243011
  7
SN0
 72
     5
 11
0.027993
 21
3.504929
 31
0.0
100
AcDbText
  0
TEXT
  5
3B
330
1E
100
AcDbEntity
  8
LAYER_1
 62
     7
100
AcDbText
 10
-0.117055
 20
4.039448999999999
 30
0.0
 40
0.110729
  1
#11 blade
 41
0.6773014312387966
  7
SN0
 72
     5
 11
0.479349
 21
4.039448999999999
 31
0.0
100
AcDbText
  0
TEXT
  5
3C
330
1E
100
AcDbEntity
  8
LAYER_1
 62
     7
100
AcDbText
 10
-2.150692999999999
 20
3.504929
 30
0.0
 40
0.110729
  1
metal straightedge
 41
0.6943665001645578
  7
SN0
 72
     5
 11
-1.034008
 21
3.504929
 31
0.0
100
AcDbText
  0
LWPOLYLINE
  5
3D
330
1E
100
AcDbEntity
  8
LAYER_1
  6
Continuous
 62
   153
100
AcDbPolyline
 90
        5
 70
     1
 43
0.0
 10
-0.242776
 20
4.086083
 10
-0.651441
 20
2.953345999999999
 10
-0.704291
 20
2.763402
 10
-0.6237050000000001
 20
2.943331
 10
-0.215039
 20
4.076067
  0
LWPOLYLINE
  5
44
330
1E
100
AcDbEntity
  8
LAYER_1
  6
Continuous
 62
     7
100
AcDbPolyline
 90
        5
 70
     1
 43
0.0
 10
-0.242776
 20
4.086083
 10
-0.651441
 20
2.953345999999999
 10
-0.704291
 20
2.763402
 10
-0.6237050000000001
 20
2.943331
 10
-0.215039
 20
4.076067
  0
SOLID
  5
4B
330
1E
100
AcDbEntity
  8
LAYER_1
  6
Continuous
 62
   253
100
AcDbTrace
 10
-0.5597910000000001
 20
3.230901999999999
 30
0.0
 11
-0.565957
 21
3.427401999999999
 31
0.0
 12
-1.55461
 22
3.199638
 32
0.0
 13
-1.560791
 23
3.396137999999999
 33
0.0
  0
LWPOLYLINE
  5
4C
330
1E
100
AcDbEntity
  8
LAYER_1
  6
Continuous
 62
   253
100
AcDbPolyline
 90
        4
 70
     1
 43
0.0
 10
-0.5597910000000001
 20
3.230901999999999
 10
-0.565957
 20
3.427401999999999
 10
-1.560791
 20
3.396137999999999
 10
-1.55461
 20
3.199638
  0
LWPOLYLINE
  5
52
330
1E
100
AcDbEntity
  8
LAYER_1
  6
Continuous
 62
     7
100
AcDbPolyline
 90
        4
 70
     1
 43
0.0
 10
-0.5597910000000001
 20
3.230901999999999
 10
-0.565957
 20
3.427401999999999
 10
-1.560791
 20
3.396137999999999
 10
-1.55461
 20
3.199638
  0
LWPOLYLINE
  5
58
330
1E
100
AcDbEntity
  8
LAYER_1
  6
DASHED
 62
     7
100
AcDbPolyline
 90
        2
 70
     0
 43
0.0
 10
-0.5843189999999999
 20
4.030885999999999
 10
-0.407665
 20
2.703692999999999
  0
TEXT
  5
5C
330
1E
100
AcDbEntity
  8
LAYER_1
 62
     7
100
AcDbText
 10
-3.311885999999999
 20
4.0415
 30
0.0
 40
0.142448
  1
Making hinge cuts
 41
0.6724087358563342
  7
SN1
 72
     5
 11
-1.925309
 21
4.0415
 31
0.0
100
AcDbText
  0
TEXT
  5
5D
330
1E
100
AcDbEntity
  8
LAYER_1
 62
     7
100
AcDbText
 10
-3.582219999999999
 20
-3.794858
 30
0.0
 40
0.142448
  1
In-bag hinge layup
 41
0.642087714599227
  7
SN1
 72
     5
 11
-2.166704
 21
-3.794858
 31
0.0
100
AcDbText
  0
TEXT
  5
5E
330
1E
100
AcDbEntity
  8
LAYER_1
 62
     7
100
AcDbText
 10
-0.2529409999999999
 20
-0.297067
 30
0.0
 40
0.110729
  1
precured 
 41
0.6675711391105911
  7
SN0
 72
     5
 11
0.320815
 21
-0.297067
 31
0.0
100
AcDbText
  0
TEXT
  5
5F
330
1E
100
AcDbEntity
  8
LAYER_1
 62
     7
100
AcDbText
 10
-0.2529409999999999
 20
-0.432236
 30
0.0
 40
0.110729
  1
2 oz. bias glass
 41
0.6409341074134466
  7
SN0
 72
     5
 11
0.6831870000000001
 21
-0.432236
 31
0.0
100
AcDbText
  0
TEXT
  5
60
330
1E
100
AcDbEntity
  8
LAYER_1
 62
     7
100
AcDbText
 10
-2.289731999999999
 20
-0.324764
 30
0.0
 40
0.110729
  1
sand flush
 50
357.8175103588049
 41
0.6747390438047322
  7
SN0
 72
     5
 11
-1.671129
 21
-0.348339
 31
0.0
100
AcDbText
  0
LWPOLYLINE
  5
61
330
1E
100
AcDbEntity
  8
LAYER_1
  6
Continuous
 62
     7
100
AcDbPolyline
 90
        2
 70
     0
 43
0.0
 10
-0.5225550000000001
 20
3.210164999999999
 10
-0.5225550000000001
 20
2.420676999999999
  0
LWPOLYLINE
  5
65
330
1E
100
AcDbEntity
  8
LAYER_1
  6
Continuous
 62
     7
100
AcDbPolyline
 90
        2
 70
     0
 43
0.0
 10
-0.482193
 20
3.210164999999999
 10
-0.482193
 20
2.420676999999999
  0
LWPOLYLINE
  5
69
330
1E
100
AcDbEntity
  8
LAYER_1
  6
Continuous
 62
     7
100
AcDbPolyline
 90
        2
 70
     0
 43
0.0
 10
-0.757193
 20
2.595775999999999
 10
-0.5360120000000001
 20
2.595775999999999
  0
SOLID
  5
6D
330
1E
100
AcDbEntity
  8
LAYER_1
  6
Continuous
 62
     7
100
AcDbTrace
 10
-0.646594
 20
2.6265
 30
0.0
 11
-0.535996
 21
2.595775999999999
 31
0.0
 12
-0.646594
 22
2.6265
 32
0.0
 13
-0.646594
 23
2.565055
 33
0.0
  0
LWPOLYLINE
  5
6E
330
1E
100
AcDbEntity
  8
LAYER_1
  6
Continuous
 62
     7
100
AcDbPolyline
 90
        3
 70
     1
 43
0.0
 10
-0.646594
 20
2.6265
 10
-0.535996
 20
2.595775999999999
 10
-0.646594
 20
2.565055
  0
LWPOLYLINE
  5
73
330
1E
100
AcDbEntity
  8
LAYER_1
  6
Continuous
 62
     7
100
AcDbPolyline
 90
        3
 70
     0
 43
0.0
 10
-0.646594
 20
2.6265
 10
-0.535996
 20
2.595775999999999
 10
-0.646594
 20
2.565055
  0
LWPOLYLINE
  5
78
330
1E
100
AcDbEntity
  8
LAYER_1
  6
Continuous
 62
     7
100
AcDbPolyline
 90
        2
 70
     0
 43
0.0
 10
-0.244165
 20
2.595775999999999
 10
-0.465346
 20
2.595775999999999
  0
SOLID
  5
7C
330
1E
100
AcDbEntity
  8
LAYER_1
  6
Continuous
 62
     7
100
AcDbTrace
 10
-0.3547639999999999
 20
2.565055
 30
0.0
 11
-0.465346
 21
2.595775999999999
 31
0.0
 12
-0.3547639999999999
 22
2.565055
 32
0.0
 13
-0.3547639999999999
 23
2.6265
 33
0.0
  0
LWPOLYLINE
  5
7D
330
1E
100
AcDbEntity
  8
LAYER_1
  6
Continuous
 62
     7
100
AcDbPolyline
 90
        3
 70
     1
 43
0.0
 10
-0.3547639999999999
 20
2.565055
 10
-0.465346
 20
2.595775999999999
 10
-0.3547639999999999
 20
2.6265
  0
LWPOLYLINE
  5
82
330
1E
100
AcDbEntity
  8
LAYER_1
  6
Continuous
 62
     7
100
AcDbPolyline
 90
        3
 70
     0
 43
0.0
 10
-0.3547639999999999
 20
2.565055
 10
-0.465346
 20
2.595775999999999
 10
-0.3547639999999999
 20
2.6265
  0
TEXT
  5
87
330
1E
100
AcDbEntity
  8
LAYER_1
 62
     7
100
AcDbText
 10
-3.236256
 20
2.597093999999999
 30
0.0
 40
0.110729
  1
0.02" to 0.03" for 1.0 oz Kevlar
 41
0.6161730066022138
  7
SN0
 72
     5
 11
-1.397343
 21
2.597093999999999
 31
0.0
100
AcDbText
  0
TEXT
  5
88
330
1E
100
AcDbEntity
  8
LAYER_1
 62
     7
100
AcDbText
 10
-3.236256
 20
2.461929
 30
0.0
 40
0.110729
  1
0.03" to 0.04" for 1.7 oz Kevlar
 41
0.6161730066022134
  7
SN0
 72
     5
 11
-1.397343
 21
2.461929
 31
0.0
100
AcDbText
  0
LWPOLYLINE
  5
89
330
1E
100
AcDbEntity
  8
LAYER_1
  6
Continuous
 62
     7
100
AcDbPolyline
 90
        4
 70
     0
 43
0.0
 10
-3.574169
 20
3.149345999999999
 10
-3.572629
 20
3.149179999999999
 10
-3.561851
 20
3.148013
 10
-3.532594
 20
3.144845999999999
  0
LWPOLYLINE
  5
8F
330
1E
100
AcDbEntity
  8
LAYER_1
  6
Continuous
 62
     7
100
AcDbPolyline
 90
        4
 70
     0
 43
0.0
 10
-3.532594
 20
3.144845999999999
 10
-3.477859999999999
 20
3.138891999999999
 10
-3.399598999999999
 20
3.130303
 10
-3.301995999999999
 20
3.119441
  0
LWPOLYLINE
  5
95
330
1E
100
AcDbEntity
  8
LAYER_1
  6
Continuous
 62
     7
100
AcDbPolyline
 90
        4
 70
     0
 43
0.0
 10
-3.301995999999999
 20
3.119441
 10
-3.189356
 20
3.106723
 10
-3.066476999999999
 20
3.092772999999999
 10
-2.938275999999999
 20
3.078275999999999
  0
LWPOLYLINE
  5
9B
330
1E
100
AcDbEntity
  8
LAYER_1
  6
Continuous
 62
     7
100
AcDbPolyline
 90
        4
 70
     0
 43
0.0
 10
-2.938275999999999
 20
3.078275999999999
 10
-2.808822999999999
 20
3.063779999999999
 10
-2.678821
 20
3.049284999999999
 10
-2.548138
 20
3.03465
  0
LWPOLYLINE
  5
A1
330
1E
100
AcDbEntity
  8
LAYER_1
  6
Continuous
 62
     7
100
AcDbPolyline
 90
        4
 70
     0
 43
0.0
 10
-2.548138
 20
3.03465
 10
-2.416695
 20
3.019797999999999
 10
-2.284659999999999
 20
3.004804
 10
-2.152263999999999
 20
2.989802999999999
  0
LWPOLYLINE
  5
A7
330
1E
100
AcDbEntity
  8
LAYER_1
  6
Continuous
 62
     7
100
AcDbPolyline
 90
        5
 70
     0
 43
0.0
 10
-2.152263999999999
 20
2.989802999999999
 10
-2.052859
 20
2.978632
 10
-1.953434
 20
2.967534
 10
-1.854043999999999
 20
2.956513
 10
-1.754748
 20
2.945567
  0
LWPOLYLINE
  5
AE
330
1E
100
AcDbEntity
  8
LAYER_1
  6
Continuous
 62
     7
100
AcDbPolyline
 90
        4
 70
     0
 43
0.0
 10
-1.754748
 20
2.945567
 10
-1.622582999999999
 20
2.931102999999999
 10
-1.490639999999999
 20
2.916821
 10
-1.358873999999999
 20
2.902763999999999
  0
LWPOLYLINE
  5
B4
330
1E
100
AcDbEntity
  8
LAYER_1
  6
Continuous
 62
     7
100
AcDbPolyline
 90
        4
 70
     0
 43
0.0
 10
-1.358873999999999
 20
2.902763999999999
 10
-1.227524
 20
2.888986
 10
-1.097903
 20
2.875575999999999
 10
-0.97161
 20
2.862621999999999
  0
LWPOLYLINE
  5
BA
330
1E
100
AcDbEntity
  8
LAYER_1
  6
Continuous
 62
     7
100
AcDbPolyline
 90
        4
 70
     0
 43
0.0
 10
-0.97161
 20
2.862621999999999
 10
-0.849994
 20
2.850163999999999
 10
-0.7335250000000001
 20
2.838022
 10
-0.622429
 20
2.825968999999999
  0
LWPOLYLINE
  5
C0
330
1E
100
AcDbEntity
  8
LAYER_1
  6
Continuous
 62
     7
100
AcDbPolyline
 90
        4
 70
     0
 43
0.0
 10
-0.622429
 20
2.825968999999999
 10
-0.516082
 20
2.813763
 10
-0.410511
 20
2.801100999999999
 10
-0.300886
 20
2.787665
  0
LWPOLYLINE
  5
C6
330
1E
100
AcDbEntity
  8
LAYER_1
  6
Continuous
 62
     7
100
AcDbPolyline
 90
        4
 70
     0
 43
0.0
 10
-0.300886
 20
2.787665
 10
-0.183642
 20
2.773266
 10
-0.060163
 20
2.758179
 10
0.066913
 20
2.742818999999999
  0
LWPOLYLINE
  5
CC
330
1E
100
AcDbEntity
  8
LAYER_1
  6
Continuous
 62
     7
100
AcDbPolyline
 90
        4
 70
     0
 43
0.0
 10
0.066913
 20
2.742818999999999
 10
0.195346
 20
2.727540999999999
 10
0.32446
 20
2.712492999999999
 10
0.453984
 20
2.697763999999999
  0
LWPOLYLINE
  5
D2
330
1E
100
AcDbEntity
  8
LAYER_1
  6
Continuous
 62
     7
100
AcDbPolyline
 90
        4
 70
     0
 43
0.0
 10
0.453984
 20
2.697763999999999
 10
0.583691
 20
2.683425
 10
0.7135350000000001
 20
2.669497999999999
 10
0.8435120000000001
 20
2.655984
  0
LWPOLYLINE
  5
D8
330
1E
100
AcDbEntity
  8
LAYER_1
  6
Continuous
 62
     7
100
AcDbPolyline
 90
        4
 70
     0
 43
0.0
 10
0.8435120000000001
 20
2.655984
 10
0.9736159999999999
 20
2.642873999999999
 10
1.103812
 20
2.630125999999999
 10
1.234054999999999
 20
2.617693
  0
LWPOLYLINE
  5
DE
330
1E
100
AcDbEntity
  8
LAYER_1
  6
Continuous
 62
     7
100
AcDbPolyline
 90
        4
 70
     0
 43
0.0
 10
1.234054999999999
 20
2.617693
 10
1.364304
 20
2.605539999999999
 10
1.494554
 20
2.593661999999999
 10
1.624802999999999
 20
2.582054999999999
  0
LWPOLYLINE
  5
E4
330
1E
100
AcDbEntity
  8
LAYER_1
  6
Continuous
 62
     7
100
AcDbPolyline
 90
        4
 70
     0
 43
0.0
 10
1.624802999999999
 20
2.582054999999999
 10
1.755058
 20
2.570729
 10
1.885315
 20
2.559724
 10
2.015566999999999
 20
2.549082999999999
  0
LWPOLYLINE
  5
EA
330
1E
100
AcDbEntity
  8
LAYER_1
  6
Continuous
 62
     7
100
AcDbPolyline
 90
        4
 70
     0
 43
0.0
 10
2.015566999999999
 20
2.549082999999999
 10
2.145809999999999
 20
2.538841999999999
 10
2.276006
 20
2.529011
 10
2.406109999999999
 20
2.519593999999999
  0
LWPOLYLINE
  5
F0
330
1E
100
AcDbEntity
  8
LAYER_1
  6
Continuous
 62
     7
100
AcDbPolyline
 90
        4
 70
     0
 43
0.0
 10
2.406109999999999
 20
2.519593999999999
 10
2.536099999999999
 20
2.510581
 10
2.665995
 20
2.501981
 10
2.795846
 20
2.493790999999999
  0
LWPOLYLINE
  5
F6
330
1E
100
AcDbEntity
  8
LAYER_1
  6
Continuous
 62
     7
100
AcDbPolyline
 90
        4
 70
     0
 43
0.0
 10
2.795846
 20
2.493790999999999
 10
2.925675
 20
2.486007999999999
 10
3.055465
 20
2.478633
 10
3.185165
 20
2.471665
  0
LWPOLYLINE
  5
FC
330
1E
100
AcDbEntity
  8
LAYER_1
  6
Continuous
 62
     7
100
AcDbPolyline
 90
        4
 70
     0
 43
0.0
 10
3.185165
 20
2.471665
 10
3.314733999999999
 20
2.465116999999999
 10
3.444163999999999
 20
2.459027999999999
 10
3.573456999999999
 20
2.453441
  0
LWPOLYLINE
  5
102
330
1E
100
AcDbEntity
  8
LAYER_1
  6
Continuous
 62
     7
100
AcDbPolyline
 90
        4
 70
     0
 43
0.0
 10
3.573456999999999
 20
2.453441
 10
3.702612
 20
2.448379
 10
3.831637
 20
2.443821999999999
 10
3.960528
 20
2.439719999999999
  0
LWPOLYLINE
  5
108
330
1E
100
AcDbEntity
  8
LAYER_1
  6
Continuous
 62
     7
100
AcDbPolyline
 90
        4
 70
     0
 43
0.0
 10
3.960528
 20
2.439719999999999
 10
4.089277
 20
2.436050999999999
 10
4.217887
 20
2.432881
 10
4.346358
 20
2.430302999999999
  0
LWPOLYLINE
  5
10E
330
1E
100
AcDbEntity
  8
LAYER_1
  6
Continuous
 62
     7
100
AcDbPolyline
 90
        4
 70
     0
 43
0.0
 10
4.346358
 20
2.430302999999999
 10
4.474694
 20
2.428377999999999
 10
4.602841999999999
 20
2.427041
 10
4.730763999999999
 20
2.426204999999999
  0
LWPOLYLINE
  5
114
330
1E
100
AcDbEntity
  8
LAYER_1
  6
Continuous
 62
     7
100
AcDbPolyline
 90
        4
 70
     0
 43
0.0
 10
4.730763999999999
 20
2.426204999999999
 10
4.858419999999999
 20
2.425821
 10
4.985802999999999
 20
2.42598
 10
5.112912999999999
 20
2.426819
  0
LWPOLYLINE
  5
11A
330
1E
100
AcDbEntity
  8
LAYER_1
  6
Continuous
 62
     7
100
AcDbPolyline
 90
        4
 70
     0
 43
0.0
 10
5.112912999999999
 20
2.426819
 10
5.239735999999999
 20
2.428452
 10
5.366198
 20
2.430852999999999
 10
5.492205
 20
2.433984
  0
LWPOLYLINE
  5
120
330
1E
100
AcDbEntity
  8
LAYER_1
  6
Continuous
 62
     7
100
AcDbPolyline
 90
        4
 70
     0
 43
0.0
 10
5.492205
 20
2.433984
 10
5.617687
 20
2.437822999999999
 10
5.742719
 20
2.442433999999999
 10
5.867385999999999
 20
2.447913
  0
LWPOLYLINE
  5
126
330
1E
100
AcDbEntity
  8
LAYER_1
  6
Continuous
 62
     7
100
AcDbPolyline
 90
        4
 70
     0
 43
0.0
 10
5.867385999999999
 20
2.447913
 10
5.991741
 20
2.454318999999999
 10
6.115632999999999
 20
2.461637
 10
6.238885999999999
 20
2.469818999999999
  0
LWPOLYLINE
  5
12C
330
1E
100
AcDbEntity
  8
LAYER_1
  6
Continuous
 62
     7
100
AcDbPolyline
 90
        4
 70
     0
 43
0.0
 10
6.238885999999999
 20
2.469818999999999
 10
6.361359999999999
 20
2.478851999999999
 10
6.48301
 20
2.48879
 10
6.603846
 20
2.499719999999999
  0
LWPOLYLINE
  5
132
330
1E
100
AcDbEntity
  8
LAYER_1
  6
Continuous
 62
     7
100
AcDbPolyline
 90
        4
 70
     0
 43
0.0
 10
6.603846
 20
2.499719999999999
 10
6.723824999999999
 20
2.511738
 10
6.842802
 20
2.524845999999999
 10
6.960594
 20
2.539038999999999
  0
LWPOLYLINE
  5
138
330
1E
100
AcDbEntity
  8
LAYER_1
  6
Continuous
 62
     7
100
AcDbPolyline
 90
        4
 70
     0
 43
0.0
 10
6.960594
 20
2.539038999999999
 10
7.077036999999999
 20
2.554351
 10
7.191971999999999
 20
2.570843999999999
 10
7.305275999999999
 20
2.588609999999999
  0
LWPOLYLINE
  5
13E
330
1E
100
AcDbEntity
  8
LAYER_1
  6
Continuous
 62
     7
100
AcDbPolyline
 90
        4
 70
     0
 43
0.0
 10
7.305275999999999
 20
2.588609999999999
 10
7.416767
 20
2.607731999999999
 10
7.526167
 20
2.628265
 10
7.633149999999999
 20
2.650247999999999
  0
LWPOLYLINE
  5
144
330
1E
100
AcDbEntity
  8
LAYER_1
  6
Continuous
 62
     7
100
AcDbPolyline
 90
        4
 70
     0
 43
0.0
 10
7.633149999999999
 20
2.650247999999999
 10
7.737356
 20
2.673696
 10
7.838191999999999
 20
2.698415
 10
7.935027999999999
 20
2.724177
  0
LWPOLYLINE
  5
14A
330
1E
100
AcDbEntity
  8
LAYER_1
  6
Continuous
 62
     7
100
AcDbPolyline
 90
        4
 70
     0
 43
0.0
 10
7.935027999999999
 20
2.724177
 10
8.027158999999999
 20
2.750754999999999
 10
8.113694999999999
 20
2.777829999999999
 10
8.193677
 20
2.805083
  0
LWPOLYLINE
  5
150
330
1E
100
AcDbEntity
  8
LAYER_1
  6
Continuous
 62
     7
100
AcDbPolyline
 90
        4
 70
     0
 43
0.0
 10
8.193677
 20
2.805083
 10
8.266275
 20
2.832150999999999
 10
8.331137
 20
2.858490999999999
 10
8.388038999999999
 20
2.883511999999999
  0
LWPOLYLINE
  5
156
330
1E
100
AcDbEntity
  8
LAYER_1
  6
Continuous
 62
     7
100
AcDbPolyline
 90
        4
 70
     0
 43
0.0
 10
8.388038999999999
 20
2.883511999999999
 10
8.436927999999999
 20
2.906738999999999
 10
8.478535
 20
2.928145999999999
 10
8.513776
 20
2.947818999999999
  0
LWPOLYLINE
  5
15C
330
1E
100
AcDbEntity
  8
LAYER_1
  6
Continuous
 62
     7
100
AcDbPolyline
 90
        4
 70
     0
 43
0.0
 10
8.513776
 20
2.947818999999999
 10
8.543549999999999
 20
2.965864999999999
 10
8.568725
 20
2.982409
 10
8.590164999999998
 20
2.997593999999999
  0
LWPOLYLINE
  5
162
330
1E
100
AcDbEntity
  8
LAYER_1
  6
Continuous
 62
     7
100
AcDbPolyline
 90
        4
 70
     0
 43
0.0
 10
8.590164999999998
 20
2.997593999999999
 10
8.608661999999998
 20
3.011544999999999
 10
8.624648999999999
 20
3.024455
 10
8.6385
 20
3.0365
  0
LWPOLYLINE
  5
168
330
1E
100
AcDbEntity
  8
LAYER_1
  6
Continuous
 62
     7
100
AcDbPolyline
 90
        4
 70
     0
 43
0.0
 10
8.6385
 20
3.0365
 10
8.650552000000001
 20
3.047842999999999
 10
8.661057000000001
 20
3.058599
 10
8.670247999999999
 20
3.068858
  0
LWPOLYLINE
  5
16E
330
1E
100
AcDbEntity
  8
LAYER_1
  6
Continuous
 62
     7
100
AcDbPolyline
 90
        4
 70
     0
 43
0.0
 10
8.670247999999999
 20
3.068858
 10
8.678317999999999
 20
3.078686
 10
8.685387999999999
 20
3.088109999999999
 10
8.691539
 20
3.097122
  0
LWPOLYLINE
  5
174
330
1E
100
AcDbEntity
  8
LAYER_1
  6
Continuous
 62
     7
100
AcDbPolyline
 90
        4
 70
     0
 43
0.0
 10
8.691539
 20
3.097122
 10
8.696875
 20
3.105736999999999
 10
8.701437
 20
3.114033
 10
8.705263999999999
 20
3.122109999999999
  0
LWPOLYLINE
  5
17A
330
1E
100
AcDbEntity
  8
LAYER_1
  6
Continuous
 62
     7
100
AcDbPolyline
 90
        4
 70
     0
 43
0.0
 10
8.705263999999999
 20
3.122109999999999
 10
8.708389999999999
 20
3.130034
 10
8.710739999999999
 20
3.137869999999999
 10
8.71222
 20
3.145665
  0
LWPOLYLINE
  5
180
330
1E
100
AcDbEntity
  8
LAYER_1
  6
Continuous
 62
     7
100
AcDbPolyline
 90
        4
 70
     0
 43
0.0
 10
8.71222
 20
3.145665
 10
8.712778999999999
 20
3.153431
 10
8.712425999999998
 20
3.161151999999999
 10
8.711204999999999
 20
3.168791
  0
LWPOLYLINE
  5
186
330
1E
100
AcDbEntity
  8
LAYER_1
  6
Continuous
 62
     7
100
AcDbPolyline
 90
        4
 70
     0
 43
0.0
 10
8.711204999999999
 20
3.168791
 10
8.709132999999999
 20
3.176296999999999
 10
8.706103999999999
 20
3.183616999999999
 10
8.701983999999999
 20
3.190704999999999
  0
LWPOLYLINE
  5
18C
330
1E
100
AcDbEntity
  8
LAYER_1
  6
Continuous
 62
     7
100
AcDbPolyline
 90
        4
 70
     0
 43
0.0
 10
8.701983999999999
 20
3.190704999999999
 10
8.696683
 20
3.197544999999999
 10
8.690288999999999
 20
3.204204999999999
 10
8.682940999999999
 20
3.210775999999999
  0
LWPOLYLINE
  5
192
330
1E
100
AcDbEntity
  8
LAYER_1
  6
Continuous
 62
     7
100
AcDbPolyline
 90
        4
 70
     0
 43
0.0
 10
8.682940999999999
 20
3.210775999999999
 10
8.67473
 20
3.217338
 10
8.665558
 20
3.223943999999999
 10
8.655291
 20
3.230637999999999
  0
LWPOLYLINE
  5
198
330
1E
100
AcDbEntity
  8
LAYER_1
  6
Continuous
 62
     7
100
AcDbPolyline
 90
        4
 70
     0
 43
0.0
 10
8.655291
 20
3.230637999999999
 10
8.643803999999999
 20
3.237466999999999
 10
8.630950999999999
 20
3.244428
 10
8.616594
 20
3.251527999999999
  0
LWPOLYLINE
  5
19E
330
1E
100
AcDbEntity
  8
LAYER_1
  6
Continuous
 62
     7
100
AcDbPolyline
 90
        4
 70
     0
 43
0.0
 10
8.616594
 20
3.251527999999999
 10
8.600514999999999
 20
3.25879
 10
8.582209999999999
 20
3.266321
 10
8.561082999999999
 20
3.274264
  0
LWPOLYLINE
  5
1A4
330
1E
100
AcDbEntity
  8
LAYER_1
  6
Continuous
 62
     7
100
AcDbPolyline
 90
        4
 70
     0
 43
0.0
 10
8.561082999999999
 20
3.274264
 10
8.536466
 20
3.282737
 10
8.507341
 20
3.291801
 10
8.472621999999999
 20
3.301499999999999
  0
LWPOLYLINE
  5
1AA
330
1E
100
AcDbEntity
  8
LAYER_1
  6
Continuous
 62
     7
100
AcDbPolyline
 90
        4
 70
     0
 43
0.0
 10
8.472621999999999
 20
3.301499999999999
 10
8.431175999999998
 20
3.311863999999999
 10
8.381819999999999
 20
3.322817999999999
 10
8.323318999999999
 20
3.334276
  0
LWPOLYLINE
  5
1B0
330
1E
100
AcDbEntity
  8
LAYER_1
  6
Continuous
 62
     7
100
AcDbPolyline
 90
        4
 70
     0
 43
0.0
 10
8.323318999999999
 20
3.334276
 10
8.254741
 20
3.346073
 10
8.176379999999999
 20
3.357829
 10
8.088830999999998
 20
3.369083
  0
LWPOLYLINE
  5
1B6
330
1E
100
AcDbEntity
  8
LAYER_1
  6
Continuous
 62
     7
100
AcDbPolyline
 90
        4
 70
     0
 43
0.0
 10
8.088830999999998
 20
3.369083
 10
7.992808
 20
3.379452999999999
 10
7.889596
 20
3.388819999999999
 10
7.78061
 20
3.397137999999999
  0
LWPOLYLINE
  5
1BC
330
1E
100
AcDbEntity
  8
LAYER_1
  6
Continuous
 62
     7
100
AcDbPolyline
 90
        4
 70
     0
 43
0.0
 10
7.78061
 20
3.397137999999999
 10
7.667132999999999
 20
3.404379
 10
7.550021
 20
3.410519999999999
 10
7.429999999999999
 20
3.415566999999999
  0
LWPOLYLINE
  5
1C2
330
1E
100
AcDbEntity
  8
LAYER_1
  6
Continuous
 62
     7
100
AcDbPolyline
 90
        4
 70
     0
 43
0.0
 10
7.429999999999999
 20
3.415566999999999
 10
7.307719999999999
 20
3.419562
 10
7.183627
 20
3.422642999999999
 10
7.058082999999999
 20
3.424999999999999
  0
LWPOLYLINE
  5
1C8
330
1E
100
AcDbEntity
  8
LAYER_1
  6
Continuous
 62
     7
100
AcDbPolyline
 90
        4
 70
     0
 43
0.0
 10
7.058082999999999
 20
3.424999999999999
 10
6.931405999999999
 20
3.426769999999999
 10
6.803772999999999
 20
3.427998999999999
 10
6.675319
 20
3.428676999999999
  0
LWPOLYLINE
  5
1CE
330
1E
100
AcDbEntity
  8
LAYER_1
  6
Continuous
 62
     7
100
AcDbPolyline
 90
        4
 70
     0
 43
0.0
 10
6.675319
 20
3.428676999999999
 10
6.546165
 20
3.428824999999999
 10
6.416375
 20
3.428465
 10
6.285999999999999
 20
3.427649999999999
  0
LWPOLYLINE
  5
1D4
330
1E
100
AcDbEntity
  8
LAYER_1
  6
Continuous
 62
     7
100
AcDbPolyline
 90
        4
 70
     0
 43
0.0
 10
6.285999999999999
 20
3.427649999999999
 10
6.155076999999999
 20
3.426437
 10
6.023700999999999
 20
3.424851999999999
 10
5.891956999999999
 20
3.422941
  0
LWPOLYLINE
  5
1DA
330
1E
100
AcDbEntity
  8
LAYER_1
  6
Continuous
 62
     7
100
AcDbPolyline
 90
        4
 70
     0
 43
0.0
 10
5.891956999999999
 20
3.422941
 10
5.759947
 20
3.420769
 10
5.627701999999999
 20
3.418365
 10
5.495276
 20
3.415776
  0
LWPOLYLINE
  5
1E0
330
1E
100
AcDbEntity
  8
LAYER_1
  6
Continuous
 62
     7
100
AcDbPolyline
 90
        4
 70
     0
 43
0.0
 10
5.495276
 20
3.415776
 10
5.362711
 20
3.413048999999999
 10
5.23005
 20
3.410181999999999
 10
5.097345999999999
 20
3.407176999999999
  0
LWPOLYLINE
  5
1E6
330
1E
100
AcDbEntity
  8
LAYER_1
  6
Continuous
 62
     7
100
AcDbPolyline
 90
        4
 70
     0
 43
0.0
 10
5.097345999999999
 20
3.407176999999999
 10
4.964625999999999
 20
3.40404
 10
4.831814999999999
 20
3.400762
 10
4.698819
 20
3.397345999999999
  0
LWPOLYLINE
  5
1EC
330
1E
100
AcDbEntity
  8
LAYER_1
  6
Continuous
 62
     7
100
AcDbPolyline
 90
        5
 70
     0
 43
0.0
 10
4.698819
 20
3.397345999999999
 10
4.598905
 20
3.394694
 10
4.498879
 20
3.391967999999999
 10
4.398776999999999
 20
3.389168
 10
4.298637999999999
 20
3.386291
  0
LWPOLYLINE
  5
1F3
330
1E
100
AcDbEntity
  8
LAYER_1
  6
Continuous
 62
     7
100
AcDbPolyline
 90
        5
 70
     0
 43
0.0
 10
4.298637999999999
 20
3.386291
 10
4.198491
 20
3.383337999999999
 10
4.098326
 20
3.380326
 10
3.998123
 20
3.377275
 10
3.897858
 20
3.374205
  0
LWPOLYLINE
  5
1FA
330
1E
100
AcDbEntity
  8
LAYER_1
  6
Continuous
 62
     7
100
AcDbPolyline
 90
        5
 70
     0
 43
0.0
 10
3.897858
 20
3.374205
 10
3.797519999999999
 20
3.37113
 10
3.697125
 20
3.368033999999999
 10
3.596694
 20
3.364898999999999
 10
3.496248
 20
3.361705
  0
LWPOLYLINE
  5
201
330
1E
100
AcDbEntity
  8
LAYER_1
  6
Continuous
 62
     7
100
AcDbPolyline
 90
        5
 70
     0
 43
0.0
 10
3.496248
 20
3.361705
 10
3.395788999999999
 20
3.358448999999999
 10
3.295313999999999
 20
3.355130999999999
 10
3.194802
 20
3.351774999999999
 10
3.094231999999999
 20
3.348401999999999
  0
LWPOLYLINE
  5
208
330
1E
100
AcDbEntity
  8
LAYER_1
  6
Continuous
 62
     7
100
AcDbPolyline
 90
        5
 70
     0
 43
0.0
 10
3.094231999999999
 20
3.348401999999999
 10
2.993595999999999
 20
3.345023999999999
 10
2.892919
 20
3.341644
 10
2.79224
 20
3.338262999999999
 10
2.691593999999999
 20
3.334886
  0
LWPOLYLINE
  5
20F
330
1E
100
AcDbEntity
  8
LAYER_1
  6
Continuous
 62
     7
100
AcDbPolyline
 90
        5
 70
     0
 43
0.0
 10
2.691593999999999
 20
3.334886
 10
2.591021
 20
3.331504
 10
2.490483999999999
 20
3.328125
 10
2.389947
 20
3.324748999999999
 10
2.289374
 20
3.321373999999999
  0
LWPOLYLINE
  5
216
330
1E
100
AcDbEntity
  8
LAYER_1
  6
Continuous
 62
     7
100
AcDbPolyline
 90
        5
 70
     0
 43
0.0
 10
2.289374
 20
3.321373999999999
 10
2.188736
 20
3.317989999999999
 10
2.08806
 20
3.314608999999999
 10
1.987384
 20
3.311228999999999
 10
1.886747999999999
 20
3.307846
  0
LWPOLYLINE
  5
21D
330
1E
100
AcDbEntity
  8
LAYER_1
  6
Continuous
 62
     7
100
AcDbPolyline
 90
        5
 70
     0
 43
0.0
 10
1.886747999999999
 20
3.307846
 10
1.786177999999999
 20
3.304469
 10
1.685663
 20
3.301089
 10
1.585187
 20
3.297708
 10
1.484731999999999
 20
3.294330999999999
  0
LWPOLYLINE
  5
224
330
1E
100
AcDbEntity
  8
LAYER_1
  6
Continuous
 62
     7
100
AcDbPolyline
 90
        5
 70
     0
 43
0.0
 10
1.484731999999999
 20
3.294330999999999
 10
1.384274
 20
3.290954
 10
1.283797999999999
 20
3.287574999999999
 10
1.183281999999999
 20
3.284196
 10
1.082705
 20
3.280819
  0
LWPOLYLINE
  5
22B
330
1E
100
AcDbEntity
  8
LAYER_1
  6
Continuous
 62
     7
100
AcDbPolyline
 90
        5
 70
     0
 43
0.0
 10
1.082705
 20
3.280819
 10
0.982069
 20
3.277441
 10
0.881394
 20
3.274061
 10
0.780719
 20
3.270681
 10
0.680083
 20
3.267303
  0
LWPOLYLINE
  5
232
330
1E
100
AcDbEntity
  8
LAYER_1
  6
Continuous
 62
     7
100
AcDbPolyline
 90
        5
 70
     0
 43
0.0
 10
0.680083
 20
3.267303
 10
0.5795110000000001
 20
3.263924
 10
0.4789970000000001
 20
3.260566999999999
 10
0.378521
 20
3.257248
 10
0.278067
 20
3.253983999999999
  0
LWPOLYLINE
  5
239
330
1E
100
AcDbEntity
  8
LAYER_1
  6
Continuous
 62
     7
100
AcDbPolyline
 90
        5
 70
     0
 43
0.0
 10
0.278067
 20
3.253983999999999
 10
0.177636
 20
3.250799
 10
0.077363
 20
3.247667999999999
 10
-0.022603
 20
3.244575
 10
-0.12211
 20
3.241499999999999
  0
LWPOLYLINE
  5
240
330
1E
100
AcDbEntity
  8
LAYER_1
  6
Continuous
 62
     7
100
AcDbPolyline
 90
        4
 70
     0
 43
0.0
 10
-0.12211
 20
3.241499999999999
 10
-0.253927
 20
3.237408999999999
 10
-0.385065
 20
3.233365
 10
-0.515929
 20
3.229413
  0
LWPOLYLINE
  5
246
330
1E
100
AcDbEntity
  8
LAYER_1
  6
Continuous
 62
     7
100
AcDbPolyline
 90
        4
 70
     0
 43
0.0
 10
-0.515929
 20
3.229413
 10
-0.6469070000000001
 20
3.225584
 10
-0.778243
 20
3.221841999999999
 10
-0.9101649999999999
 20
3.21815
  0
LWPOLYLINE
  5
24C
330
1E
100
AcDbEntity
  8
LAYER_1
  6
Continuous
 62
     7
100
AcDbPolyline
 90
        5
 70
     0
 43
0.0
 10
-0.9101649999999999
 20
3.21815
 10
-1.009602
 20
3.215381999999999
 10
-1.109380999999999
 20
3.212617999999999
 10
-1.209394
 20
3.209855
 10
-1.309528
 20
3.207093999999999
  0
LWPOLYLINE
  5
253
330
1E
100
AcDbEntity
  8
LAYER_1
  6
Continuous
 62
     7
100
AcDbPolyline
 90
        5
 70
     0
 43
0.0
 10
-1.309528
 20
3.207093999999999
 10
-1.40967
 20
3.20433
 10
-1.509792999999999
 20
3.201586999999999
 10
-1.609877
 20
3.198881999999999
 10
-1.709902
 20
3.196232
  0
LWPOLYLINE
  5
25A
330
1E
100
AcDbEntity
  8
LAYER_1
  6
Continuous
 62
     7
100
AcDbPolyline
 90
        5
 70
     0
 43
0.0
 10
-1.709902
 20
3.196232
 10
-1.809857
 20
3.19367
 10
-1.909756999999999
 20
3.191197999999999
 10
-2.009618
 20
3.188838
 10
-2.109456999999999
 20
3.186609999999999
  0
LWPOLYLINE
  5
261
330
1E
100
AcDbEntity
  8
LAYER_1
  6
Continuous
 62
     7
100
AcDbPolyline
 90
        5
 70
     0
 43
0.0
 10
-2.109456999999999
 20
3.186609999999999
 10
-2.209295
 20
3.184533
 10
-2.309111999999999
 20
3.18257
 10
-2.408888999999999
 20
3.180682
 10
-2.50861
 20
3.178831
  0
LWPOLYLINE
  5
268
330
1E
100
AcDbEntity
  8
LAYER_1
  6
Continuous
 62
     7
100
AcDbPolyline
 90
        4
 70
     0
 43
0.0
 10
-2.50861
 20
3.178831
 10
-2.641472
 20
3.176381
 10
-2.774286
 20
3.173975999999999
 10
-2.907146
 20
3.171664999999999
  0
LWPOLYLINE
  5
26E
330
1E
100
AcDbEntity
  8
LAYER_1
  6
Continuous
 62
     7
100
AcDbPolyline
 90
        4
 70
     0
 43
0.0
 10
-2.907146
 20
3.171664999999999
 10
-3.039308
 20
3.169481999999999
 10
-3.166691
 20
3.167486999999999
 10
-3.284377999999999
 20
3.165719999999999
  0
LWPOLYLINE
  5
274
330
1E
100
AcDbEntity
  8
LAYER_1
  6
Continuous
 62
     7
100
AcDbPolyline
 90
        4
 70
     0
 43
0.0
 10
-3.284377999999999
 20
3.165719999999999
 10
-3.387439
 20
3.164225
 10
-3.470837999999999
 20
3.163046
 10
-3.529523999999999
 20
3.162231999999999
  0
LWPOLYLINE
  5
27A
330
1E
100
AcDbEntity
  8
LAYER_1
  6
Continuous
 62
     7
100
AcDbPolyline
 90
        4
 70
     0
 43
0.0
 10
-3.529523999999999
 20
3.162231999999999
 10
-3.560941
 20
3.161802999999999
 10
-3.572516
 20
3.161645
 10
-3.574169
 20
3.161621999999999
  0
LWPOLYLINE
  5
280
330
1E
100
AcDbEntity
  8
LAYER_1
  6
Continuous
 62
     7
100
AcDbPolyline
 90
        4
 70
     1
 43
0.0
 10
0.440874
 20
3.962791
 10
-0.262594
 20
3.950499999999999
 10
-0.5175670000000001
 20
3.234732
 10
0.456232
 20
3.259319
  0
TEXT
  5
286
330
1E
100
AcDbEntity
  8
LAYER_1
 62
     7
100
AcDbText
 10
-0.281028
 20
4.200999999999999
 30
0.0
 40
0.110729
  1
Cut 1
 41
0.7315066513740756
  7
SN2
 72
     5
 11
0.042968
 21
4.200999999999999
 31
0.0
100
AcDbText
  0
TEXT
  5
287
330
1E
100
AcDbEntity
  8
LAYER_1
 62
     7
100
AcDbText
 10
-0.809402
 20
4.188708999999999
 30
0.0
 40
0.110729
  1
Cut 2
 41
0.6827395412824707
  7
SN2
 72
     5
 11
-0.4854060000000001
 21
4.188708999999999
 31
0.0
100
AcDbText
  0
SOLID
  5
288
330
1E
100
AcDbEntity
  8
LAYER_1
  6
Continuous
 62
   253
100
AcDbTrace
 10
-2.459705
 20
0.8738189999999999
 30
0.0
 11
-2.459566999999999
 21
1.070429
 31
0.0
 12
-3.455019999999999
 22
0.8745
 32
0.0
 13
-3.454886
 23
1.07111
 33
0.0
  0
LWPOLYLINE
  5
289
330
1E
100
AcDbEntity
  8
LAYER_1
  6
Continuous
 62
   253
100
AcDbPolyline
 90
        4
 70
     1
 43
0.0
 10
-2.459705
 20
0.8738189999999999
 10
-2.459566999999999
 20
1.070429
 10
-3.454886
 20
1.07111
 10
-3.455019999999999
 20
0.8745
  0
LWPOLYLINE
  5
28F
330
1E
100
AcDbEntity
  8
LAYER_1
  6
Continuous
 62
     7
100
AcDbPolyline
 90
        4
 70
     1
 43
0.0
 10
-2.459705
 20
0.8738189999999999
 10
-2.459566999999999
 20
1.070429
 10
-3.454886
 20
1.07111
 10
-3.455019999999999
 20
0.8745
  0
LWPOLYLINE
  5
295
330
1E
100
AcDbEntity
  8
LAYER_1
  6
Continuous
 62
     7
100
AcDbPolyline
 90
        4
 70
     1
 43
0.0
 10
-2.031583
 20
1.313468999999999
 10
-1.649913
 20
1.513176999999999
 10
-1.595082999999999
 20
1.27322
 10
-2.017374
 20
1.274512
  0
LWPOLYLINE
  5
29B
330
1E
100
AcDbEntity
  8
LAYER_1
  6
Continuous
 62
     7
100
AcDbPolyline
 90
        2
 70
     0
 43
0.0
 10
-2.752483999999999
 20
0.862969
 10
-1.757176999999999
 20
0.862969
  0
LWPOLYLINE
  5
29F
330
1E
100
AcDbEntity
  8
LAYER_1
  6
Continuous
 62
     7
100
AcDbPolyline
 90
        2
 70
     0
 43
0.0
 10
-1.843193
 20
1.231594
 10
-2.01522
 20
1.053429
  0
SOLID
  5
2A3
330
1E
100
AcDbEntity
  8
LAYER_1
  6
Continuous
 62
     7
100
AcDbTrace
 10
-1.916318999999999
 20
1.11165
 30
0.0
 11
-2.01522
 21
1.053429
 31
0.0
 12
-1.916318999999999
 22
1.11165
 32
0.0
 13
-1.960511999999999
 23
1.154319
 33
0.0
  0
LWPOLYLINE
  5
2A4
330
1E
100
AcDbEntity
  8
LAYER_1
  6
Continuous
 62
     7
100
AcDbPolyline
 90
        3
 70
     1
 43
0.0
 10
-1.916318999999999
 20
1.11165
 10
-2.01522
 20
1.053429
 10
-1.960511999999999
 20
1.154319
  0
LWPOLYLINE
  5
2A9
330
1E
100
AcDbEntity
  8
LAYER_1
  6
Continuous
 62
     7
100
AcDbPolyline
 90
        3
 70
     0
 43
0.0
 10
-1.916318999999999
 20
1.11165
 10
-2.01522
 20
1.053429
 10
-1.960511999999999
 20
1.154319
  0
LWPOLYLINE
  5
2AE
330
1E
100
AcDbEntity
  8
LAYER_1
  6
DASHED
 62
     7
100
AcDbPolyline
 90
        4
 70
     1
 43
0.0
 10
-2.449374
 20
0.9110389999999998
 10
-2.067705
 20
1.110747999999999
 10
-2.012874
 20
0.870791
 10
-2.435165
 20
0.8720829999999999
  0
SOLID
  5
2B4
330
1E
100
AcDbEntity
  8
LAYER_1
  6
Continuous
 62
   253
100
AcDbTrace
 10
0.040276
 20
0.8738189999999999
 30
0.0
 11
0.040413
 21
1.070429
 31
0.0
 12
-0.955028
 22
0.8745
 32
0.0
 13
-0.9548859999999999
 23
1.07111
 33
0.0
  0
LWPOLYLINE
  5
2B5
330
1E
100
AcDbEntity
  8
LAYER_1
  6
Continuous
 62
   253
100
AcDbPolyline
 90
        4
 70
     1
 43
0.0
 10
0.040276
 20
0.8738189999999999
 10
0.040413
 20
1.070429
 10
-0.9548859999999999
 20
1.07111
 10
-0.955028
 20
0.8745
  0
LWPOLYLINE
  5
2BB
330
1E
100
AcDbEntity
  8
LAYER_1
  6
Continuous
 62
     7
100
AcDbPolyline
 90
        4
 70
     1
 43
0.0
 10
0.040276
 20
0.8738189999999999
 10
0.040413
 20
1.070429
 10
-0.9548859999999999
 20
1.07111
 10
-0.955028
 20
0.8745
  0
LWPOLYLINE
  5
2C1
330
1E
100
AcDbEntity
  8
LAYER_1
  6
Continuous
 62
     7
100
AcDbPolyline
 90
        2
 70
     0
 43
0.0
 10
-0.2525
 20
0.862969
 10
0.742803
 20
0.862969
  0
LWPOLYLINE
  5
2C5
330
1E
100
AcDbEntity
  8
LAYER_1
  6
Continuous
 62
     7
100
AcDbPolyline
 90
        4
 70
     1
 43
0.0
 10
0.050638
 20
0.9110389999999998
 10
0.4323030000000001
 20
1.110747999999999
 10
0.4871380000000001
 20
0.870791
 10
0.064846
 20
0.8720829999999999
  0
LWPOLYLINE
  5
2CB
330
1E
100
AcDbEntity
  8
LAYER_1
  6
DASHED
 62
     7
100
AcDbPolyline
 90
        2
 70
     0
 43
0.0
 10
0.045248
 20
1.183983999999999
 10
0.045248
 20
0.816886
  0
LWPOLYLINE
  5
2CF
330
1E
100
AcDbEntity
  8
LAYER_1
  6
DASHED
 62
     7
100
AcDbPolyline
 90
        2
 70
     0
 43
0.0
 10
0.490677
 20
1.185512
 10
0.490677
 20
0.8184289999999998
  0
TEXT
  5
2D3
330
1E
100
AcDbEntity
  8
LAYER_1
 62
     7
100
AcDbText
 10
0.7349020000000001
 20
1.426456999999999
 30
0.0
 40
0.110729
  1
trim
 41
0.7021888767273931
  7
SN0
 72
     5
 11
0.9607549999999999
 21
1.426456999999999
 31
0.0
100
AcDbText
  0
LWPOLYLINE
  5
2D4
330
1E
100
AcDbEntity
  8
LAYER_1
  6
Continuous
 62
     7
100
AcDbPolyline
 90
        4
 70
     0
 43
0.0
 10
0.675
 20
1.454319
 10
0.672819
 20
1.454319
 10
0.657555
 20
1.454319
 10
0.6161220000000001
 20
1.454319
  0
LWPOLYLINE
  5
2DA
330
1E
100
AcDbEntity
  8
LAYER_1
  6
Continuous
 62
     7
100
AcDbPolyline
 90
        4
 70
     0
 43
0.0
 10
0.6161220000000001
 20
1.454319
 10
0.5406270000000001
 20
1.455286
 10
0.443974
 20
1.462054999999999
 10
0.344248
 20
1.480428999999999
  0
LWPOLYLINE
  5
2E0
330
1E
100
AcDbEntity
  8
LAYER_1
  6
Continuous
 62
     7
100
AcDbPolyline
 90
        4
 70
     0
 43
0.0
 10
0.344248
 20
1.480428999999999
 10
0.256696
 20
1.511109999999999
 10
0.18519
 20
1.534395999999999
 10
0.130748
 20
1.525484
  0
LWPOLYLINE
  5
2E6
330
1E
100
AcDbEntity
  8
LAYER_1
  6
Continuous
 62
     7
100
AcDbPolyline
 90
        4
 70
     0
 43
0.0
 10
0.130748
 20
1.525484
 10
0.09356
 20
1.469068
 10
0.070482
 20
1.387847999999999
 10
0.057528
 20
1.314027999999999
  0
LWPOLYLINE
  5
2EC
330
1E
100
AcDbEntity
  8
LAYER_1
  6
Continuous
 62
     7
100
AcDbPolyline
 90
        4
 70
     0
 43
0.0
 10
0.057528
 20
1.314027999999999
 10
0.051047
 20
1.272235
 10
0.04866
 20
1.256836999999999
 10
0.048319
 20
1.254637999999999
  0
SOLID
  5
2F2
330
1E
100
AcDbEntity
  8
LAYER_1
  6
Continuous
 62
     7
100
AcDbTrace
 10
0.095622
 20
1.359204999999999
 30
0.0
 11
0.048319
 21
1.254637999999999
 31
0.0
 12
0.095622
 22
1.359204999999999
 32
0.0
 13
0.034913
 23
1.368622
 33
0.0
  0
LWPOLYLINE
  5
2F3
330
1E
100
AcDbEntity
  8
LAYER_1
  6
Continuous
 62
     7
100
AcDbPolyline
 90
        3
 70
     1
 43
0.0
 10
0.095622
 20
1.359204999999999
 10
0.048319
 20
1.254637999999999
 10
0.034913
 20
1.368622
  0
LWPOLYLINE
  5
2F8
330
1E
100
AcDbEntity
  8
LAYER_1
  6
Continuous
 62
     7
100
AcDbPolyline
 90
        3
 70
     0
 43
0.0
 10
0.095622
 20
1.359204999999999
 10
0.048319
 20
1.254637999999999
 10
0.034913
 20
1.368622
  0
LWPOLYLINE
  5
2FD
330
1E
100
AcDbEntity
  8
LAYER_1
  6
Continuous
 62
     7
100
AcDbPolyline
 90
        4
 70
     0
 43
0.0
 10
0.671929
 20
1.451247999999999
 10
0.6710570000000001
 20
1.451304999999999
 10
0.6649500000000001
 20
1.451701
 10
0.648374
 20
1.452776
  0
LWPOLYLINE
  5
303
330
1E
100
AcDbEntity
  8
LAYER_1
  6
Continuous
 62
     7
100
AcDbPolyline
 90
        4
 70
     0
 43
0.0
 10
0.648374
 20
1.452776
 10
0.618469
 20
1.455073999999999
 10
0.5818529999999999
 20
1.459870999999999
 10
0.5475120000000001
 20
1.46865
  0
LWPOLYLINE
  5
309
330
1E
100
AcDbEntity
  8
LAYER_1
  6
Continuous
 62
     7
100
AcDbPolyline
 90
        4
 70
     0
 43
0.0
 10
0.5475120000000001
 20
1.46865
 10
0.5225350000000001
 20
1.480540999999999
 10
0.506433
 20
1.485265
 10
0.496819
 20
1.470193
  0
LWPOLYLINE
  5
30F
330
1E
100
AcDbEntity
  8
LAYER_1
  6
Continuous
 62
     7
100
AcDbPolyline
 90
        4
 70
     0
 43
0.0
 10
0.496819
 20
1.470193
 10
0.491489
 20
1.428032999999999
 10
0.489006
 20
1.372908
 10
0.488122
 20
1.324276
  0
LWPOLYLINE
  5
315
330
1E
100
AcDbEntity
  8
LAYER_1
  6
Continuous
 62
     7
100
AcDbPolyline
 90
        4
 70
     0
 43
0.0
 10
0.488122
 20
1.324276
 10
0.487762
 20
1.296888999999999
 10
0.487629
 20
1.286799999999999
 10
0.48761
 20
1.285358
  0
SOLID
  5
31B
330
1E
100
AcDbEntity
  8
LAYER_1
  6
Continuous
 62
     7
100
AcDbTrace
 10
0.5197760000000001
 20
1.395538999999999
 30
0.0
 11
0.48761
 21
1.285358
 31
0.0
 12
0.5197760000000001
 22
1.395538999999999
 32
0.0
 13
0.4583460000000001
 23
1.396345999999999
 33
0.0
  0
LWPOLYLINE
  5
31C
330
1E
100
AcDbEntity
  8
LAYER_1
  6
Continuous
 62
     7
100
AcDbPolyline
 90
        3
 70
     1
 43
0.0
 10
0.5197760000000001
 20
1.395538999999999
 10
0.48761
 20
1.285358
 10
0.4583460000000001
 20
1.396345999999999
  0
LWPOLYLINE
  5
321
330
1E
100
AcDbEntity
  8
LAYER_1
  6
Continuous
 62
     7
100
AcDbPolyline
 90
        3
 70
     0
 43
0.0
 10
0.5197760000000001
 20
1.395538999999999
 10
0.48761
 20
1.285358
 10
0.4583460000000001
 20
1.396345999999999
  0
SOLID
  5
326
330
1E
100
AcDbEntity
  8
LAYER_1
  6
Continuous
 62
   253
100
AcDbTrace
 10
2.540275999999999
 20
0.8738189999999999
 30
0.0
 11
2.540413
 21
1.070429
 31
0.0
 12
1.544969
 22
0.8745
 32
0.0
 13
1.54511
 23
1.07111
 33
0.0
  0
LWPOLYLINE
  5
327
330
1E
100
AcDbEntity
  8
LAYER_1
  6
Continuous
 62
   253
100
AcDbPolyline
 90
        4
 70
     1
 43
0.0
 10
2.540275999999999
 20
0.8738189999999999
 10
2.540413
 20
1.070429
 10
1.54511
 20
1.07111
 10
1.544969
 20
0.8745
  0
LWPOLYLINE
  5
32D
330
1E
100
AcDbEntity
  8
LAYER_1
  6
Continuous
 62
     7
100
AcDbPolyline
 90
        4
 70
     1
 43
0.0
 10
2.540275999999999
 20
0.8738189999999999
 10
2.540413
 20
1.070429
 10
1.54511
 20
1.07111
 10
1.544969
 20
0.8745
  0
LWPOLYLINE
  5
333
330
1E
100
AcDbEntity
  8
LAYER_1
  6
Continuous
 62
     7
100
AcDbPolyline
 90
        2
 70
     0
 43
0.0
 10
2.2475
 20
0.862969
 10
3.242802999999999
 20
0.862969
  0
LWPOLYLINE
  5
337
330
1E
100
AcDbEntity
  8
LAYER_1
  6
Continuous
 62
     7
100
AcDbPolyline
 90
        2
 70
     0
 43
0.0
 10
3.156791
 20
1.231594
 10
2.984763999999999
 20
1.053429
  0
SOLID
  5
33B
330
1E
100
AcDbEntity
  8
LAYER_1
  6
Continuous
 62
     7
100
AcDbTrace
 10
3.083677
 20
1.11165
 30
0.0
 11
2.984763999999999
 21
1.053429
 31
0.0
 12
3.083677
 22
1.11165
 32
0.0
 13
3.039483999999999
 23
1.154319
 33
0.0
  0
LWPOLYLINE
  5
33C
330
1E
100
AcDbEntity
  8
LAYER_1
  6
Continuous
 62
     7
100
AcDbPolyline
 90
        3
 70
     1
 43
0.0
 10
3.083677
 20
1.11165
 10
2.984763999999999
 20
1.053429
 10
3.039483999999999
 20
1.154319
  0
LWPOLYLINE
  5
341
330
1E
100
AcDbEntity
  8
LAYER_1
  6
Continuous
 62
     7
100
AcDbPolyline
 90
        3
 70
     0
 43
0.0
 10
3.083677
 20
1.11165
 10
2.984763999999999
 20
1.053429
 10
3.039483999999999
 20
1.154319
  0
LWPOLYLINE
  5
346
330
1E
100
AcDbEntity
  8
LAYER_1
  6
Continuous
 62
     7
100
AcDbPolyline
 90
        4
 70
     1
 43
0.0
 10
2.978303
 20
1.318429
 10
3.350012
 20
1.5135
 10
3.405302999999999
 20
1.273886
 10
2.982912999999999
 20
1.273886
  0
LWPOLYLINE
  5
34C
330
1E
100
AcDbEntity
  8
LAYER_1
  6
Continuous
 62
     7
100
AcDbPolyline
 90
        2
 70
     0
 43
0.0
 10
2.979845999999999
 20
1.324567
 10
3.345412999999999
 20
1.515028
  0
LWPOLYLINE
  5
350
330
1E
100
AcDbEntity
  8
LAYER_1
  6
DASHED
 62
     7
100
AcDbPolyline
 90
        4
 70
     1
 43
0.0
 10
2.560527999999999
 20
0.917528
 10
2.932231999999999
 20
1.111067
 10
2.987527999999999
 20
0.8714569999999998
 10
2.565122
 20
0.8714569999999998
  0
TEXT
  5
356
330
1E
100
AcDbEntity
  8
LAYER_1
 62
     7
100
AcDbText
 10
-1.829290999999999
 20
0.584012
 30
0.0
 40
0.110729
  1
shiny tape
 41
0.6947016707617263
  7
SN0
 72
     5
 11
-1.210238999999999
 21
0.584012
 31
0.0
100
AcDbText
  0
LWPOLYLINE
  5
357
330
1E
100
AcDbEntity
  8
LAYER_1
  6
Continuous
 62
     7
100
AcDbPolyline
 90
        4
 70
     0
 43
0.0
 10
-1.993649999999999
 20
0.6026500000000001
 10
-1.995924999999999
 20
0.602801
 10
-2.011852
 20
0.6038640000000001
 10
-2.055083
 20
0.606748
  0
LWPOLYLINE
  5
35D
330
1E
100
AcDbEntity
  8
LAYER_1
  6
Continuous
 62
     7
100
AcDbPolyline
 90
        4
 70
     0
 43
0.0
 10
-2.055083
 20
0.606748
 10
-2.129799
 20
0.6124390000000001
 10
-2.202236999999999
 20
0.6222240000000001
 10
-2.229165
 20
0.637469
  0
LWPOLYLINE
  5
363
330
1E
100
AcDbEntity
  8
LAYER_1
  6
Continuous
 62
     7
100
AcDbPolyline
 90
        4
 70
     0
 43
0.0
 10
-2.229165
 20
0.637469
 10
-2.181980999999999
 20
0.6593930000000001
 10
-2.090659
 20
0.688599
 10
-1.999791
 20
0.7255390000000001
  0
LWPOLYLINE
  5
369
330
1E
100
AcDbEntity
  8
LAYER_1
  6
Continuous
 62
     7
100
AcDbPolyline
 90
        4
 70
     0
 43
0.0
 10
-1.999791
 20
0.7255390000000001
 10
-1.94419
 20
0.769151
 10
-1.919538999999999
 20
0.8123079999999999
 10
-1.911731999999999
 20
0.8463739999999999
  0
LWPOLYLINE
  5
36F
330
1E
100
AcDbEntity
  8
LAYER_1
  6
Continuous
 62
     7
100
AcDbPolyline
 90
        4
 70
     0
 43
0.0
 10
-1.911731999999999
 20
0.8463739999999999
 10
-1.908850999999999
 20
0.8650999999999999
 10
-1.907789
 20
0.8719989999999999
 10
-1.907638
 20
0.8729839999999999
  0
TEXT
  5
375
330
1E
100
AcDbEntity
  8
LAYER_1
 62
     7
100
AcDbText
 10
-3.809539
 20
1.196941
 30
0.0
 40
0.110729
  1
metal straightedge
 41
0.6943665001645578
  7
SN0
 72
     5
 11
-2.692854
 21
1.196941
 31
0.0
100
AcDbText
  0
TEXT
  5
376
330
1E
100
AcDbEntity
  8
LAYER_1
 62
     7
100
AcDbText
 10
-3.422476
 20
-0.091091
 30
0.0
 40
0.142448
  1
Facing hinge facets
 41
0.6686735704675212
  7
SN1
 72
     5
 11
-1.930207
 21
-0.091091
 31
0.0
100
AcDbText
  0
LWPOLYLINE
  5
377
330
1E
100
AcDbEntity
  8
LAYER_1
  6
Continuous
 62
     7
100
AcDbPolyline
 90
       12
 70
     0
 43
0.0
 10
-3.177885999999999
 20
-0.4014960000000001
 10
-2.873759999999999
 20
-0.4306770000000001
 10
-2.558886
 20
-0.464469
 10
-2.237874
 20
-0.499803
 10
-1.929138
 20
-0.5320550000000001
 10
-1.680318999999999
 20
-0.5627760000000001
 10
-1.457594
 20
-0.591957
 10
-1.400763999999999
 20
-1.018956999999999
 10
-1.76172
 20
-1.032791
 10
-2.257845999999999
 20
-1.049676999999999
 10
-2.724775999999999
 20
-1.066583
 10
-3.179425
 20
-1.078873999999999
  0
LWPOLYLINE
  5
385
330
1E
100
AcDbEntity
  8
LAYER_1
  6
Continuous
 62
     7
100
AcDbPolyline
 90
       17
 70
     1
 43
0.0
 10
-0.7932319999999999
 20
-1.017429
 10
-0.5305830000000001
 20
-1.009747999999999
 10
-0.068264
 20
-0.9974569999999999
 10
0.5154130000000001
 20
-0.9867049999999998
 10
1.142082999999999
 20
-0.968276
 10
1.688902
 20
-0.9621379999999998
 10
2.032957
 20
-0.9559840000000001
 10
2.201913
 20
-0.954457
 10
2.198846
 20
-0.9375549999999998
 10
2.020665
 20
-0.9191219999999999
 10
1.707331
 20
-0.8822639999999999
 10
1.354055
 20
-0.846929
 10
0.9946379999999999
 20
-0.8023859999999999
 10
0.5952910000000001
 20
-0.7593860000000001
 10
0.232791
 20
-0.7225120000000001
 10
-0.215705
 20
-0.673374
 10
-0.656539
 20
-0.627291
  0
LWPOLYLINE
  5
398
330
1E
100
AcDbEntity
  8
LAYER_1
  6
Continuous
 62
     7
100
AcDbPolyline
 90
        2
 70
     0
 43
0.0
 10
-1.437621999999999
 20
-0.433748
 10
-1.336247999999999
 20
-1.157193
  0
LWPOLYLINE
  5
39C
330
1E
100
AcDbEntity
  8
LAYER_1
  6
DASHED
 62
     7
100
AcDbPolyline
 90
        2
 70
     0
 43
0.0
 10
-1.740205
 20
-0.541276
 10
-1.190331
 20
-0.6134689999999999
  0
LWPOLYLINE
  5
3A0
330
1E
100
AcDbEntity
  8
LAYER_1
  6
DASHED
 62
     7
100
AcDbPolyline
 90
        2
 70
     0
 43
0.0
 10
-1.766319
 20
-1.049676999999999
 10
-1.158082999999999
 20
-1.023567
  0
SOLID
  5
3A4
330
1E
100
AcDbEntity
  8
LAYER_1
  6
Continuous
100
AcDbTrace
 10
3.717122
 20
1.959874
 30
0.0
 11
4.249996
 21
1.959874
 31
0.0
 12
3.717122
 22
4.110248
 32
0.0
 13
4.249996
 23
4.110248
 33
0.0
  0
LWPOLYLINE
  5
3A5
330
1E
100
AcDbEntity
  8
LAYER_1
  6
Continuous
100
AcDbPolyline
 90
        4
 70
     1
 43
0.0
 10
3.717122
 20
1.959874
 10
4.249996
 20
1.959874
 10
4.249996
 20
4.110248
 10
3.717122
 20
4.110248
  0
TEXT
  5
3AB
330
1E
100
AcDbEntity
  8
LAYER_1
 62
     7
100
AcDbText
 10
-0.489929
 20
-1.296027999999999
 30
0.0
 40
0.110729
  1
tack on with 5 min. epoxy
 41
0.6337232888640885
  7
SN0
 72
     5
 11
1.033795999999999
 21
-1.296027999999999
 31
0.0
100
AcDbText
  0
LWPOLYLINE
  5
3AC
330
1E
100
AcDbEntity
  8
LAYER_1
  6
Continuous
 62
     7
100
AcDbPolyline
 90
        2
 70
     0
 43
0.0
 10
-0.663484
 20
-0.523205
 10
-0.8662479999999998
 20
-1.128386
  0
LWPOLYLINE
  5
3B0
330
1E
100
AcDbEntity
  8
LAYER_1
  6
Continuous
 62
     7
100
AcDbPolyline
 90
        4
 70
     0
 43
0.0
 10
-0.340941
 20
-0.317386
 10
-0.341775
 20
-0.317367
 10
-0.347616
 20
-0.317234
 10
-0.363469
 20
-0.316874
  0
LWPOLYLINE
  5
3B6
330
1E
100
AcDbEntity
  8
LAYER_1
  6
Continuous
 62
     7
100
AcDbPolyline
 90
        4
 70
     0
 43
0.0
 10
-0.363469
 20
-0.316874
 10
-0.390941
 20
-0.316957
 10
-0.418079
 20
-0.321245
 10
-0.429512
 20
-0.334291
  0
LWPOLYLINE
  5
3BC
330
1E
100
AcDbEntity
  8
LAYER_1
  6
Continuous
 62
     7
100
AcDbPolyline
 90
        4
 70
     0
 43
0.0
 10
-0.429512
 20
-0.334291
 10
-0.4172200000000001
 20
-0.359389
 10
-0.402544
 20
-0.394848
 10
-0.4141500000000001
 20
-0.4377050000000001
  0
LWPOLYLINE
  5
3C2
330
1E
100
AcDbEntity
  8
LAYER_1
  6
Continuous
 62
     7
100
AcDbPolyline
 90
        4
 70
     0
 43
0.0
 10
-0.4141500000000001
 20
-0.4377050000000001
 10
-0.4707180000000001
 20
-0.4842800000000001
 10
-0.5509500000000001
 20
-0.5280090000000001
 10
-0.623555
 20
-0.5616100000000001
  0
LWPOLYLINE
  5
3C8
330
1E
100
AcDbEntity
  8
LAYER_1
  6
Continuous
 62
     7
100
AcDbPolyline
 90
        4
 70
     0
 43
0.0
 10
-0.623555
 20
-0.5616100000000001
 10
-0.6646330000000001
 20
-0.5799840000000001
 10
-0.679767
 20
-0.586753
 10
-0.6819290000000001
 20
-0.5877200000000001
  0
LWPOLYLINE
  5
3CE
330
1E
100
AcDbEntity
  8
LAYER_1
  6
Continuous
 62
     7
100
AcDbPolyline
 90
        4
 70
     0
 43
0.0
 10
-0.657346
 20
-1.269692999999999
 10
-0.6585600000000001
 20
-1.269845
 10
-0.6670540000000001
 20
-1.270907
 10
-0.69011
 20
-1.273790999999999
  0
LWPOLYLINE
  5
3D4
330
1E
100
AcDbEntity
  8
LAYER_1
  6
Continuous
 62
     7
100
AcDbPolyline
 90
        4
 70
     0
 43
0.0
 10
-0.69011
 20
-1.273790999999999
 10
-0.730638
 20
-1.278361
 10
-0.7740060000000001
 20
-1.280316
 10
-0.8012199999999999
 20
-1.274302999999999
  0
LWPOLYLINE
  5
3DA
330
1E
100
AcDbEntity
  8
LAYER_1
  6
Continuous
 62
     7
100
AcDbPolyline
 90
        4
 70
     0
 43
0.0
 10
-0.8012199999999999
 20
-1.274302999999999
 10
-0.7994909999999999
 20
-1.256328
 10
-0.780928
 20
-1.227771999999999
 10
-0.7638460000000001
 20
-1.191357999999999
  0
LWPOLYLINE
  5
3E0
330
1E
100
AcDbEntity
  8
LAYER_1
  6
Continuous
 62
     7
100
AcDbPolyline
 90
        4
 70
     0
 43
0.0
 10
-0.7638460000000001
 20
-1.191357999999999
 10
-0.762041
 20
-1.150529
 10
-0.77128
 20
-1.111521999999999
 10
-0.7827910000000001
 20
-1.081276
  0
LWPOLYLINE
  5
3E6
330
1E
100
AcDbEntity
  8
LAYER_1
  6
Continuous
 62
     7
100
AcDbPolyline
 90
        4
 70
     0
 43
0.0
 10
-0.7827910000000001
 20
-1.081276
 10
-0.7896320000000001
 20
-1.064707999999999
 10
-0.7921520000000001
 20
-1.058604
 10
-0.792512
 20
-1.057731999999999
  0
TEXT
  5
3EC
330
1E
100
AcDbEntity
  8
LAYER_1
 62
     7
100
AcDbText
 10
-3.447051
 20
1.696649999999999
 30
0.0
 40
0.142448
  1
Covering hinge cutout sides with tape
 41
0.6596724333043833
  7
SN1
 72
     5
 11
-0.5877080000000001
 21
1.696649999999999
 31
0.0
100
AcDbText
  0
LWPOLYLINE
  5
3ED
330
1E
100
AcDbEntity
  8
LAYER_1
  6
Continuous
 62
     7
100
AcDbPolyline
 90
       12
 70
     0
 43
0.0
 10
-3.251609999999999
 20
-4.186154
 10
-2.947484
 20
-4.215334999999999
 10
-2.632609999999999
 20
-4.24913
 10
-2.311593999999999
 20
-4.284461
 10
-2.002874
 20
-4.316713
 10
-1.754038999999999
 20
-4.347433
 10
-1.531319
 20
-4.376614
 10
-1.474483999999999
 20
-4.803613999999999
 10
-1.835440999999999
 20
-4.817441
 10
-2.331566999999999
 20
-4.834342999999999
 10
-2.7985
 20
-4.851236
 10
-3.25315
 20
-4.863523999999999
  0
LWPOLYLINE
  5
3FB
330
1E
100
AcDbEntity
  8
LAYER_1
  6
Continuous
 62
     7
100
AcDbPolyline
 90
       17
 70
     1
 43
0.0
 10
-1.366969
 20
-4.802083
 10
-1.104319
 20
-4.794398
 10
-0.641984
 20
-4.782109999999999
 10
-0.058319
 20
-4.771361999999999
 10
0.568358
 20
-4.752928999999999
 10
1.115164999999999
 20
-4.746787
 10
1.45922
 20
-4.740637999999999
 10
1.628176999999999
 20
-4.739101999999999
 10
1.62511
 20
-4.722208999999999
 10
1.446940999999999
 20
-4.70378
 10
1.133593999999999
 20
-4.666913
 10
0.780331
 20
-4.631583
 10
0.4209020000000001
 20
-4.587043
 10
0.021555
 20
-4.544035
 10
-0.340941
 20
-4.507169
 10
-0.789441
 20
-4.458019999999999
 10
-1.230264
 20
-4.411941
  0
LWPOLYLINE
  5
40E
330
1E
100
AcDbEntity
  8
LAYER_1
  6
Continuous
 62
     7
100
AcDbPolyline
 90
        2
 70
     0
 43
0.0
 10
-1.529790999999999
 20
-4.382755999999999
 10
-1.474483999999999
 20
-4.803613999999999
  0
LWPOLYLINE
  5
412
330
1E
100
AcDbEntity
  8
LAYER_1
  6
Continuous
 62
     7
100
AcDbPolyline
 90
        2
 70
     0
 43
0.0
 10
-1.228731999999999
 20
-4.413476
 10
-1.366969
 20
-4.800546999999999
  0
TEXT
  5
416
330
1E
100
AcDbEntity
  8
LAYER_1
 62
     7
100
AcDbText
 10
-3.422476
 20
-1.896165
 30
0.0
 40
0.142448
  1
Glassing
 41
0.7649750280151188
  7
SN1
 72
     5
 11
-2.753093999999999
 21
-1.896165
 31
0.0
100
AcDbText
  0
LWPOLYLINE
  5
417
330
1E
100
AcDbEntity
  8
LAYER_1
  6
Continuous
 62
     7
100
AcDbPolyline
 90
       12
 70
     0
 43
0.0
 10
-3.435925
 20
-2.103137999999999
 10
-3.131798999999999
 20
-2.132318999999999
 10
-2.816929
 20
-2.166122
 10
-2.495913
 20
-2.201440999999999
 10
-2.187177
 20
-2.233705
 10
-1.938358
 20
-2.264413
 10
-1.715638
 20
-2.293593999999999
 10
-1.658802999999999
 20
-2.720609999999999
 10
-2.019763999999999
 20
-2.734428999999999
 10
-2.515886
 20
-2.751330999999999
 10
-2.982815
 20
-2.768219999999999
 10
-3.437464999999999
 20
-2.780511999999999
  0
LWPOLYLINE
  5
425
330
1E
100
AcDbEntity
  8
LAYER_1
  6
Continuous
 62
     7
100
AcDbPolyline
 90
        2
 70
     0
 43
0.0
 10
-1.714109999999999
 20
-2.299748
 10
-1.658802999999999
 20
-2.720609999999999
  0
SOLID
  5
429
330
1E
100
AcDbEntity
  8
LAYER_1
  6
Continuous
100
AcDbTrace
 10
-0.102413
 20
-2.716665
 30
0.0
 11
-0.133138
 21
-2.796539
 31
0.0
 12
-0.320528
 22
-2.704385999999999
 32
0.0
 13
-0.292886
 23
-2.793468999999999
 33
0.0
  0
LWPOLYLINE
  5
42A
330
1E
100
AcDbEntity
  8
LAYER_1
  6
Continuous
100
AcDbPolyline
 90
        4
 70
     1
 43
0.0
 10
-0.102413
 20
-2.716665
 10
-0.133138
 20
-2.796539
 10
-0.292886
 20
-2.793468999999999
 10
-0.320528
 20
-2.704385999999999
  0
LWPOLYLINE
  5
430
330
1E
100
AcDbEntity
  8
LAYER_1
  6
Continuous
 62
     7
100
AcDbPolyline
 90
       17
 70
     1
 43
0.0
 10
-1.051290999999999
 20
-2.719066999999999
 10
-0.7886380000000001
 20
-2.711386
 10
-0.326303
 20
-2.699109999999999
 10
0.257358
 20
-2.688358
 10
0.8840389999999999
 20
-2.669913
 10
1.430845999999999
 20
-2.663775999999999
 10
1.774913
 20
-2.657637999999999
 10
1.943874
 20
-2.656093999999999
 10
1.940802999999999
 20
-2.639205
 10
1.762622
 20
-2.620775999999999
 10
1.449276
 20
-2.583902
 10
1.096011999999999
 20
-2.548583
 10
0.7365940000000001
 20
-2.504039
 10
0.337232
 20
-2.461027999999999
 10
-0.025248
 20
-2.424165
 10
-0.473764
 20
-2.375011999999999
 10
-0.914583
 20
-2.328929
  0
LWPOLYLINE
  5
443
330
1E
100
AcDbEntity
  8
LAYER_1
  6
Continuous
 62
     7
100
AcDbPolyline
 90
        2
 70
     0
 43
0.0
 10
-0.9130389999999998
 20
-2.330468999999999
 10
-1.051290999999999
 20
-2.717538999999999
  0
LWPOLYLINE
  5
447
330
1E
100
AcDbEntity
  8
LAYER_1
  6
DASHED
 62
     7
100
AcDbPolyline
 90
        4
 70
     0
 43
0.0
 10
-1.870775999999999
 20
-2.224483999999999
 10
-1.869884
 20
-2.224597999999999
 10
-1.863642999999999
 20
-2.225393999999999
 10
-1.846704999999999
 20
-2.227554999999999
  0
LWPOLYLINE
  5
44D
330
1E
100
AcDbEntity
  8
LAYER_1
  6
DASHED
 62
     7
100
AcDbPolyline
 90
        4
 70
     0
 43
0.0
 10
-1.846704999999999
 20
-2.227554999999999
 10
-1.816097
 20
-2.23147
 10
-1.778324999999999
 20
-2.236353999999999
 10
-1.742264
 20
-2.241122
  0
LWPOLYLINE
  5
453
330
1E
100
AcDbEntity
  8
LAYER_1
  6
DASHED
 62
     7
100
AcDbPolyline
 90
        4
 70
     0
 43
0.0
 10
-1.742264
 20
-2.241122
 10
-1.714902
 20
-2.245101
 10
-1.695727999999999
 20
-2.249187
 10
-1.682358
 20
-2.254693
  0
LWPOLYLINE
  5
459
330
1E
100
AcDbEntity
  8
LAYER_1
  6
DASHED
 62
     7
100
AcDbPolyline
 90
        4
 70
     0
 43
0.0
 10
-1.682358
 20
-2.254693
 10
-1.672603999999999
 20
-2.263252
 10
-1.665067999999999
 20
-2.277785999999999
 10
-1.658554999999999
 20
-2.301539
  0
LWPOLYLINE
  5
45F
330
1E
100
AcDbEntity
  8
LAYER_1
  6
DASHED
 62
     7
100
AcDbPolyline
 90
        4
 70
     0
 43
0.0
 10
-1.658554999999999
 20
-2.301539
 10
-1.651982
 20
-2.337353999999999
 10
-1.644727999999999
 20
-2.386477
 10
-1.636276
 20
-2.449764
  0
LWPOLYLINE
  5
465
330
1E
100
AcDbEntity
  8
LAYER_1
  6
DASHED
 62
     7
100
AcDbPolyline
 90
        4
 70
     0
 43
0.0
 10
-1.636276
 20
-2.449764
 10
-1.626514999999999
 20
-2.525676999999999
 10
-1.616865999999999
 20
-2.603129
 10
-1.60915
 20
-2.668638
  0
LWPOLYLINE
  5
46B
330
1E
100
AcDbEntity
  8
LAYER_1
  6
DASHED
 62
     7
100
AcDbPolyline
 90
        4
 70
     0
 43
0.0
 10
-1.60915
 20
-2.668638
 10
-1.604935
 20
-2.712174999999999
 10
-1.604820999999999
 20
-2.737565
 10
-1.60915
 20
-2.752094
  0
LWPOLYLINE
  5
471
330
1E
100
AcDbEntity
  8
LAYER_1
  6
DASHED
 62
     7
100
AcDbPolyline
 90
        4
 70
     0
 43
0.0
 10
-1.60915
 20
-2.752094
 10
-1.618172999999999
 20
-2.761906999999999
 10
-1.631858999999999
 20
-2.768650999999999
 10
-1.650093999999999
 20
-2.772831
  0
LWPOLYLINE
  5
477
330
1E
100
AcDbEntity
  8
LAYER_1
  6
DASHED
 62
     7
100
AcDbPolyline
 90
        4
 70
     0
 43
0.0
 10
-1.650093999999999
 20
-2.772831
 10
-1.67279
 20
-2.77503
 10
-1.699859999999999
 20
-2.776091999999999
 10
-1.731247999999999
 20
-2.776928999999999
  0
LWPOLYLINE
  5
47D
330
1E
100
AcDbEntity
  8
LAYER_1
  6
DASHED
 62
     7
100
AcDbPolyline
 90
        4
 70
     0
 43
0.0
 10
-1.731247999999999
 20
-2.776928999999999
 10
-1.765944
 20
-2.778211999999999
 10
-1.799043999999999
 20
-2.779730999999999
 10
-1.824693
 20
-2.781028
  0
LWPOLYLINE
  5
483
330
1E
100
AcDbEntity
  8
LAYER_1
  6
DASHED
 62
     7
100
AcDbPolyline
 90
        4
 70
     0
 43
0.0
 10
-1.824693
 20
-2.781028
 10
-1.838748
 20
-2.78174
 10
-1.843925999999999
 20
-2.782001999999999
 10
-1.844665
 20
-2.782039
  0
LWPOLYLINE
  5
489
330
1E
100
AcDbEntity
  8
LAYER_1
  6
DASHED
 62
     7
100
AcDbPolyline
 90
        4
 70
     0
 43
0.0
 10
-0.7295390000000001
 20
-2.304358
 10
-0.7305920000000001
 20
-2.304197
 10
-0.7379590000000001
 20
-2.303066999999999
 10
-0.7579570000000001
 20
-2.299999999999999
  0
LWPOLYLINE
  5
48F
330
1E
100
AcDbEntity
  8
LAYER_1
  6
DASHED
 62
     7
100
AcDbPolyline
 90
        4
 70
     0
 43
0.0
 10
-0.7579570000000001
 20
-2.299999999999999
 10
-0.794072
 20
-2.294494999999999
 10
-0.838493
 20
-2.287852999999999
 10
-0.880583
 20
-2.281830999999999
  0
LWPOLYLINE
  5
495
330
1E
100
AcDbEntity
  8
LAYER_1
  6
DASHED
 62
     7
100
AcDbPolyline
 90
        4
 70
     0
 43
0.0
 10
-0.880583
 20
-2.281830999999999
 10
-0.9120309999999999
 20
-2.278033
 10
-0.9338639999999999
 20
-2.277425
 10
-0.949441
 20
-2.280802999999999
  0
LWPOLYLINE
  5
49B
330
1E
100
AcDbEntity
  8
LAYER_1
  6
DASHED
 62
     7
100
AcDbPolyline
 90
        4
 70
     0
 43
0.0
 10
-0.949441
 20
-2.280802999999999
 10
-0.9618999999999999
 20
-2.28939
 10
-0.9735030000000001
 20
-2.306173999999999
 10
-0.986303
 20
-2.334566999999999
  0
LWPOLYLINE
  5
4A1
330
1E
100
AcDbEntity
  8
LAYER_1
  6
DASHED
 62
     7
100
AcDbPolyline
 90
        4
 70
     0
 43
0.0
 10
-0.986303
 20
-2.334566999999999
 10
-1.001969
 20
-2.376821
 10
-1.020646999999999
 20
-2.430628
 10
-1.04211
 20
-2.492512
  0
LWPOLYLINE
  5
4A7
330
1E
100
AcDbEntity
  8
LAYER_1
  6
DASHED
 62
     7
100
AcDbPolyline
 90
        4
 70
     0
 43
0.0
 10
-1.04211
 20
-2.492512
 10
-1.06557
 20
-2.558396
 10
-1.087945999999999
 20
-2.621780999999999
 10
-1.105609999999999
 20
-2.675555
  0
LWPOLYLINE
  5
4AD
330
1E
100
AcDbEntity
  8
LAYER_1
  6
DASHED
 62
     7
100
AcDbPolyline
 90
        4
 70
     0
 43
0.0
 10
-1.105609999999999
 20
-2.675555
 10
-1.115662
 20
-2.714449
 10
-1.118323999999999
 20
-2.740597
 10
-1.114554999999999
 20
-2.757983999999999
  0
LWPOLYLINE
  5
4B3
330
1E
100
AcDbEntity
  8
LAYER_1
  6
DASHED
 62
     7
100
AcDbPolyline
 90
        4
 70
     0
 43
0.0
 10
-1.114554999999999
 20
-2.757983999999999
 10
-1.105569
 20
-2.770042999999999
 10
-1.093512
 20
-2.778005999999999
 10
-1.080775999999999
 20
-2.782554999999999
  0
LWPOLYLINE
  5
4B9
330
1E
100
AcDbEntity
  8
LAYER_1
  6
DASHED
 62
     7
100
AcDbPolyline
 90
        4
 70
     0
 43
0.0
 10
-1.080775999999999
 20
-2.782554999999999
 10
-1.068379
 20
-2.784419999999999
 10
-1.051945
 20
-2.784458
 10
-1.025731999999999
 20
-2.783583
  0
LWPOLYLINE
  5
4BF
330
1E
100
AcDbEntity
  8
LAYER_1
  6
DASHED
 62
     7
100
AcDbPolyline
 90
        4
 70
     0
 43
0.0
 10
-1.025731999999999
 20
-2.783583
 10
-0.9868469999999998
 20
-2.782576999999999
 10
-0.9438679999999999
 20
-2.781689
 10
-0.9082319999999999
 20
-2.781028
  0
LWPOLYLINE
  5
4C5
330
1E
100
AcDbEntity
  8
LAYER_1
  6
DASHED
 62
     7
100
AcDbPolyline
 90
        4
 70
     0
 43
0.0
 10
-0.9082319999999999
 20
-2.781028
 10
-0.8884120000000001
 20
-2.780664999999999
 10
-0.8811099999999999
 20
-2.780531
 10
-0.880067
 20
-2.780511999999999
  0
TEXT
  5
4CB
330
1E
100
AcDbEntity
  8
LAYER_1
 62
     7
100
AcDbText
 10
-0.633138
 20
-2.094818999999999
 30
0.0
 40
0.110729
  1
0.75 oz. bias glass, attached with 3M-77
 41
0.6442605404699242
  7
SN0
 72
     5
 11
1.788968
 21
-2.094818999999999
 31
0.0
100
AcDbText
  0
LWPOLYLINE
  5
4CC
330
1E
100
AcDbEntity
  8
LAYER_1
  6
Continuous
 62
     7
100
AcDbPolyline
 90
        4
 70
     0
 43
0.0
 10
-0.7402910000000001
 20
-2.066275999999999
 10
-0.7414480000000001
 20
-2.066238
 10
-0.7495470000000001
 20
-2.065970999999999
 10
-0.771528
 20
-2.065247999999999
  0
LWPOLYLINE
  5
4D2
330
1E
100
AcDbEntity
  8
LAYER_1
  6
Continuous
 62
     7
100
AcDbPolyline
 90
        4
 70
     0
 43
0.0
 10
-0.771528
 20
-2.065247999999999
 10
-0.809523
 20
-2.064568999999999
 10
-0.846502
 20
-2.067299
 10
-0.8606099999999999
 20
-2.077538999999999
  0
LWPOLYLINE
  5
4D8
330
1E
100
AcDbEntity
  8
LAYER_1
  6
Continuous
 62
     7
100
AcDbPolyline
 90
        4
 70
     0
 43
0.0
 10
-0.8606099999999999
 20
-2.077538999999999
 10
-0.8382319999999999
 20
-2.098266
 10
-0.7986740000000001
 20
-2.127979999999999
 10
-0.769469
 20
-2.164066999999999
  0
LWPOLYLINE
  5
4DE
330
1E
100
AcDbEntity
  8
LAYER_1
  6
Continuous
 62
     7
100
AcDbPolyline
 90
        4
 70
     0
 43
0.0
 10
-0.769469
 20
-2.164066999999999
 10
-0.7706850000000001
 20
-2.203320999999999
 10
-0.792497
 20
-2.240184
 10
-0.8176099999999999
 20
-2.268511999999999
  0
LWPOLYLINE
  5
4E4
330
1E
100
AcDbEntity
  8
LAYER_1
  6
Continuous
 62
     7
100
AcDbPolyline
 90
        4
 70
     0
 43
0.0
 10
-0.8176099999999999
 20
-2.268511999999999
 10
-0.8323769999999999
 20
-2.284003999999999
 10
-0.837817
 20
-2.289711999999999
 10
-0.8385940000000001
 20
-2.290527999999999
  0
LWPOLYLINE
  5
4EA
330
1E
100
AcDbEntity
  8
LAYER_1
  6
Continuous
 62
     7
100
AcDbPolyline
 90
        4
 70
     1
 43
0.0
 10
-1.434093999999999
 20
-4.738539
 10
-1.491983999999999
 20
-4.311676999999999
 10
-1.247692999999999
 20
-4.341794999999999
 10
-1.392622
 20
-4.738437
  0
LWPOLYLINE
  5
4F0
330
1E
100
AcDbEntity
  8
LAYER_1
  6
DASHED
 62
     7
100
AcDbPolyline
 90
        2
 70
     0
 43
0.0
 10
-2.067374
 20
-3.098456999999999
 10
-0.6450670000000001
 20
-3.052374
  0
TEXT
  5
4F4
330
1E
100
AcDbEntity
  8
LAYER_1
 62
     7
100
AcDbText
 10
-1.055164999999999
 20
-4.298496
 30
0.0
 40
0.110729
  1
top mylar pushes wedge into hinge
 41
0.6629865256617502
  7
SN0
 72
     5
 11
1.042316
 21
-4.298496
 31
0.0
100
AcDbText
  0
TEXT
  5
4F5
330
1E
100
AcDbEntity
  8
LAYER_1
 62
     7
100
AcDbText
 10
-0.4672520000000001
 20
-3.332377999999999
 30
0.0
 40
0.110729
  1
a few glass strips hold halves together during bagging
 41
0.6519190163763
  7
SN0
 72
     5
 11
2.770820999999999
 21
-3.332377999999999
 31
0.0
100
AcDbText
  0
LWPOLYLINE
  5
4F6
330
1E
100
AcDbEntity
  8
LAYER_1
  6
Continuous
 62
     7
100
AcDbPolyline
 90
        4
 70
     0
 43
0.0
 10
-0.534469
 20
-3.297412999999999
 10
-0.535379
 20
-3.297489
 10
-0.5417489999999999
 20
-3.298019
 10
-0.5590390000000001
 20
-3.299456999999999
  0
LWPOLYLINE
  5
4FC
330
1E
100
AcDbEntity
  8
LAYER_1
  6
Continuous
 62
     7
100
AcDbPolyline
 90
        4
 70
     0
 43
0.0
 10
-0.5590390000000001
 20
-3.299456999999999
 10
-0.5892300000000001
 20
-3.301130999999999
 10
-0.6203260000000001
 20
-3.297797
 10
-0.6368580000000001
 20
-3.283082999999999
  0
LWPOLYLINE
  5
502
330
1E
100
AcDbEntity
  8
LAYER_1
  6
Continuous
 62
     7
100
AcDbPolyline
 90
        4
 70
     0
 43
0.0
 10
-0.6368580000000001
 20
-3.283082999999999
 10
-0.6292
 20
-3.252961999999999
 10
-0.6110760000000001
 20
-3.212836
 10
-0.602055
 20
-3.170428999999999
  0
LWPOLYLINE
  5
508
330
1E
100
AcDbEntity
  8
LAYER_1
  6
Continuous
 62
     7
100
AcDbPolyline
 90
        4
 70
     0
 43
0.0
 10
-0.602055
 20
-3.170428999999999
 10
-0.6160060000000001
 20
-3.132503999999999
 10
-0.644068
 20
-3.101865
 10
-0.6716770000000001
 20
-3.080331
  0
LWPOLYLINE
  5
50E
330
1E
100
AcDbEntity
  8
LAYER_1
  6
Continuous
 62
     7
100
AcDbPolyline
 90
        4
 70
     0
 43
0.0
 10
-0.6716770000000001
 20
-3.080331
 10
-0.68753
 20
-3.068796999999999
 10
-0.6933699999999999
 20
-3.064547999999999
 10
-0.6942050000000001
 20
-3.063940999999999
  0
TEXT
  5
514
330
1E
100
AcDbEntity
  8
LAYER_1
 62
     7
100
AcDbText
 10
-3.217818999999999
 20
-4.048941
 30
0.0
 40
0.110729
  1
Wet out glass before closing mylars
 41
0.6640238427009307
  7
SN0
 72
     5
 11
-1.075040999999999
 21
-4.048941
 31
0.0
100
AcDbText
  0
LWPOLYLINE
  5
515
330
1E
100
AcDbEntity
  8
LAYER_1
  6
Continuous
 62
     7
100
AcDbPolyline
 90
        2
 70
     0
 43
0.0
 10
-1.898413
 20
-2.849845999999999
 10
-1.766319
 20
-3.037231999999999
  0
SOLID
  5
519
330
1E
100
AcDbEntity
  8
LAYER_1
  6
Continuous
 62
     7
100
AcDbTrace
 10
-1.804928999999999
 20
-2.929149999999999
 30
0.0
 11
-1.766319
 21
-3.037231999999999
 31
0.0
 12
-1.804928999999999
 22
-2.929149999999999
 32
0.0
 13
-1.855138
 23
-2.964554999999999
 33
0.0
  0
LWPOLYLINE
  5
51A
330
1E
100
AcDbEntity
  8
LAYER_1
  6
Continuous
 62
     7
100
AcDbPolyline
 90
        3
 70
     1
 43
0.0
 10
-1.804928999999999
 20
-2.929149999999999
 10
-1.766319
 20
-3.037231999999999
 10
-1.855138
 20
-2.964554999999999
  0
LWPOLYLINE
  5
51F
330
1E
100
AcDbEntity
  8
LAYER_1
  6
Continuous
 62
     7
100
AcDbPolyline
 90
        3
 70
     0
 43
0.0
 10
-1.804928999999999
 20
-2.929149999999999
 10
-1.766319
 20
-3.037231999999999
 10
-1.855138
 20
-2.964554999999999
  0
LWPOLYLINE
  5
524
330
1E
100
AcDbEntity
  8
LAYER_1
  6
Continuous
 62
     7
100
AcDbPolyline
 90
        2
 70
     0
 43
0.0
 10
-0.8170939999999999
 20
-2.788413
 10
-0.9737639999999998
 20
-2.954290999999999
  0
SOLID
  5
528
330
1E
100
AcDbEntity
  8
LAYER_1
  6
Continuous
 62
     7
100
AcDbTrace
 10
-0.8754999999999999
 20
-2.894984
 30
0.0
 11
-0.9737639999999998
 21
-2.954290999999999
 31
0.0
 12
-0.8754999999999999
 22
-2.894984
 32
0.0
 13
-0.9201499999999999
 23
-2.852802999999999
 33
0.0
  0
LWPOLYLINE
  5
529
330
1E
100
AcDbEntity
  8
LAYER_1
  6
Continuous
 62
     7
100
AcDbPolyline
 90
        3
 70
     1
 43
0.0
 10
-0.8754999999999999
 20
-2.894984
 10
-0.9737639999999998
 20
-2.954290999999999
 10
-0.9201499999999999
 20
-2.852802999999999
  0
LWPOLYLINE
  5
52E
330
1E
100
AcDbEntity
  8
LAYER_1
  6
Continuous
 62
     7
100
AcDbPolyline
 90
        3
 70
     0
 43
0.0
 10
-0.8754999999999999
 20
-2.894984
 10
-0.9737639999999998
 20
-2.954290999999999
 10
-0.9201499999999999
 20
-2.852802999999999
  0
TEXT
  5
533
330
1E
100
AcDbEntity
  8
LAYER_1
 62
     7
100
AcDbText
 10
-3.500441
 20
4.695205
 30
0.0
 40
0.204156
  1
Integral Hinges for Bagged Wings
 41
0.6692324557639166
  7
SN2
 72
     5
 11
0.175498
 21
4.695205
 31
0.0
100
AcDbText
  0
LWPOLYLINE
  5
534
330
1E
100
AcDbEntity
  8
LAYER_1
  6
DASHED
 62
     7
100
AcDbPolyline
 90
        2
 70
     0
 43
0.0
 10
-1.678775999999999
 20
-4.811886
 10
-1.090495999999999
 20
-4.794983999999999
  0
TEXT
  5
538
330
1E
100
AcDbEntity
  8
LAYER_1
 62
     7
100
AcDbText
 10
2.01065
 20
4.661748
 30
0.0
 40
0.142448
  1
Mark Drela
 41
0.7040265251498477
  7
SN3
 72
     5
 11
2.851151999999999
 21
4.661748
 31
0.0
100
AcDbText
  0
TEXT
  5
539
330
1E
100
AcDbEntity
  8
LAYER_1
 62
     7
100
AcDbText
 10
2.01065
 20
4.489719999999999
 30
0.0
 40
0.142448
  1
10 July 04
 41
0.6354626573583664
  7
SN3
 72
     5
 11
2.795159999999999
 21
4.489719999999999
 31
0.0
100
AcDbText
  0
LWPOLYLINE
  5
53A
330
1E
100
AcDbEntity
  8
LAYER_1
  6
Continuous
 62
     7
100
AcDbPolyline
 90
       12
 70
     0
 43
0.0
 10
-3.251609999999999
 20
4.440386
 10
-2.947484
 20
4.411205
 10
-2.632609999999999
 20
4.377402
 10
-2.311593999999999
 20
4.342083
 10
-2.002874
 20
4.309819
 10
-1.754038999999999
 20
4.27911
 10
-1.531319
 20
4.249928999999999
 10
-1.474483999999999
 20
3.822912999999999
 10
-1.835440999999999
 20
3.809094
 10
-2.331566999999999
 20
3.792193
 10
-2.7985
 20
3.775303
 10
-3.25315
 20
3.763012
  0
LWPOLYLINE
  5
548
330
1E
100
AcDbEntity
  8
LAYER_1
  6
Continuous
 62
     7
100
AcDbPolyline
 90
        2
 70
     0
 43
0.0
 10
-1.529790999999999
 20
4.243776
 10
-1.474483999999999
 20
3.822912999999999
  0
LWPOLYLINE
  5
54C
330
1E
100
AcDbEntity
  8
LAYER_1
  6
Continuous
 62
     7
100
AcDbPolyline
 90
       17
 70
     1
 43
0.0
 10
-1.39615
 20
3.825983999999999
 10
-1.133495999999999
 20
3.833676999999999
 10
-0.6711770000000001
 20
3.845956999999999
 10
-0.0875
 20
3.856705
 10
0.5391770000000001
 20
3.87515
 10
1.085984
 20
3.881291
 10
1.430038999999999
 20
3.887429
 10
1.599
 20
3.888969
 10
1.595929
 20
3.905858
 10
1.417764
 20
3.924291
 10
1.104412999999999
 20
3.961165
 10
0.751138
 20
3.996483999999999
 10
0.3917199999999999
 20
4.041027999999999
 10
-0.007622
 20
4.084038999999999
 10
-0.370122
 20
4.120902
 10
-0.818622
 20
4.170055
 10
-1.259441
 20
4.216137999999999
  0
LWPOLYLINE
  5
55F
330
1E
100
AcDbEntity
  8
LAYER_1
  6
Continuous
 62
     7
100
AcDbPolyline
 90
        2
 70
     0
 43
0.0
 10
-1.257912999999999
 20
4.214593999999999
 10
-1.39615
 20
3.827528
  0
LWPOLYLINE
  5
563
330
1E
100
AcDbEntity
  8
LAYER_1
  6
Continuous
 62
     7
100
AcDbPolyline
 90
        2
 70
     0
 43
0.0
 10
-1.629621999999999
 20
3.816719999999999
 10
-1.222593999999999
 20
3.830538999999999
  0
LWPOLYLINE
  5
567
330
1E
100
AcDbEntity
  8
LAYER_1
  6
Continuous
 62
     7
100
AcDbPolyline
 90
        4
 70
     0
 43
0.0
 10
-1.692593999999999
 20
4.271373999999999
 10
-1.691599
 20
4.271241
 10
-1.684631999999999
 20
4.270307999999999
 10
-1.66572
 20
4.267776
  0
LWPOLYLINE
  5
56D
330
1E
100
AcDbEntity
  8
LAYER_1
  6
Continuous
 62
     7
100
AcDbPolyline
 90
        4
 70
     0
 43
0.0
 10
-1.66572
 20
4.267776
 10
-1.63017
 20
4.263055999999999
 10
-1.57847
 20
4.256288999999999
 10
-1.512373999999999
 20
4.247818999999999
  0
LWPOLYLINE
  5
573
330
1E
100
AcDbEntity
  8
LAYER_1
  6
Continuous
 62
     7
100
AcDbPolyline
 90
        4
 70
     0
 43
0.0
 10
-1.512373999999999
 20
4.247818999999999
 10
-1.43482
 20
4.238103999999999
 10
-1.353393999999999
 20
4.228169
 10
-1.276858
 20
4.219149999999999
  0
LWPOLYLINE
  5
579
330
1E
100
AcDbEntity
  8
LAYER_1
  6
Continuous
 62
     7
100
AcDbPolyline
 90
        4
 70
     0
 43
0.0
 10
-1.276858
 20
4.219149999999999
 10
-1.212701
 20
4.211960999999999
 10
-1.163277
 20
4.206705999999999
 10
-1.129664999999999
 20
4.203275999999999
  0
LWPOLYLINE
  5
57F
330
1E
100
AcDbEntity
  8
LAYER_1
  6
Continuous
 62
     7
100
AcDbPolyline
 90
        4
 70
     0
 43
0.0
 10
-1.129664999999999
 20
4.203275999999999
 10
-1.111829
 20
4.201465999999999
 10
-1.105258
 20
4.2008
 10
-1.104319
 20
4.200705
  0
LWPOLYLINE
  5
585
330
1E
100
AcDbEntity
  8
LAYER_1
  6
DASHED
 62
     7
100
AcDbPolyline
 90
        2
 70
     0
 43
0.0
 10
-1.37311
 20
4.411137999999999
 10
-1.411512
 20
4.070149999999999
  0
LWPOLYLINE
  5
589
330
1E
100
AcDbEntity
  8
LAYER_1
  6
Continuous
 62
     7
100
AcDbPolyline
 90
        4
 70
     0
 43
0.0
 10
-1.327484
 20
2.979413
 10
-1.326708999999999
 20
2.979171
 10
-1.321278
 20
2.977470999999999
 10
-1.306538999999999
 20
2.972858
  0
LWPOLYLINE
  5
58F
330
1E
100
AcDbEntity
  8
LAYER_1
  6
Continuous
 62
     7
100
AcDbPolyline
 90
        4
 70
     0
 43
0.0
 10
-1.306538999999999
 20
2.972858
 10
-1.279323999999999
 20
2.964368999999999
 10
-1.242393999999999
 20
2.953011999999999
 10
-1.199983999999999
 20
2.940290999999999
  0
LWPOLYLINE
  5
595
330
1E
100
AcDbEntity
  8
LAYER_1
  6
Continuous
 62
     7
100
AcDbPolyline
 90
        4
 70
     0
 43
0.0
 10
-1.199983999999999
 20
2.940290999999999
 10
-1.156545
 20
2.927671
 10
-1.11735
 20
2.916554
 10
-1.087874
 20
2.908303
  0
LWPOLYLINE
  5
59B
330
1E
100
AcDbEntity
  8
LAYER_1
  6
Continuous
 62
     7
100
AcDbPolyline
 90
        4
 70
     0
 43
0.0
 10
-1.087874
 20
2.908303
 10
-1.071836
 20
2.903836999999999
 10
-1.065927
 20
2.902191999999999
 10
-1.065083
 20
2.901956999999999
  0
LWPOLYLINE
  5
5A1
330
1E
100
AcDbEntity
  8
LAYER_1
  6
Continuous
 62
     7
100
AcDbPolyline
 90
       17
 70
     1
 43
0.0
 10
-1.407177
 20
2.580499999999999
 10
-1.147193
 20
2.542457
 10
-0.6897479999999999
 20
2.474275999999999
 10
-0.113067
 20
2.3835
 10
0.507291
 20
2.292831
 10
1.046845999999999
 20
2.203929
 10
1.386747999999999
 20
2.150247999999999
 10
1.553401999999999
 20
2.122412999999999
 10
1.553319
 20
2.139583
 10
1.381054999999999
 20
2.188677
 10
1.078873999999999
 20
2.279386
 10
0.737094
 20
2.375528
 10
0.390874
 20
2.481802999999999
 10
0.005055
 20
2.5935
 10
-0.345528
 20
2.692763999999999
 10
-0.7786770000000001
 20
2.819039
 10
-1.204803
 20
2.940968999999999
  0
LWPOLYLINE
  5
5B4
330
1E
100
AcDbEntity
  8
LAYER_1
  6
Continuous
 62
     7
100
AcDbPolyline
 90
        2
 70
     0
 43
0.0
 10
-1.203567
 20
2.939192999999999
 10
-1.406912999999999
 20
2.582011999999999
  0
LWPOLYLINE
  5
5B8
330
1E
100
AcDbEntity
  8
LAYER_1
  6
Continuous
 62
     7
100
AcDbPolyline
 90
       12
 70
     0
 43
0.0
 10
-3.281877999999999
 20
3.043331
 10
-2.976366
 20
3.040763999999999
 10
-2.659748
 20
3.034527999999999
 10
-2.336874
 20
3.027318999999999
 10
-2.026511999999999
 20
3.022094
 10
-1.775940999999999
 20
3.013177
 10
-1.551528
 20
3.003527999999999
 10
-1.457704999999999
 20
2.583094
 10
-1.816083
 20
2.537873999999999
 10
-2.308831
 20
2.477790999999999
 10
-2.772527999999999
 20
2.420263999999999
 10
-3.224369999999999
 20
2.368402
  0
LWPOLYLINE
  5
5C6
330
1E
100
AcDbEntity
  8
LAYER_1
  6
Continuous
 62
     7
100
AcDbPolyline
 90
        2
 70
     0
 43
0.0
 10
-1.549469
 20
2.997527999999999
 10
-1.457704999999999
 20
2.583094
  0
LWPOLYLINE
  5
5CA
330
1E
100
AcDbEntity
  8
LAYER_1
  6
Continuous
 62
     7
100
AcDbPolyline
 90
        4
 70
     0
 43
0.0
 10
-1.718622
 20
3.010137999999999
 10
-1.717600999999999
 20
3.010102999999999
 10
-1.710454
 20
3.009860999999999
 10
-1.691054999999999
 20
3.009205
  0
LWPOLYLINE
  5
5D0
330
1E
100
AcDbEntity
  8
LAYER_1
  6
Continuous
 62
     7
100
AcDbPolyline
 90
        4
 70
     0
 43
0.0
 10
-1.691054999999999
 20
3.009205
 10
-1.655502
 20
3.008000999999999
 10
-1.608896999999999
 20
3.006396
 10
-1.558567
 20
3.00461
  0
LWPOLYLINE
  5
5D6
330
1E
100
AcDbEntity
  8
LAYER_1
  6
Continuous
 62
     7
100
AcDbPolyline
 90
        4
 70
     0
 43
0.0
 10
-1.558567
 20
3.00461
 10
-1.511236
 20
3.002835999999999
 10
-1.471227999999999
 20
3.001276999999999
 10
-1.442276
 20
3.000122
  0
LWPOLYLINE
  5
5DC
330
1E
100
AcDbEntity
  8
LAYER_1
  6
Continuous
 62
     7
100
AcDbPolyline
 90
        4
 70
     0
 43
0.0
 10
-1.442276
 20
3.000122
 10
-1.426678
 20
2.999506999999999
 10
-1.420930999999999
 20
2.999279999999999
 10
-1.42011
 20
2.999248
  0
LWPOLYLINE
  5
5E2
330
1E
100
AcDbEntity
  8
LAYER_1
  6
Continuous
 62
     7
100
AcDbPolyline
 90
        4
 70
     0
 43
0.0
 10
-1.526704999999999
 20
2.575054999999999
 10
-1.526316
 20
2.575092999999999
 10
-1.523597999999999
 20
2.575359999999999
 10
-1.51622
 20
2.576083
  0
LWPOLYLINE
  5
5E8
330
1E
100
AcDbEntity
  8
LAYER_1
  6
Continuous
 62
     7
100
AcDbPolyline
 90
        4
 70
     0
 43
0.0
 10
-1.51622
 20
2.576083
 10
-1.502812
 20
2.577373
 10
-1.485934
 20
2.578886999999999
 10
-1.46911
 20
2.580176999999999
  0
LWPOLYLINE
  5
5EE
330
1E
100
AcDbEntity
  8
LAYER_1
  6
Continuous
 62
     7
100
AcDbPolyline
 90
        4
 70
     0
 43
0.0
 10
-1.46911
 20
2.580176999999999
 10
-1.45513
 20
2.580891999999999
 10
-1.443762999999999
 20
2.581154999999999
 10
-1.434038999999999
 20
2.581192999999999
  0
LWPOLYLINE
  5
5F4
330
1E
100
AcDbEntity
  8
LAYER_1
  6
Continuous
 62
     7
100
AcDbPolyline
 90
        4
 70
     0
 43
0.0
 10
-1.434038999999999
 20
2.581192999999999
 10
-1.424876
 20
2.581126999999999
 10
-1.414629
 20
2.580665999999999
 10
-1.401538999999999
 20
2.579413
  0
LWPOLYLINE
  5
5FA
330
1E
100
AcDbEntity
  8
LAYER_1
  6
Continuous
 62
     7
100
AcDbPolyline
 90
        4
 70
     0
 43
0.0
 10
-1.401538999999999
 20
2.579413
 10
-1.384790999999999
 20
2.577149
 10
-1.367418
 20
2.574491
 10
-1.353401999999999
 20
2.572232
  0
LWPOLYLINE
  5
600
330
1E
100
AcDbEntity
  8
LAYER_1
  6
Continuous
 62
     7
100
AcDbPolyline
 90
        4
 70
     0
 43
0.0
 10
-1.353401999999999
 20
2.572232
 10
-1.345660999999999
 20
2.570972
 10
-1.342808999999999
 20
2.570507
 10
-1.342402
 20
2.570441
  0
LWPOLYLINE
  5
606
330
1E
100
AcDbEntity
  8
LAYER_1
  6
Continuous
 62
     7
100
AcDbPolyline
 90
        4
 70
     0
 43
0.0
 10
-1.333177
 20
2.848456999999999
 10
-1.333480999999999
 20
2.850049999999999
 10
-1.335605999999999
 20
2.861200999999999
 10
-1.341374
 20
2.891468999999999
  0
LWPOLYLINE
  5
60C
330
1E
100
AcDbEntity
  8
LAYER_1
  6
Continuous
 62
     7
100
AcDbPolyline
 90
        4
 70
     0
 43
0.0
 10
-1.341374
 20
2.891468999999999
 10
-1.350620999999999
 20
2.946227999999999
 10
-1.35532
 20
3.014191999999999
 10
-1.345456999999999
 20
3.079886
  0
LWPOLYLINE
  5
612
330
1E
100
AcDbEntity
  8
LAYER_1
  6
Continuous
 62
     7
100
AcDbPolyline
 90
        4
 70
     0
 43
0.0
 10
-1.345456999999999
 20
3.079886
 10
-1.315120999999999
 20
3.130778999999999
 10
-1.274769
 20
3.166196999999999
 10
-1.238968999999999
 20
3.188413
  0
LWPOLYLINE
  5
618
330
1E
100
AcDbEntity
  8
LAYER_1
  6
Continuous
 62
     7
100
AcDbPolyline
 90
        4
 70
     0
 43
0.0
 10
-1.238968999999999
 20
3.188413
 10
-1.218787999999999
 20
3.199947
 10
-1.211353
 20
3.204196
 10
-1.210291
 20
3.204803
  0
SOLID
  5
61E
330
1E
100
AcDbEntity
  8
LAYER_1
  6
Continuous
 62
     7
100
AcDbTrace
 10
-1.321555
 20
3.176609999999999
 30
0.0
 11
-1.210291
 21
3.204803
 31
0.0
 12
-1.321555
 22
3.176609999999999
 32
0.0
 13
-1.291066999999999
 23
3.123263999999999
 33
0.0
  0
LWPOLYLINE
  5
61F
330
1E
100
AcDbEntity
  8
LAYER_1
  6
Continuous
 62
     7
100
AcDbPolyline
 90
        3
 70
     1
 43
0.0
 10
-1.321555
 20
3.176609999999999
 10
-1.210291
 20
3.204803
 10
-1.291066999999999
 20
3.123263999999999
  0
LWPOLYLINE
  5
624
330
1E
100
AcDbEntity
  8
LAYER_1
  6
Continuous
 62
     7
100
AcDbPolyline
 90
        3
 70
     0
 43
0.0
 10
-1.321555
 20
3.176609999999999
 10
-1.210291
 20
3.204803
 10
-1.291066999999999
 20
3.123263999999999
  0
LWPOLYLINE
  5
629
330
1E
100
AcDbEntity
  8
LAYER_1
  6
Continuous
 62
     7
100
AcDbPolyline
 90
        4
 70
     0
 43
0.0
 10
-1.465276
 20
2.837345999999999
 10
-1.464839
 20
2.837991
 10
-1.461787
 20
2.842501999999999
 10
-1.4535
 20
2.854747999999999
  0
LWPOLYLINE
  5
62F
330
1E
100
AcDbEntity
  8
LAYER_1
  6
Continuous
 62
     7
100
AcDbPolyline
 90
        4
 70
     0
 43
0.0
 10
-1.4535
 20
2.854747999999999
 10
-1.438765
 20
2.877404999999999
 10
-1.421985
 20
2.908371999999999
 10
-1.408957
 20
2.944345999999999
  0
LWPOLYLINE
  5
635
330
1E
100
AcDbEntity
  8
LAYER_1
  6
Continuous
 62
     7
100
AcDbPolyline
 90
        4
 70
     0
 43
0.0
 10
-1.408957
 20
2.944345999999999
 10
-1.40492
 20
2.982724999999999
 10
-1.412824999999999
 20
3.023719999999999
 10
-1.435067
 20
3.068248
  0
LWPOLYLINE
  5
63B
330
1E
100
AcDbEntity
  8
LAYER_1
  6
Continuous
 62
     7
100
AcDbPolyline
 90
        4
 70
     0
 43
0.0
 10
-1.435067
 20
3.068248
 10
-1.471683999999999
 20
3.115820999999999
 10
-1.513307
 20
3.160438999999999
 10
-1.54822
 20
3.194704999999999
  0
LWPOLYLINE
  5
641
330
1E
100
AcDbEntity
  8
LAYER_1
  6
Continuous
 62
     7
100
AcDbPolyline
 90
        4
 70
     0
 43
0.0
 10
-1.54822
 20
3.194704999999999
 10
-1.567668999999999
 20
3.213441999999999
 10
-1.574835
 20
3.220345
 10
-1.575858
 20
3.221331
  0
SOLID
  5
647
330
1E
100
AcDbEntity
  8
LAYER_1
  6
Continuous
 62
     7
100
AcDbTrace
 10
-1.517511999999999
 20
3.1225
 30
0.0
 11
-1.575858
 21
3.221331
 31
0.0
 12
-1.517511999999999
 22
3.1225
 32
0.0
 13
-1.474901999999999
 23
3.166748
 33
0.0
  0
LWPOLYLINE
  5
648
330
1E
100
AcDbEntity
  8
LAYER_1
  6
Continuous
 62
     7
100
AcDbPolyline
 90
        3
 70
     1
 43
0.0
 10
-1.517511999999999
 20
3.1225
 10
-1.575858
 20
3.221331
 10
-1.474901999999999
 20
3.166748
  0
LWPOLYLINE
  5
64D
330
1E
100
AcDbEntity
  8
LAYER_1
  6
Continuous
 62
     7
100
AcDbPolyline
 90
        3
 70
     0
 43
0.0
 10
-1.517511999999999
 20
3.1225
 10
-1.575858
 20
3.221331
 10
-1.474901999999999
 20
3.166748
  0
TEXT
  5
652
330
1E
100
AcDbEntity
  8
LAYER_1
 62
     7
100
AcDbText
 10
-3.483912999999999
 20
4.678441
 30
0.0
 40
0.142448
  1
Cut hinge gap skin
 41
0.6503706833088235
  7
SN1
 72
     5
 11
-2.058959999999999
 21
4.678441
 31
0.0
100
AcDbText
  0
TEXT
  5
653
330
1E
100
AcDbEntity
  8
LAYER_1
 62
     7
100
AcDbText
 10
-3.533066999999999
 20
3.192858
 30
0.0
 40
0.142448
  1
Peel out tape and foam
 41
0.6424027901203161
  7
SN1
 72
     5
 11
-1.755177999999999
 21
3.192858
 31
0.0
100
AcDbText
  0
LWPOLYLINE
  5
654
330
1E
100
AcDbEntity
  8
LAYER_1
  6
Continuous
 62
     7
100
AcDbPolyline
 90
        4
 70
     0
 43
0.0
 10
-1.327484
 20
1.604412999999999
 10
-1.326708999999999
 20
1.604171
 10
-1.321278
 20
1.602470999999999
 10
-1.306538999999999
 20
1.597858
  0
LWPOLYLINE
  5
65A
330
1E
100
AcDbEntity
  8
LAYER_1
  6
Continuous
 62
     7
100
AcDbPolyline
 90
        4
 70
     0
 43
0.0
 10
-1.306538999999999
 20
1.597858
 10
-1.279323999999999
 20
1.589369
 10
-1.242393999999999
 20
1.578012
 10
-1.199983999999999
 20
1.565291
  0
LWPOLYLINE
  5
660
330
1E
100
AcDbEntity
  8
LAYER_1
  6
Continuous
 62
     7
100
AcDbPolyline
 90
        4
 70
     0
 43
0.0
 10
-1.199983999999999
 20
1.565291
 10
-1.156545
 20
1.552670999999999
 10
-1.11735
 20
1.541554
 10
-1.087874
 20
1.533303
  0
LWPOLYLINE
  5
666
330
1E
100
AcDbEntity
  8
LAYER_1
  6
Continuous
 62
     7
100
AcDbPolyline
 90
        4
 70
     0
 43
0.0
 10
-1.087874
 20
1.533303
 10
-1.071836
 20
1.528837
 10
-1.065927
 20
1.527192
 10
-1.065083
 20
1.526956999999999
  0
LWPOLYLINE
  5
66C
330
1E
100
AcDbEntity
  8
LAYER_1
  6
Continuous
 62
     7
100
AcDbPolyline
 90
       17
 70
     1
 43
0.0
 10
-1.407177
 20
1.2055
 10
-1.147193
 20
1.167456999999999
 10
-0.6897479999999999
 20
1.099275999999999
 10
-0.113067
 20
1.008499999999999
 10
0.507291
 20
0.9178309999999999
 10
1.046845999999999
 20
0.8289290000000001
 10
1.386747999999999
 20
0.775248
 10
1.553401999999999
 20
0.747413
 10
1.553319
 20
0.7645830000000001
 10
1.381054999999999
 20
0.813677
 10
1.078873999999999
 20
0.904386
 10
0.737094
 20
1.000528
 10
0.390874
 20
1.106802999999999
 10
0.005055
 20
1.218499999999999
 10
-0.345528
 20
1.317763999999999
 10
-0.7786770000000001
 20
1.444038999999999
 10
-1.204803
 20
1.565968999999999
  0
LWPOLYLINE
  5
67F
330
1E
100
AcDbEntity
  8
LAYER_1
  6
Continuous
 62
     7
100
AcDbPolyline
 90
        2
 70
     0
 43
0.0
 10
-1.203567
 20
1.564192999999999
 10
-1.406912999999999
 20
1.207011999999999
  0
LWPOLYLINE
  5
683
330
1E
100
AcDbEntity
  8
LAYER_1
  6
Continuous
 62
     7
100
AcDbPolyline
 90
       12
 70
     0
 43
0.0
 10
-3.281877999999999
 20
1.668331
 10
-2.976366
 20
1.665764
 10
-2.659748
 20
1.659527999999999
 10
-2.336874
 20
1.652318999999999
 10
-2.026511999999999
 20
1.647093999999999
 10
-1.775940999999999
 20
1.638176999999999
 10
-1.551528
 20
1.628528
 10
-1.457704999999999
 20
1.208094
 10
-1.816083
 20
1.162873999999999
 10
-2.308831
 20
1.102791
 10
-2.772527999999999
 20
1.045263999999999
 10
-3.224369999999999
 20
0.993402
  0
LWPOLYLINE
  5
691
330
1E
100
AcDbEntity
  8
LAYER_1
  6
Continuous
 62
     7
100
AcDbPolyline
 90
        2
 70
     0
 43
0.0
 10
-1.549469
 20
1.622527999999999
 10
-1.457704999999999
 20
1.208094
  0
LWPOLYLINE
  5
695
330
1E
100
AcDbEntity
  8
LAYER_1
  6
Continuous
 62
     7
100
AcDbPolyline
 90
        4
 70
     0
 43
0.0
 10
-1.718622
 20
1.635137999999999
 10
-1.717600999999999
 20
1.635102999999999
 10
-1.710454
 20
1.634861
 10
-1.691054999999999
 20
1.634204999999999
  0
LWPOLYLINE
  5
69B
330
1E
100
AcDbEntity
  8
LAYER_1
  6
Continuous
 62
     7
100
AcDbPolyline
 90
        4
 70
     0
 43
0.0
 10
-1.691054999999999
 20
1.634204999999999
 10
-1.655502
 20
1.633000999999999
 10
-1.608896999999999
 20
1.631395999999999
 10
-1.558567
 20
1.62961
  0
LWPOLYLINE
  5
6A1
330
1E
100
AcDbEntity
  8
LAYER_1
  6
Continuous
 62
     7
100
AcDbPolyline
 90
        4
 70
     0
 43
0.0
 10
-1.558567
 20
1.62961
 10
-1.511236
 20
1.627836
 10
-1.471227999999999
 20
1.626276999999999
 10
-1.442276
 20
1.625121999999999
  0
LWPOLYLINE
  5
6A7
330
1E
100
AcDbEntity
  8
LAYER_1
  6
Continuous
 62
     7
100
AcDbPolyline
 90
        4
 70
     0
 43
0.0
 10
-1.442276
 20
1.625121999999999
 10
-1.426678
 20
1.624506999999999
 10
-1.420930999999999
 20
1.624279999999999
 10
-1.42011
 20
1.624247999999999
  0
LWPOLYLINE
  5
6AD
330
1E
100
AcDbEntity
  8
LAYER_1
  6
Continuous
 62
     7
100
AcDbPolyline
 90
        4
 70
     0
 43
0.0
 10
-1.526704999999999
 20
1.200054999999999
 10
-1.526316
 20
1.200093
 10
-1.523597999999999
 20
1.20036
 10
-1.51622
 20
1.201082999999999
  0
LWPOLYLINE
  5
6B3
330
1E
100
AcDbEntity
  8
LAYER_1
  6
Continuous
 62
     7
100
AcDbPolyline
 90
        4
 70
     0
 43
0.0
 10
-1.51622
 20
1.201082999999999
 10
-1.502812
 20
1.202372999999999
 10
-1.485934
 20
1.203887
 10
-1.46911
 20
1.205176999999999
  0
LWPOLYLINE
  5
6B9
330
1E
100
AcDbEntity
  8
LAYER_1
  6
Continuous
 62
     7
100
AcDbPolyline
 90
        4
 70
     0
 43
0.0
 10
-1.46911
 20
1.205176999999999
 10
-1.45513
 20
1.205891999999999
 10
-1.443762999999999
 20
1.206154999999999
 10
-1.434038999999999
 20
1.206193
  0
LWPOLYLINE
  5
6BF
330
1E
100
AcDbEntity
  8
LAYER_1
  6
Continuous
 62
     7
100
AcDbPolyline
 90
        4
 70
     0
 43
0.0
 10
-1.434038999999999
 20
1.206193
 10
-1.424876
 20
1.206126999999999
 10
-1.414629
 20
1.205665999999999
 10
-1.401538999999999
 20
1.204412999999999
  0
LWPOLYLINE
  5
6C5
330
1E
100
AcDbEntity
  8
LAYER_1
  6
Continuous
 62
     7
100
AcDbPolyline
 90
        4
 70
     0
 43
0.0
 10
-1.401538999999999
 20
1.204412999999999
 10
-1.384790999999999
 20
1.202148999999999
 10
-1.367418
 20
1.199491
 10
-1.353401999999999
 20
1.197232
  0
LWPOLYLINE
  5
6CB
330
1E
100
AcDbEntity
  8
LAYER_1
  6
Continuous
 62
     7
100
AcDbPolyline
 90
        4
 70
     0
 43
0.0
 10
-1.353401999999999
 20
1.197232
 10
-1.345660999999999
 20
1.195972
 10
-1.342808999999999
 20
1.195506999999999
 10
-1.342402
 20
1.195440999999999
  0
TEXT
  5
6D1
330
1E
100
AcDbEntity
  8
LAYER_1
 62
     7
100
AcDbText
 10
-3.520776
 20
1.793275999999999
 30
0.0
 40
0.142448
  1
Score skin at hingeline
 41
0.6578279496601973
  7
SN1
 72
     5
 11
-1.789441
 21
1.793275999999999
 31
0.0
100
AcDbText
  0
SOLID
  5
6D2
330
1E
100
AcDbEntity
  8
LAYER_1
  6
Continuous
 62
   153
100
AcDbTrace
 10
-1.455567
 20
1.217373999999999
 30
0.0
 11
-1.350983999999999
 21
1.965803
 31
0.0
 12
-1.404457
 22
1.21022
 32
0.0
 13
-1.299873999999999
 23
1.95865
 33
0.0
  0
LWPOLYLINE
  5
6D3
330
1E
100
AcDbEntity
  8
LAYER_1
  6
Continuous
 62
   153
100
AcDbPolyline
 90
        4
 70
     1
 43
0.0
 10
-1.455567
 20
1.217373999999999
 10
-1.350983999999999
 20
1.965803
 10
-1.299873999999999
 20
1.95865
 10
-1.404457
 20
1.21022
  0
LWPOLYLINE
  5
6D9
330
1E
100
AcDbEntity
  8
LAYER_1
  6
Continuous
 62
     7
100
AcDbPolyline
 90
        4
 70
     1
 43
0.0
 10
-1.455567
 20
1.217373999999999
 10
-1.350983999999999
 20
1.965803
 10
-1.299873999999999
 20
1.95865
 10
-1.404457
 20
1.21022
  0
TEXT
  5
6DF
330
1E
100
AcDbEntity
  8
LAYER_1
 62
     7
100
AcDbText
 10
-1.239484
 20
1.838149999999999
 30
0.0
 40
0.110729
  1
handheld Dremel cutoff wheel
 41
0.6780916684030171
  7
SN0
 72
     5
 11
0.5553910000000001
 21
1.838149999999999
 31
0.0
100
AcDbText
  0
LWPOLYLINE
  5
6E0
330
1E
100
AcDbEntity
  8
LAYER_1
  6
Continuous
 62
     7
100
AcDbPolyline
 90
        4
 70
     0
 43
0.0
 10
-1.088940999999999
 20
0.6740940000000001
 10
-1.088295
 20
0.6736010000000001
 10
-1.083772999999999
 20
0.670148
 10
-1.071499999999999
 20
0.6607760000000001
  0
LWPOLYLINE
  5
6E6
330
1E
100
AcDbEntity
  8
LAYER_1
  6
Continuous
 62
     7
100
AcDbPolyline
 90
        4
 70
     0
 43
0.0
 10
-1.071499999999999
 20
0.6607760000000001
 10
-1.048831999999999
 20
0.643493
 10
-1.018012
 20
0.620189
 10
-0.982512
 20
0.5937200000000001
  0
LWPOLYLINE
  5
6EC
330
1E
100
AcDbEntity
  8
LAYER_1
  6
Continuous
 62
     7
100
AcDbPolyline
 90
        4
 70
     0
 43
0.0
 10
-0.982512
 20
0.5937200000000001
 10
-0.9460089999999999
 20
0.567011
 10
-0.912978
 20
0.543157
 10
-0.888094
 20
0.525319
  0
LWPOLYLINE
  5
6F2
330
1E
100
AcDbEntity
  8
LAYER_1
  6
Continuous
 62
     7
100
AcDbPolyline
 90
        4
 70
     0
 43
0.0
 10
-0.888094
 20
0.525319
 10
-0.8745499999999999
 20
0.5156330000000001
 10
-0.8695589999999999
 20
0.512065
 10
-0.8688459999999999
 20
0.511555
  0
LWPOLYLINE
  5
6F8
330
1E
100
AcDbEntity
  8
LAYER_1
  6
Continuous
 62
     7
100
AcDbPolyline
 90
       17
 70
     1
 43
0.0
 10
-1.300263999999999
 20
0.326484
 10
-1.068956999999999
 20
0.201819
 10
-0.6624290000000001
 20
-0.018705
 10
-0.151567
 20
-0.30122
 10
0.400358
 20
-0.5986100000000001
 10
0.876984
 20
-0.866693
 10
1.178028
 20
-1.033402
 10
1.32511
 20
-1.116538999999999
 10
1.330902
 20
-1.100373999999999
 10
1.185818999999999
 20
-0.995331
 10
0.932886
 20
-0.806732
 10
0.6445940000000001
 20
-0.5995
 10
0.35561
 20
-0.38122
 10
0.031264
 20
-0.144291
 10
-0.264232
 20
0.068874
 10
-0.6280670000000001
 20
0.335693
 10
-0.986803
 20
0.596012
  0
LWPOLYLINE
  5
70B
330
1E
100
AcDbEntity
  8
LAYER_1
  6
Continuous
 62
     7
100
AcDbPolyline
 90
        2
 70
     0
 43
0.0
 10
-0.986232
 20
0.5939130000000001
 10
-1.299495999999999
 20
0.327831
  0
LWPOLYLINE
  5
70F
330
1E
100
AcDbEntity
  8
LAYER_1
  6
Continuous
 62
     7
100
AcDbPolyline
 90
       12
 70
     0
 43
0.0
 10
-3.062578999999999
 20
-0.500957
 10
-2.826902
 20
-0.306539
 10
-2.580358
 20
-0.107791
 10
-2.328374
 20
0.09422
 10
-2.087263999999999
 20
0.28972
 10
-1.889593999999999
 20
0.443941
 10
-1.711468999999999
 20
0.580803
 10
-1.369345999999999
 20
0.319055
 10
-1.614803
 20
0.054039
 10
-1.953677
 20
-0.30872
 10
-2.271901999999999
 20
-0.6508310000000001
 10
-2.584693
 20
-0.9810120000000001
  0
LWPOLYLINE
  5
71D
330
1E
100
AcDbEntity
  8
LAYER_1
  6
Continuous
 62
     7
100
AcDbPolyline
 90
        2
 70
     0
 43
0.0
 10
-1.706054999999999
 20
0.5775550000000001
 10
-1.369358
 20
0.319055
  0
LWPOLYLINE
  5
721
330
1E
100
AcDbEntity
  8
LAYER_1
  6
Continuous
 62
     7
100
AcDbPolyline
 90
        4
 70
     0
 43
0.0
 10
-1.84372
 20
0.478469
 10
-1.842915999999999
 20
0.479099
 10
-1.837288
 20
0.4835100000000001
 10
-1.822011999999999
 20
0.4954840000000001
  0
LWPOLYLINE
  5
727
330
1E
100
AcDbEntity
  8
LAYER_1
  6
Continuous
 62
     7
100
AcDbPolyline
 90
        4
 70
     0
 43
0.0
 10
-1.822011999999999
 20
0.4954840000000001
 10
-1.794008
 20
0.517413
 10
-1.757272999999999
 20
0.54614
 10
-1.717554999999999
 20
0.5771220000000001
  0
LWPOLYLINE
  5
72D
330
1E
100
AcDbEntity
  8
LAYER_1
  6
Continuous
 62
     7
100
AcDbPolyline
 90
        4
 70
     0
 43
0.0
 10
-1.717554999999999
 20
0.5771220000000001
 10
-1.680161
 20
0.60619
 10
-1.648520999999999
 20
0.630717
 10
-1.625609999999999
 20
0.648441
  0
LWPOLYLINE
  5
733
330
1E
100
AcDbEntity
  8
LAYER_1
  6
Continuous
 62
     7
100
AcDbPolyline
 90
        4
 70
     0
 43
0.0
 10
-1.625609999999999
 20
0.648441
 10
-1.613246
 20
0.6580020000000001
 10
-1.608689999999999
 20
0.661524
 10
-1.608038999999999
 20
0.662028
  0
LWPOLYLINE
  5
739
330
1E
100
AcDbEntity
  8
LAYER_1
  6
Continuous
 62
     7
100
AcDbPolyline
 90
        4
 70
     0
 43
0.0
 10
-1.402303
 20
0.285319
 10
-1.402137
 20
0.285494
 10
-1.400973999999999
 20
0.286722
 10
-1.397819
 20
0.290055
  0
LWPOLYLINE
  5
73F
330
1E
100
AcDbEntity
  8
LAYER_1
  6
Continuous
 62
     7
100
AcDbPolyline
 90
        4
 70
     0
 43
0.0
 10
-1.397819
 20
0.290055
 10
-1.392044999999999
 20
0.296123
 10
-1.384512
 20
0.303866
 10
-1.376441
 20
0.311803
  0
LWPOLYLINE
  5
745
330
1E
100
AcDbEntity
  8
LAYER_1
  6
Continuous
 62
     7
100
AcDbPolyline
 90
        4
 70
     0
 43
0.0
 10
-1.376441
 20
0.311803
 10
-1.368810999999999
 20
0.318734
 10
-1.361666999999999
 20
0.324471
 10
-1.354802999999999
 20
0.329094
  0
LWPOLYLINE
  5
74B
330
1E
100
AcDbEntity
  8
LAYER_1
  6
Continuous
 62
     7
100
AcDbPolyline
 90
        4
 70
     0
 43
0.0
 10
-1.354802999999999
 20
0.329094
 10
-1.348068
 20
0.332658
 10
-1.341415999999999
 20
0.335119
 10
-1.334845999999999
 20
0.336386
  0
LWPOLYLINE
  5
751
330
1E
100
AcDbEntity
  8
LAYER_1
  6
Continuous
 62
     7
100
AcDbPolyline
 90
        4
 70
     0
 43
0.0
 10
-1.334845999999999
 20
0.336386
 10
-1.328354999999999
 20
0.336416
 10
-1.321919
 20
0.335336
 10
-1.315512
 20
0.333319
  0
LWPOLYLINE
  5
757
330
1E
100
AcDbEntity
  8
LAYER_1
  6
Continuous
 62
     7
100
AcDbPolyline
 90
        4
 70
     0
 43
0.0
 10
-1.315512
 20
0.333319
 10
-1.308928
 20
0.330455
 10
-1.301236
 20
0.326536
 10
-1.291319
 20
0.321276
  0
LWPOLYLINE
  5
75D
330
1E
100
AcDbEntity
  8
LAYER_1
  6
Continuous
 62
     7
100
AcDbPolyline
 90
        4
 70
     0
 43
0.0
 10
-1.291319
 20
0.321276
 10
-1.278752
 20
0.314699
 10
-1.265786
 20
0.307979
 10
-1.255357999999999
 20
0.302594
  0
LWPOLYLINE
  5
763
330
1E
100
AcDbEntity
  8
LAYER_1
  6
Continuous
 62
     7
100
AcDbPolyline
 90
        4
 70
     0
 43
0.0
 10
-1.255357999999999
 20
0.302594
 10
-1.249592999999999
 20
0.299625
 10
-1.247469
 20
0.29853
 10
-1.247164999999999
 20
0.298374
  0
TEXT
  5
769
330
1E
100
AcDbEntity
  8
LAYER_1
 62
     7
100
AcDbText
 10
-3.47163
 20
0.418276
 30
0.0
 40
0.142448
  1
Crack hingeline
 41
0.6910127997890308
  7
SN1
 72
     5
 11
-2.285741999999999
 21
0.418276
 31
0.0
100
AcDbText
  0
TEXT
  5
76A
330
1E
100
AcDbEntity
  8
LAYER_1
 62
     7
100
AcDbText
 10
-3.447051
 20
-1.456719999999999
 30
0.0
 40
0.142448
  1
Trim overhangs
 41
0.6961451906560781
  7
SN1
 72
     5
 11
-2.252355
 21
-1.456719999999999
 31
0.0
100
AcDbText
  0
LWPOLYLINE
  5
76B
330
1E
100
AcDbEntity
  8
LAYER_1
  6
Continuous
 62
     7
100
AcDbPolyline
 90
        4
 70
     0
 43
0.0
 10
-1.843122
 20
-0.25611
 10
-1.842059999999999
 20
-0.257096
 10
-1.834624
 20
-0.263998
 10
-1.814441
 20
-0.282732
  0
LWPOLYLINE
  5
771
330
1E
100
AcDbEntity
  8
LAYER_1
  6
Continuous
 62
     7
100
AcDbPolyline
 90
        4
 70
     0
 43
0.0
 10
-1.814441
 20
-0.282732
 10
-1.776974
 20
-0.316716
 10
-1.724943
 20
-0.359344
 10
-1.662902
 20
-0.401512
  0
LWPOLYLINE
  5
777
330
1E
100
AcDbEntity
  8
LAYER_1
  6
Continuous
 62
     7
100
AcDbPolyline
 90
        4
 70
     0
 43
0.0
 10
-1.662902
 20
-0.401512
 10
-1.596300999999999
 20
-0.435724
 10
-1.534255999999999
 20
-0.46083
 10
-1.486776
 20
-0.477291
  0
LWPOLYLINE
  5
77D
330
1E
100
AcDbEntity
  8
LAYER_1
  6
Continuous
 62
     7
100
AcDbPolyline
 90
        4
 70
     0
 43
0.0
 10
-1.486776
 20
-0.477291
 10
-1.460827
 20
-0.4859410000000001
 10
-1.451267
 20
-0.4891270000000001
 10
-1.449901999999999
 20
-0.4895830000000001
  0
SOLID
  5
783
330
1E
100
AcDbEntity
  8
LAYER_1
  6
Continuous
 62
     7
100
AcDbTrace
 10
-1.548385999999999
 20
-0.415858
 30
0.0
 11
-1.428137999999999
 21
-0.4968460000000001
 31
0.0
 12
-1.548385999999999
 22
-0.415858
 32
0.0
 13
-1.572912999999999
 23
-0.4894840000000001
 33
0.0
  0
LWPOLYLINE
  5
784
330
1E
100
AcDbEntity
  8
LAYER_1
  6
Continuous
 62
     7
100
AcDbPolyline
 90
        3
 70
     1
 43
0.0
 10
-1.548385999999999
 20
-0.415858
 10
-1.428137999999999
 20
-0.4968460000000001
 10
-1.572912999999999
 20
-0.4894840000000001
  0
LWPOLYLINE
  5
789
330
1E
100
AcDbEntity
  8
LAYER_1
  6
Continuous
 62
     7
100
AcDbPolyline
 90
        3
 70
     0
 43
0.0
 10
-1.54511
 20
-0.425469
 10
-1.449913
 20
-0.4895830000000001
 10
-1.564538999999999
 20
-0.483748
  0
LWPOLYLINE
  5
78E
330
1E
100
AcDbEntity
  8
LAYER_1
  6
Continuous
 62
     7
100
AcDbPolyline
 90
        4
 70
     0
 43
0.0
 10
-0.6511930000000001
 20
-0.096374
 10
-0.651724
 20
-0.097436
 10
-0.655444
 20
-0.104867
 10
-0.665539
 20
-0.125039
  0
LWPOLYLINE
  5
794
330
1E
100
AcDbEntity
  8
LAYER_1
  6
Continuous
 62
     7
100
AcDbPolyline
 90
        4
 70
     0
 43
0.0
 10
-0.665539
 20
-0.125039
 10
-0.684955
 20
-0.162135
 10
-0.71575
 20
-0.211511
 10
-0.759748
 20
-0.266346
  0
LWPOLYLINE
  5
79A
330
1E
100
AcDbEntity
  8
LAYER_1
  6
Continuous
 62
     7
100
AcDbPolyline
 90
        4
 70
     0
 43
0.0
 10
-0.759748
 20
-0.266346
 10
-0.816252
 20
-0.320055
 10
-0.8745779999999999
 20
-0.366932
 10
-0.9215279999999999
 20
-0.401512
  0
LWPOLYLINE
  5
7A0
330
1E
100
AcDbEntity
  8
LAYER_1
  6
Continuous
 62
     7
100
AcDbPolyline
 90
        4
 70
     0
 43
0.0
 10
-0.9215279999999999
 20
-0.401512
 10
-0.9474759999999999
 20
-0.420249
 10
-0.957036
 20
-0.4271520000000001
 10
-0.958402
 20
-0.4281380000000001
  0
SOLID
  5
7A6
330
1E
100
AcDbEntity
  8
LAYER_1
  6
Continuous
 62
     7
100
AcDbTrace
 10
-0.8410549999999998
 20
-0.391248
 30
0.0
 11
-0.977012
 21
-0.441583
 31
0.0
 12
-0.8410549999999998
 22
-0.391248
 32
0.0
 13
-0.886484
 23
-0.328346
 33
0.0
  0
LWPOLYLINE
  5
7A7
330
1E
100
AcDbEntity
  8
LAYER_1
  6
Continuous
 62
     7
100
AcDbPolyline
 90
        3
 70
     1
 43
0.0
 10
-0.8410549999999998
 20
-0.391248
 10
-0.977012
 20
-0.441583
 10
-0.886484
 20
-0.328346
  0
LWPOLYLINE
  5
7AC
330
1E
100
AcDbEntity
  8
LAYER_1
  6
Continuous
 62
     7
100
AcDbPolyline
 90
        3
 70
     0
 43
0.0
 10
-0.850764
 20
-0.388291
 10
-0.958402
 20
-0.4281380000000001
 10
-0.8867319999999999
 20
-0.338484
  0
LWPOLYLINE
  5
7B1
330
1E
100
AcDbEntity
  8
LAYER_1
  6
Continuous
 62
     7
100
AcDbPolyline
 90
       12
 70
     0
 43
0.0
 10
-1.654193
 20
-3.399873999999999
 10
-1.350066999999999
 20
-3.429055
 10
-1.035193
 20
-3.462845999999999
 10
-0.7141770000000001
 20
-3.498176999999999
 10
-0.405457
 20
-3.530429
 10
-0.156622
 20
-3.56115
 10
0.066094
 20
-3.590330999999999
 10
0.122929
 20
-4.017330999999999
 10
-0.238028
 20
-4.031165
 10
-0.73415
 20
-4.048066999999999
 10
-1.201082999999999
 20
-4.064956999999999
 10
-1.655731999999999
 20
-4.077247999999999
  0
LWPOLYLINE
  5
7BF
330
1E
100
AcDbEntity
  8
LAYER_1
  6
Continuous
 62
     7
100
AcDbPolyline
 90
        2
 70
     0
 43
0.0
 10
0.067638
 20
-3.596483999999999
 10
0.122929
 20
-4.017345999999999
  0
LWPOLYLINE
  5
7C3
330
1E
100
AcDbEntity
  8
LAYER_1
  6
Continuous
 62
     7
100
AcDbPolyline
 90
       17
 70
     1
 43
0.0
 10
0.126205
 20
-4.067441
 10
-0.131122
 20
-4.12061
 10
-0.584291
 20
-4.212995999999999
 10
-1.157232
 20
-4.324933
 10
-1.771193
 20
-4.451908999999999
 10
-2.308622
 20
-4.552912999999999
 10
-2.646386
 20
-4.618708999999999
 10
-2.812511999999999
 20
-4.649558999999999
 10
-2.806554999999999
 20
-4.665664999999999
 10
-2.627886
 20
-4.652878
 10
-2.312902
 20
-4.634768
 10
-1.958874
 20
-4.608216999999999
 10
-1.597164999999999
 20
-4.589673
 10
-1.196412999999999
 20
-4.562676999999999
 10
-0.8330280000000001
 20
-4.536038999999999
 10
-0.382803
 20
-4.506558999999999
 10
0.059319
 20
-4.475389999999999
  0
LWPOLYLINE
  5
7D6
330
1E
100
AcDbEntity
  8
LAYER_1
  6
Continuous
 62
     7
100
AcDbPolyline
 90
        2
 70
     0
 43
0.0
 10
0.057539
 20
-4.474141999999999
 10
0.126469
 20
-4.068957
  0
TEXT
  5
7DA
330
1E
100
AcDbEntity
  8
LAYER_1
 62
     7
100
AcDbText
 10
-3.324173
 20
-3.226164999999999
 30
0.0
 40
0.142448
  1
Sand hingeline to soften hinge (optional)
 41
0.652287180657818
  7
SN1
 72
     5
 11
-0.244638
 21
-3.226164999999999
 31
0.0
100
AcDbText
  0
LWPOLYLINE
  5
7DB
330
1E
100
AcDbEntity
  8
LAYER_1
  6
Continuous
 62
     7
100
AcDbPolyline
 90
        4
 70
     0
 43
0.0
 10
0.073012
 20
-4.019374
 10
0.073301
 20
-4.019364
 10
0.075325
 20
-4.019295999999999
 10
0.080819
 20
-4.019109999999999
  0
LWPOLYLINE
  5
7E1
330
1E
100
AcDbEntity
  8
LAYER_1
  6
Continuous
 62
     7
100
AcDbPolyline
 90
        4
 70
     0
 43
0.0
 10
0.080819
 20
-4.019109999999999
 10
0.090741
 20
-4.018791
 10
0.102971
 20
-4.018413999999999
 10
0.11461
 20
-4.018094
  0
LWPOLYLINE
  5
7E7
330
1E
100
AcDbEntity
  8
LAYER_1
  6
Continuous
 62
     7
100
AcDbPolyline
 90
        4
 70
     0
 43
0.0
 10
0.11461
 20
-4.018094
 10
0.123423
 20
-4.017960999999999
 10
0.129938
 20
-4.018259999999999
 10
0.135346
 20
-4.019248
  0
LWPOLYLINE
  5
7ED
330
1E
100
AcDbEntity
  8
LAYER_1
  6
Continuous
 62
     7
100
AcDbPolyline
 90
        4
 70
     0
 43
0.0
 10
0.135346
 20
-4.019248
 10
0.140547
 20
-4.021147
 10
0.145291
 20
-4.024159
 10
0.149039
 20
-4.028457
  0
LWPOLYLINE
  5
7F3
330
1E
100
AcDbEntity
  8
LAYER_1
  6
Continuous
 62
     7
100
AcDbPolyline
 90
        4
 70
     0
 43
0.0
 10
0.149039
 20
-4.028457
 10
0.151332
 20
-4.034069999999999
 10
0.152035
 20
-4.040472
 10
0.151094
 20
-4.047012
  0
LWPOLYLINE
  5
7F9
330
1E
100
AcDbEntity
  8
LAYER_1
  6
Continuous
 62
     7
100
AcDbPolyline
 90
        4
 70
     0
 43
0.0
 10
0.151094
 20
-4.047012
 10
0.148537
 20
-4.053101999999999
 10
0.144813
 20
-4.058339
 10
0.140469
 20
-4.062374
  0
LWPOLYLINE
  5
7FF
330
1E
100
AcDbEntity
  8
LAYER_1
  6
Continuous
 62
     7
100
AcDbPolyline
 90
        4
 70
     0
 43
0.0
 10
0.140469
 20
-4.062374
 10
0.1358
 20
-4.065051
 10
0.130196
 20
-4.066873999999999
 10
0.122803
 20
-4.068527999999999
  0
LWPOLYLINE
  5
805
330
1E
100
AcDbEntity
  8
LAYER_1
  6
Continuous
 62
     7
100
AcDbPolyline
 90
        4
 70
     0
 43
0.0
 10
0.122803
 20
-4.068527999999999
 10
0.11328
 20
-4.070491
 10
0.103391
 20
-4.072519999999999
 10
0.095413
 20
-4.07415
  0
LWPOLYLINE
  5
80B
330
1E
100
AcDbEntity
  8
LAYER_1
  6
Continuous
 62
     7
100
AcDbPolyline
 90
        4
 70
     0
 43
0.0
 10
0.095413
 20
-4.07415
 10
0.090997
 20
-4.07505
 10
0.08937
 20
-4.075382
 10
0.089138
 20
-4.075428999999999
  0
SOLID
  5
811
330
1E
100
AcDbEntity
  8
LAYER_1
  6
Continuous
 62
   137
100
AcDbTrace
 10
0.150567
 20
-4.685208999999999
 30
0.0
 11
0.549917
 21
-4.685208999999999
 31
0.0
 12
0.150567
 22
-3.431849999999999
 32
0.0
 13
0.549917
 23
-3.431849999999999
 33
0.0
  0
LWPOLYLINE
  5
812
330
1E
100
AcDbEntity
  8
LAYER_1
  6
Continuous
 62
   137
100
AcDbPolyline
 90
        4
 70
     1
 43
0.0
 10
0.150567
 20
-4.685208999999999
 10
0.549917
 20
-4.685208999999999
 10
0.549917
 20
-3.431849999999999
 10
0.150567
 20
-3.431849999999999
  0
LWPOLYLINE
  5
818
330
1E
100
AcDbEntity
  8
LAYER_1
  6
Continuous
 62
     7
100
AcDbPolyline
 90
        4
 70
     1
 43
0.0
 10
0.150567
 20
-4.685208999999999
 10
0.549917
 20
-4.685208999999999
 10
0.549917
 20
-3.431849999999999
 10
0.150567
 20
-3.431849999999999
  0
LWPOLYLINE
  5
81E
330
1E
100
AcDbEntity
  8
LAYER_1
  6
Continuous
 62
     7
100
AcDbPolyline
 90
       12
 70
     0
 43
0.0
 10
-2.102692999999999
 20
-1.3785
 10
-1.798566999999999
 20
-1.407693
 10
-1.483704999999999
 20
-1.441483999999999
 10
-1.162676999999999
 20
-1.476803
 10
-0.8539569999999999
 20
-1.509066999999999
 10
-0.6051220000000001
 20
-1.539775999999999
 10
-0.382402
 20
-1.568969
 10
-0.325567
 20
-1.995968999999999
 10
-0.6865280000000001
 20
-2.009790999999999
 10
-1.182649999999999
 20
-2.026692999999999
 10
-1.649583
 20
-2.043583
 10
-2.104232
 20
-2.055874
  0
LWPOLYLINE
  5
82C
330
1E
100
AcDbEntity
  8
LAYER_1
  6
Continuous
 62
     7
100
AcDbPolyline
 90
        2
 70
     0
 43
0.0
 10
-0.380874
 20
-1.57511
 10
-0.325583
 20
-1.995968999999999
  0
LWPOLYLINE
  5
830
330
1E
100
AcDbEntity
  8
LAYER_1
  6
Continuous
 62
     7
100
AcDbPolyline
 90
       17
 70
     1
 43
0.0
 10
-0.322303
 20
-2.046083
 10
-0.579638
 20
-2.099247999999999
 10
-1.032803
 20
-2.191638
 10
-1.605731999999999
 20
-2.303566999999999
 10
-2.219692999999999
 20
-2.430539
 10
-2.757138
 20
-2.531538999999999
 10
-3.094898
 20
-2.597345999999999
 10
-3.261024
 20
-2.628193
 10
-3.255063
 20
-2.644302999999999
 10
-3.076397999999999
 20
-2.631511999999999
 10
-2.761413
 20
-2.613402
 10
-2.407374
 20
-2.586858
 10
-2.045676999999999
 20
-2.568302999999999
 10
-1.644913
 20
-2.541318999999999
 10
-1.281538999999999
 20
-2.514676999999999
 10
-0.8313029999999999
 20
-2.485193
 10
-0.389177
 20
-2.454028
  0
LWPOLYLINE
  5
843
330
1E
100
AcDbEntity
  8
LAYER_1
  6
Continuous
 62
     7
100
AcDbPolyline
 90
        2
 70
     0
 43
0.0
 10
-0.390957
 20
-2.452775999999999
 10
-0.322028
 20
-2.047593999999999
  0
LWPOLYLINE
  5
847
330
1E
100
AcDbEntity
  8
LAYER_1
  6
Continuous
 62
     7
100
AcDbPolyline
 90
        4
 70
     0
 43
0.0
 10
-0.3755
 20
-1.997983999999999
 10
-0.375211
 20
-1.997975
 10
-0.373187
 20
-1.997909999999999
 10
-0.367693
 20
-1.997732
  0
LWPOLYLINE
  5
84D
330
1E
100
AcDbEntity
  8
LAYER_1
  6
Continuous
 62
     7
100
AcDbPolyline
 90
        4
 70
     0
 43
0.0
 10
-0.367693
 20
-1.997732
 10
-0.3577599999999999
 20
-1.997415
 10
-0.34553
 20
-1.997038
 10
-0.333902
 20
-1.99672
  0
LWPOLYLINE
  5
853
330
1E
100
AcDbEntity
  8
LAYER_1
  6
Continuous
 62
     7
100
AcDbPolyline
 90
        4
 70
     0
 43
0.0
 10
-0.333902
 20
-1.99672
 10
-0.325078
 20
-1.996586999999999
 10
-0.318563
 20
-1.996882
 10
-0.313165
 20
-1.997858
  0
LWPOLYLINE
  5
859
330
1E
100
AcDbEntity
  8
LAYER_1
  6
Continuous
 62
     7
100
AcDbPolyline
 90
        4
 70
     0
 43
0.0
 10
-0.313165
 20
-1.997858
 10
-0.307963
 20
-1.999768999999999
 10
-0.303217
 20
-2.002784
 10
-0.299469
 20
-2.007083
  0
LWPOLYLINE
  5
85F
330
1E
100
AcDbEntity
  8
LAYER_1
  6
Continuous
 62
     7
100
AcDbPolyline
 90
        4
 70
     0
 43
0.0
 10
-0.299469
 20
-2.007083
 10
-0.297168
 20
-2.012696
 10
-0.296465
 20
-2.019098
 10
-0.297413
 20
-2.025638
  0
LWPOLYLINE
  5
865
330
1E
100
AcDbEntity
  8
LAYER_1
  6
Continuous
 62
     7
100
AcDbPolyline
 90
        4
 70
     0
 43
0.0
 10
-0.297413
 20
-2.025638
 10
-0.299971
 20
-2.031724999999999
 10
-0.303695
 20
-2.036958
 10
-0.308039
 20
-2.040999999999999
  0
LWPOLYLINE
  5
86B
330
1E
100
AcDbEntity
  8
LAYER_1
  6
Continuous
 62
     7
100
AcDbPolyline
 90
        4
 70
     0
 43
0.0
 10
-0.308039
 20
-2.040999999999999
 10
-0.312707
 20
-2.043677
 10
-0.318308
 20
-2.045498999999999
 10
-0.325705
 20
-2.047149999999999
  0
LWPOLYLINE
  5
871
330
1E
100
AcDbEntity
  8
LAYER_1
  6
Continuous
 62
     7
100
AcDbPolyline
 90
        4
 70
     0
 43
0.0
 10
-0.325705
 20
-2.047149999999999
 10
-0.33522
 20
-2.049115
 10
-0.345109
 20
-2.051143999999999
 10
-0.353094
 20
-2.052775999999999
  0
LWPOLYLINE
  5
877
330
1E
100
AcDbEntity
  8
LAYER_1
  6
Continuous
 62
     7
100
AcDbPolyline
 90
        4
 70
     0
 43
0.0
 10
-0.353094
 20
-2.052775999999999
 10
-0.357513
 20
-2.053675999999999
 10
-0.359141
 20
-2.054008
 10
-0.3593739999999999
 20
-2.054054999999999
  0
LWPOLYLINE
  5
87D
330
1E
100
AcDbEntity
  8
LAYER_1
  6
Continuous
 62
     7
100
AcDbPolyline
 90
        2
 70
     0
 43
0.0
 10
-0.4507640000000001
 20
-1.5595
 10
-0.251846
 20
-1.585609999999999
  0
LWPOLYLINE
  5
881
330
1E
100
AcDbEntity
  8
LAYER_1
  6
Continuous
 62
     7
100
AcDbPolyline
 90
        2
 70
     0
 43
0.0
 10
-0.465346
 20
-2.459583
 10
-0.264902
 20
-2.445764
  0
LWPOLYLINE
  5
885
330
1E
100
AcDbEntity
  8
LAYER_1
  6
DASHED
 62
     7
100
AcDbPolyline
 90
        2
 70
     0
 43
0.0
 10
-0.325567
 20
-1.8375
 10
-0.408512
 20
-1.235402
  0
LWPOLYLINE
  5
889
330
1E
100
AcDbEntity
  8
LAYER_1
  6
DASHED
 62
     7
100
AcDbPolyline
 90
        2
 70
     0
 43
0.0
 10
-0.337858
 20
-2.252219999999999
 10
-0.411594
 20
-2.694583
  0
ENDSEC
  0
SECTION
  2
OBJECTS
  0
DICTIONARY
  5
C
330
0
100
AcDbDictionary
281
     1
  3
ACAD_GROUP
350
D
  3
ACAD_LAYOUT
350
19
  3
ACAD_MLINESTYLE
350
16
  3
ACAD_PLOTSETTINGS
350
18
  3
ACAD_PLOTSTYLENAME
350
E
  0
DICTIONARY
  5
D
102
{ACAD_REACTORS
330
C
102
}
330
C
100
AcDbDictionary
281
     1
  0
DICTIONARY
  5
19
102
{ACAD_REACTORS
330
C
102
}
330
C
100
AcDbDictionary
281
     1
  3
Layout1
350
1D
  3
Model
350
21
  0
DICTIONARY
  5
16
102
{ACAD_REACTORS
330
C
102
}
330
C
100
AcDbDictionary
281
     1
  3
Standard
350
17
  0
DICTIONARY
  5
18
102
{ACAD_REACTORS
330
C
102
}
330
C
100
AcDbDictionary
281
     1
  0
ACDBDICTIONARYWDFLT
  5
E
102
{ACAD_REACTORS
330
C
102
}
330
C
100
AcDbDictionary
281
     1
  3
Normal
350
F
100
AcDbDictionaryWithDefault
340
F
  0
LAYOUT
  5
1D
102
{ACAD_REACTORS
330
19
102
}
330
19
100
AcDbPlotSettings
  1

  2
Epson FX-80
  4

  6

 40
0.0
 41
0.0
 42
0.0
 43
0.0
 44
0.0
 45
0.0
 46
0.0
 47
0.0
 48
0.0
 49
0.0
140
0.0
141
0.0
142
1.0
143
1.0
 70
   688
 72
     0
 73
     0
 74
     5
  7

 75
    16
147
1.0
148
0.0
149
0.0
100
AcDbLayout
  1
Layout1
 70
     1
 71
     1
 10
0.0
 20
0.0
 11
12.0
 21
9.0
 12
0.0
 22
0.0
 32
0.0
 14
1.000000000000000E+20
 24
1.000000000000000E+20
 34
1.000000000000000E+20
 15
-1.000000000000000E+20
 25
-1.000000000000000E+20
 35
-1.000000000000000E+20
146
0.0
 13
0.0
 23
0.0
 33
0.0
 16
1.0
 26
0.0
 36
0.0
 17
0.0
 27
1.0
 37
0.0
 76
     0
330
1A
  0
LAYOUT
  5
21
102
{ACAD_REACTORS
330
19
102
}
330
19
100
AcDbPlotSettings
  1

  2
Epson FX-80
  4

  6

 40
0.0
 41
0.0
 42
0.0
 43
0.0
 44
0.0
 45
0.0
 46
0.0
 47
0.0
 48
0.0
 49
0.0
140
0.0
141
0.0
142
1.0
143
1.0
 70
  1712
 72
     0
 73
     0
 74
     0
  7

 75
     0
147
1.0
148
0.0
149
0.0
100
AcDbLayout
  1
Model
 70
     1
 71
     0
 10
0.0
 20
0.0
 11
12.0
 21
9.0
 12
0.0
 22
0.0
 32
0.0
 14
0.0
 24
0.0
 34
0.0
 15
0.0
 25
0.0
 35
0.0
146
0.0
 13
0.0
 23
0.0
 33
0.0
 16
1.0
 26
0.0
 36
0.0
 17
0.0
 27
1.0
 37
0.0
 76
     0
330
1E
  0
MLINESTYLE
  5
17
102
{ACAD_REACTORS
330
16
102
}
330
16
100
AcDbMlineStyle
  2
STANDARD
 70
     0
  3

 62
   256
 51
90.0
 52
90.0
 71
     2
 49
0.5
 62
   256
  6
BYLAYER
 49
-0.5
 62
   256
  6
BYLAYER
  0
ACDBPLACEHOLDER
  5
F
102
{ACAD_REACTORS
330
E
102
}
330
E
  0
ENDSEC
  0
EOF
