  0
SECTION
  2
HEADER
  9
$ACADVER
  1
AC1014
  9
$ACADMAINTVER
 70
     9
  9
$DWGCODEPAGE
  3
ANSI_1252
  9
$INSBASE
 10
0.0
 20
0.0
 30
0.0
  9
$EXTMIN
 10
-3.917369999999999
 20
-4.939254867270895
 30
0.0
  9
$EXTMAX
 10
3.862761829207689
 20
4.87505218103095
 30
0.0
  9
$LIMMIN
 10
0.0
 20
0.0
  9
$LIMMAX
 10
12.0
 20
9.0
  9
$ORTHOMODE
 70
     0
  9
$REGENMODE
 70
     1
  9
$FILLMODE
 70
     1
  9
$QTEXTMODE
 70
     0
  9
$MIRRTEXT
 70
     1
  9
$DRAGMODE
 70
     2
  9
$LTSCALE
 40
0.000394
  9
$OSMODE
 70
    37
  9
$ATTMODE
 70
     1
  9
$TEXTSIZE
 40
0.2
  9
$TRACEWID
 40
0.05
  9
$TEXTSTYLE
  7
STANDARD
  9
$CLAYER
  8
0
  9
$CELTYPE
  6
CONTINUOUS
  9
$CECOLOR
 62
   256
  9
$CELTSCALE
 40
1.0
  9
$DELOBJ
 70
     1
  9
$DISPSILH
 70
     0
  9
$DIMSCALE
 40
1.0
  9
$DIMASZ
 40
0.18
  9
$DIMEXO
 40
0.0625
  9
$DIMDLI
 40
0.38
  9
$DIMRND
 40
0.0
  9
$DIMDLE
 40
0.0
  9
$DIMEXE
 40
0.18
  9
$DIMTP
 40
0.0
  9
$DIMTM
 40
0.0
  9
$DIMTXT
 40
0.18
  9
$DIMCEN
 40
0.09
  9
$DIMTSZ
 40
0.0
  9
$DIMTOL
 70
     0
  9
$DIMLIM
 70
     0
  9
$DIMTIH
 70
     1
  9
$DIMTOH
 70
     1
  9
$DIMSE1
 70
     0
  9
$DIMSE2
 70
     0
  9
$DIMTAD
 70
     0
  9
$DIMZIN
 70
     0
  9
$DIMBLK
  1

  9
$DIMASO
 70
     1
  9
$DIMSHO
 70
     1
  9
$DIMPOST
  1

  9
$DIMAPOST
  1

  9
$DIMALT
 70
     0
  9
$DIMALTD
 70
     2
  9
$DIMALTF
 40
25.4
  9
$DIMLFAC
 40
1.0
  9
$DIMTOFL
 70
     0
  9
$DIMTVP
 40
0.0
  9
$DIMTIX
 70
     0
  9
$DIMSOXD
 70
     0
  9
$DIMSAH
 70
     0
  9
$DIMBLK1
  1

  9
$DIMBLK2
  1

  9
$DIMSTYLE
  2
STANDARD
  9
$DIMCLRD
 70
     0
  9
$DIMCLRE
 70
     0
  9
$DIMCLRT
 70
     0
  9
$DIMTFAC
 40
1.0
  9
$DIMGAP
 40
0.09
  9
$DIMJUST
 70
     0
  9
$DIMSD1
 70
     0
  9
$DIMSD2
 70
     0
  9
$DIMTOLJ
 70
     1
  9
$DIMTZIN
 70
     0
  9
$DIMALTZ
 70
     0
  9
$DIMALTTZ
 70
     0
  9
$DIMFIT
 70
     3
  9
$DIMUPT
 70
     0
  9
$DIMUNIT
 70
     2
  9
$DIMDEC
 70
     4
  9
$DIMTDEC
 70
     4
  9
$DIMALTU
 70
     2
  9
$DIMALTTD
 70
     2
  9
$DIMTXSTY
  7
STANDARD
  9
$DIMAUNIT
 70
     0
  9
$LUNITS
 70
     2
  9
$LUPREC
 70
     4
  9
$SKETCHINC
 40
0.1
  9
$FILLETRAD
 40
0.0
  9
$AUNITS
 70
     0
  9
$AUPREC
 70
     0
  9
$MENU
  1
.
  9
$ELEVATION
 40
0.0
  9
$PELEVATION
 40
0.0
  9
$THICKNESS
 40
0.0
  9
$LIMCHECK
 70
     0
  9
$BLIPMODE
 70
     0
  9
$CHAMFERA
 40
0.0
  9
$CHAMFERB
 40
0.0
  9
$CHAMFERC
 40
0.0
  9
$CHAMFERD
 40
0.0
  9
$SKPOLY
 70
     0
  9
$TDCREATE
 40
2453215.871095856
  9
$TDUPDATE
 40
2453215.876089374
  9
$TDINDWG
 40
0.0049945602
  9
$TDUSRTIMER
 40
0.0049945602
  9
$USRTIMER
 70
     1
  9
$ANGBASE
 50
0.0
  9
$ANGDIR
 70
     0
  9
$PDMODE
 70
    35
  9
$PDSIZE
 40
0.000315
  9
$PLINEWID
 40
0.0
  9
$COORDS
 70
     1
  9
$SPLFRAME
 70
     0
  9
$SPLINETYPE
 70
     6
  9
$SPLINESEGS
 70
     8
  9
$ATTDIA
 70
     0
  9
$ATTREQ
 70
     1
  9
$HANDLING
 70
-16383
  9
$HANDSEED
  5
EF8
  9
$SURFTAB1
 70
     6
  9
$SURFTAB2
 70
     6
  9
$SURFTYPE
 70
     6
  9
$SURFU
 70
     6
  9
$SURFV
 70
     6
  9
$UCSNAME
  2

  9
$UCSORG
 10
0.0
 20
0.0
 30
0.0
  9
$UCSXDIR
 10
1.0
 20
0.0
 30
0.0
  9
$UCSYDIR
 10
0.0
 20
1.0
 30
0.0
  9
$PUCSNAME
  2

  9
$PUCSORG
 10
0.0
 20
0.0
 30
0.0
  9
$PUCSXDIR
 10
1.0
 20
0.0
 30
0.0
  9
$PUCSYDIR
 10
0.0
 20
1.0
 30
0.0
  9
$USERI1
 70
     0
  9
$USERI2
 70
     0
  9
$USERI3
 70
     0
  9
$USERI4
 70
     0
  9
$USERI5
 70
     0
  9
$USERR1
 40
0.0
  9
$USERR2
 40
0.0
  9
$USERR3
 40
0.0
  9
$USERR4
 40
0.0
  9
$USERR5
 40
0.0
  9
$WORLDVIEW
 70
     1
  9
$SHADEDGE
 70
     3
  9
$SHADEDIF
 70
    70
  9
$TILEMODE
 70
     1
  9
$MAXACTVP
 70
    64
  9
$PINSBASE
 10
0.0
 20
0.0
 30
0.0
  9
$PLIMCHECK
 70
     0
  9
$PEXTMIN
 10
1.000000000000000E+20
 20
1.000000000000000E+20
 30
1.000000000000000E+20
  9
$PEXTMAX
 10
-1.000000000000000E+20
 20
-1.000000000000000E+20
 30
-1.000000000000000E+20
  9
$PLIMMIN
 10
0.0
 20
0.0
  9
$PLIMMAX
 10
12.0
 20
9.0
  9
$UNITMODE
 70
     0
  9
$VISRETAIN
 70
     1
  9
$PLINEGEN
 70
     0
  9
$PSLTSCALE
 70
     1
  9
$TREEDEPTH
 70
  3020
  9
$PICKSTYLE
 70
     0
  9
$CMLSTYLE
  2
STANDARD
  9
$CMLJUST
 70
     0
  9
$CMLSCALE
 40
1.0
  9
$PROXYGRAPHICS
 70
     1
  9
$MEASUREMENT
 70
     0
  0
ENDSEC
  0
SECTION
  2
CLASSES
  0
CLASS
  1
ACDBDICTIONARYWDFLT
  2
AcDbDictionaryWithDefault
  3
AutoCAD 2000
 90
        0
280
     0
281
     0
  0
CLASS
  1
ACDBPLACEHOLDER
  2
AcDbPlaceHolder
  3
AutoCAD 2000
 90
        0
280
     0
281
     0
  0
CLASS
  1
LAYOUT
  2
AcDbLayout
  3
AutoCAD 2000
 90
        0
280
     0
281
     0
  0
CLASS
  1
LONG_TRANSACTION
  2
AcDbLongTransaction
  3
AutoCAD 2000
 90
        0
280
     0
281
     0
  0
CLASS
  1
LWPOLYLINE
  2
AcDbPolyline
  3
AutoCAD 2000
 90
        0
280
     0
281
     1
  0
CLASS
  1
HATCH
  2
AcDbHatch
  3
AutoCAD 2000
 90
        0
280
     0
281
     1
  0
CLASS
  1
XRECORD
  2
AcDbXrecord
  3
AutoCAD 2000
 90
        0
280
     0
281
     0
  0
ENDSEC
  0
SECTION
  2
TABLES
  0
TABLE
  2
VPORT
  5
8
330
0
100
AcDbSymbolTable
 70
     2
  0
VPORT
  5
ED3
330
8
100
AcDbSymbolTableRecord
100
AcDbViewportTableRecord
  2
*ACTIVE
 70
     0
 10
0.0
 20
0.0
 11
1.0
 21
1.0
 12
1.479819039636899
 22
-1.263679874359223
 13
0.0
 23
0.0
 14
1.0
 24
1.0
 15
0.0
 25
0.0
 16
0.0
 26
0.0
 36
1.0
 17
0.0
 27
0.0
 37
0.0
 40
17.83122900167449
 41
1.760330578512396
 42
50.0
 43
0.0
 44
0.0
 50
0.0
 51
0.0
 71
     0
 72
   100
 73
     1
 74
     1
 75
     0
 76
     0
 77
     0
 78
     0
  0
ENDTAB
  0
TABLE
  2
LTYPE
  5
5
330
0
100
AcDbSymbolTable
 70
    10
  0
LTYPE
  5
13
330
5
100
AcDbSymbolTableRecord
100
AcDbLinetypeTableRecord
  2
BYBLOCK
 70
     0
  3

 72
    65
 73
     0
 40
0.0
  0
LTYPE
  5
14
330
5
100
AcDbSymbolTableRecord
100
AcDbLinetypeTableRecord
  2
BYLAYER
 70
     0
  3

 72
    65
 73
     0
 40
0.0
  0
LTYPE
  5
15
330
5
100
AcDbSymbolTableRecord
100
AcDbLinetypeTableRecord
  2
CONTINUOUS
 70
     0
  3
Solid line
 72
    65
 73
     0
 40
0.0
  0
LTYPE
  5
22
330
5
100
AcDbSymbolTableRecord
100
AcDbLinetypeTableRecord
  2
DASHED
 70
     0
  3
__ __ __ __ __ __ __ __ __ __ __ __ __ __ __
 72
    65
 73
     2
 40
0.000003
 49
0.000002
 74
     0
 49
-0.000001
 74
     0
  0
LTYPE
  5
23
330
5
100
AcDbSymbolTableRecord
100
AcDbLinetypeTableRecord
  2
HIDDEN
 70
     0
  3
 _ _ _ _ _ _ _ _ _ _ _ _ _ _ _ _ _ _ _ _ _ _
 72
    65
 73
     2
 40
0.000001
 49
0.000001
 74
     0
 49
0.0
 74
     0
  0
LTYPE
  5
24
330
5
100
AcDbSymbolTableRecord
100
AcDbLinetypeTableRecord
  2
CENTER
 70
     0
  3
____ _ ____ _ ____ _ ____ _ ____ _ ____ _ ____
 72
    65
 73
     4
 40
0.000008
 49
0.000005
 74
     0
 49
-0.000001
 74
     0
 49
0.000001
 74
     0
 49
-0.000001
 74
     0
  0
LTYPE
  5
25
330
5
100
AcDbSymbolTableRecord
100
AcDbLinetypeTableRecord
  2
PHANTOM
 70
     0
  3
_____ _ _ _____ _ _ _____ _ _ _____ _ _ ____
 72
    65
 73
     6
 40
0.00001
 49
0.000005
 74
     0
 49
-0.000001
 74
     0
 49
0.000001
 74
     0
 49
-0.000001
 74
     0
 49
0.000001
 74
     0
 49
-0.000001
 74
     0
  0
LTYPE
  5
26
330
5
100
AcDbSymbolTableRecord
100
AcDbLinetypeTableRecord
  2
DOT
 70
     0
  3
...............................................
 72
    65
 73
     2
 40
0.000001
 49
0.0
 74
     0
 49
-0.000001
 74
     0
  0
LTYPE
  5
27
330
5
100
AcDbSymbolTableRecord
100
AcDbLinetypeTableRecord
  2
DASHDOT
 70
     0
  3
__ . __ . __ . __ . __ . __ . __ . __ . __ . __
 72
    65
 73
     4
 40
0.000004
 49
0.000002
 74
     0
 49
-0.000001
 74
     0
 49
0.0
 74
     0
 49
-0.000001
 74
     0
  0
LTYPE
  5
28
330
5
100
AcDbSymbolTableRecord
100
AcDbLinetypeTableRecord
  2
BORDER
 70
     0
  3
__ __ . __ __ . __ __ . __ __ . __ __ . __ __
 72
    65
 73
     6
 40
0.000007
 49
0.000002
 74
     0
 49
-0.000001
 74
     0
 49
0.000002
 74
     0
 49
-0.000001
 74
     0
 49
0.0
 74
     0
 49
-0.000001
 74
     0
  0
LTYPE
  5
29
330
5
100
AcDbSymbolTableRecord
100
AcDbLinetypeTableRecord
  2
DIVIDE
 70
     0
  3
__ . . __ . . __ . . __ . . __ . . __ . . __
 72
    65
 73
     6
 40
0.000005
 49
0.000002
 74
     0
 49
-0.000001
 74
     0
 49
0.0
 74
     0
 49
-0.000001
 74
     0
 49
0.0
 74
     0
 49
-0.000001
 74
     0
  0
LTYPE
  5
2A
330
5
100
AcDbSymbolTableRecord
100
AcDbLinetypeTableRecord
  2
DOTDOT
 70
     0
  3
 . .  . .  . .  . .  . .  . . 
 72
    65
 73
     5
 40
0.000002
 49
-0.000001
 74
     0
 49
0.0
 74
     0
 49
-0.000001
 74
     0
 49
0.0
 74
     0
 49
-0.000001
 74
     0
  0
ENDTAB
  0
TABLE
  2
LAYER
  5
2
330
0
100
AcDbSymbolTable
 70
     4
  0
LAYER
  5
10
330
2
100
AcDbSymbolTableRecord
100
AcDbLayerTableRecord
  2
0
 70
     0
 62
     7
  6
CONTINUOUS
  0
LAYER
  5
2F
330
2
100
AcDbSymbolTableRecord
100
AcDbLayerTableRecord
  2
FOREGROUND
 70
     0
 62
     7
  6
CONTINUOUS
  0
LAYER
  5
30
330
2
100
AcDbSymbolTableRecord
100
AcDbLayerTableRecord
  2
BACKGROUND
 70
     1
 62
    -7
  6
CONTINUOUS
  0
LAYER
  5
31
330
2
100
AcDbSymbolTableRecord
100
AcDbLayerTableRecord
  2
LAYER_1
 70
     0
 62
     7
  6
CONTINUOUS
  0
ENDTAB
  0
TABLE
  2
STYLE
  5
3
330
0
100
AcDbSymbolTable
 70
     5
  0
STYLE
  5
11
330
3
100
AcDbSymbolTableRecord
100
AcDbTextStyleTableRecord
  2
STANDARD
 70
     0
 40
0.0
 41
1.0
 50
0.0
 71
     0
 42
0.2
  3
txt
  4

  0
STYLE
  5
2B
330
3
100
AcDbSymbolTableRecord
100
AcDbTextStyleTableRecord
  2
SN0
 70
     0
 40
0.0
 41
0.000004
 50
0.0
 71
     0
 42
0.0
  3
ROMAND
  4

  0
STYLE
  5
2C
330
3
100
AcDbSymbolTableRecord
100
AcDbTextStyleTableRecord
  2
SV0
 70
     4
 40
0.0
 41
0.000004
 50
0.0
 71
     0
 42
0.0
  3
ROMAND
  4

  0
STYLE
  5
2D
330
3
100
AcDbSymbolTableRecord
100
AcDbTextStyleTableRecord
  2
SN1
 70
     0
 40
0.0
 41
0.000004
 50
0.0
 71
     0
 42
0.0
  3
ROMAND
  4

  0
STYLE
  5
2E
330
3
100
AcDbSymbolTableRecord
100
AcDbTextStyleTableRecord
  2
SV1
 70
     4
 40
0.0
 41
0.000004
 50
0.0
 71
     0
 42
0.0
  3
ROMAND
  4

  0
ENDTAB
  0
TABLE
  2
VIEW
  5
6
330
0
100
AcDbSymbolTable
 70
     0
  0
ENDTAB
  0
TABLE
  2
UCS
  5
7
330
0
100
AcDbSymbolTable
 70
     0
  0
ENDTAB
  0
TABLE
  2
APPID
  5
9
330
0
100
AcDbSymbolTable
 70
     1
  0
APPID
  5
12
330
9
100
AcDbSymbolTableRecord
100
AcDbRegAppTableRecord
  2
ACAD
 70
     0
  0
ENDTAB
  0
TABLE
  2
DIMSTYLE
  5
A
330
0
100
AcDbSymbolTable
 70
     1
  0
DIMSTYLE
105
ED1
330
A
100
AcDbSymbolTableRecord
100
AcDbDimStyleTableRecord
  2
STANDARD
 70
     0
  3

  4

  5

  6

  7

 40
1.0
 41
0.18
 42
0.0625
 43
0.38
 44
0.18
 45
0.0
 46
0.0
 47
0.0
 48
0.0
140
0.18
141
0.09
142
0.0
143
25.4
144
1.0
145
0.0
146
1.0
147
0.09
 71
     0
 72
     0
 73
     1
 74
     1
 75
     0
 76
     0
 77
     0
 78
     0
170
     0
171
     2
172
     0
173
     0
174
     0
175
     0
176
     0
177
     0
178
     0
270
     2
271
     4
272
     4
273
     2
274
     2
340
11
275
     0
280
     0
281
     0
282
     0
283
     1
284
     0
285
     0
286
     0
287
     3
288
     0
  0
ENDTAB
  0
TABLE
  2
BLOCK_RECORD
  5
1
330
0
100
AcDbSymbolTable
 70
     0
  0
BLOCK_RECORD
  5
1E
102
{ACAD_XDICTIONARY
360
EF6
102
}
330
1
100
AcDbSymbolTableRecord
100
AcDbBlockTableRecord
  2
*MODEL_SPACE
  0
BLOCK_RECORD
  5
1A
102
{ACAD_XDICTIONARY
360
EF4
102
}
330
1
100
AcDbSymbolTableRecord
100
AcDbBlockTableRecord
  2
*PAPER_SPACE
  0
ENDTAB
  0
ENDSEC
  0
SECTION
  2
BLOCKS
  0
BLOCK
  5
1F
330
1E
100
AcDbEntity
  8
0
100
AcDbBlockBegin
  2
*MODEL_SPACE
 70
     0
 10
0.0
 20
0.0
 30
0.0
  3
*MODEL_SPACE
  1

  0
ENDBLK
  5
20
330
1E
100
AcDbEntity
  8
0
100
AcDbBlockEnd
  0
BLOCK
  5
1B
330
1A
100
AcDbEntity
 67
     1
  8
0
100
AcDbBlockBegin
  2
*PAPER_SPACE
 70
     0
 10
0.0
 20
0.0
 30
0.0
  3
*PAPER_SPACE
  1

  0
ENDBLK
  5
1C
330
1A
100
AcDbEntity
 67
     1
  8
0
100
AcDbBlockEnd
  0
ENDSEC
  0
SECTION
  2
ENTITIES
  0
LWPOLYLINE
  5
35
330
1E
100
AcDbEntity
  8
LAYER_1
  6
CONTINUOUS
 62
     7
100
AcDbPolyline
 90
        4
 70
     1
 43
0.0
 10
-3.256034999999999
 20
-3.006499999999999
 10
-3.107272
 20
-3.006499999999999
 10
-3.107272
 20
-2.851090999999999
 10
-3.256034999999999
 20
-2.851090999999999
  0
LWPOLYLINE
  5
3B
330
1E
100
AcDbEntity
  8
LAYER_1
  6
CONTINUOUS
 62
     7
100
AcDbPolyline
 90
        4
 70
     1
 43
0.0
 10
-3.265232
 20
-2.827429
 10
-3.168861999999999
 20
-2.827429
 10
-3.168861999999999
 20
-2.816902
 10
-3.265232
 20
-2.816902
  0
LWPOLYLINE
  5
41
330
1E
100
AcDbEntity
  8
LAYER_1
  6
CONTINUOUS
 62
     7
100
AcDbPolyline
 90
        4
 70
     1
 43
0.0
 10
-3.233283
 20
-2.835093999999999
 10
-3.200457
 20
-2.835093999999999
 10
-3.200457
 20
-2.818503999999999
 10
-3.233283
 20
-2.818503999999999
  0
LWPOLYLINE
  5
47
330
1E
100
AcDbEntity
  8
LAYER_1
  6
CONTINUOUS
 62
     7
100
AcDbPolyline
 90
        2
 70
     0
 43
0.0
 10
-3.253397999999999
 20
-2.805441
 10
-3.253397999999999
 20
-2.838621999999999
  0
LWPOLYLINE
  5
4B
330
1E
100
AcDbEntity
  8
LAYER_1
  6
CONTINUOUS
 62
     7
100
AcDbPolyline
 90
        4
 70
     0
 43
0.0
 10
-3.228787
 20
-2.816732
 10
-3.228787
 20
-2.809468999999999
 10
-3.204593999999999
 20
-2.809468999999999
 10
-3.204593999999999
 20
-2.816385999999999
  0
LWPOLYLINE
  5
51
330
1E
100
AcDbEntity
  8
LAYER_1
  6
CONTINUOUS
 62
     7
100
AcDbPolyline
 90
        2
 70
     0
 43
0.0
 10
-3.217054999999999
 20
-2.785819
 10
-3.217054999999999
 20
-2.966902
  0
LWPOLYLINE
  5
55
330
1E
100
AcDbEntity
  8
LAYER_1
  6
CONTINUOUS
 62
     7
100
AcDbPolyline
 90
        4
 70
     1
 43
0.0
 10
3.258901999999999
 20
4.867066999999999
 10
3.258804999999999
 20
4.866327
 10
3.258131999999999
 20
4.861145999999999
 10
3.256302999999999
 20
4.847083
  0
LWPOLYLINE
  5
5B
330
1E
100
AcDbEntity
  8
LAYER_1
  6
CONTINUOUS
 62
     7
100
AcDbPolyline
 90
        4
 70
     1
 43
0.0
 10
3.256302999999999
 20
4.847083
 10
3.252809
 20
4.820337
 10
3.247399
 20
4.779694999999999
 10
3.239886
 20
4.724582999999999
  0
LWPOLYLINE
  5
61
330
1E
100
AcDbEntity
  8
LAYER_1
  6
CONTINUOUS
 62
     7
100
AcDbPolyline
 90
        4
 70
     1
 43
0.0
 10
3.239886
 20
4.724582999999999
 10
3.230249
 20
4.655189
 10
3.218987999999999
 20
4.574859
 10
3.206748
 20
4.487705
  0
LWPOLYLINE
  5
67
330
1E
100
AcDbEntity
  8
LAYER_1
  6
CONTINUOUS
 62
     7
100
AcDbPolyline
 90
        4
 70
     1
 43
0.0
 10
3.206748
 20
4.487705
 10
3.1941
 20
4.397292
 10
3.181229999999999
 20
4.304964
 10
3.168248
 20
4.211511999999999
  0
LWPOLYLINE
  5
6D
330
1E
100
AcDbEntity
  8
LAYER_1
  6
CONTINUOUS
 62
     7
100
AcDbPolyline
 90
        4
 70
     1
 43
0.0
 10
3.168248
 20
4.211511999999999
 10
3.155241999999999
 20
4.117621999999999
 10
3.142202999999999
 20
4.023518
 10
3.129093999999999
 20
3.929302999999999
  0
LWPOLYLINE
  5
73
330
1E
100
AcDbEntity
  8
LAYER_1
  6
CONTINUOUS
 62
     7
100
AcDbPolyline
 90
        4
 70
     1
 43
0.0
 10
3.129093999999999
 20
3.929302999999999
 10
3.115889
 20
3.835058999999999
 10
3.102648999999999
 20
3.740748
 10
3.089440999999999
 20
3.646291
  0
LWPOLYLINE
  5
79
330
1E
100
AcDbEntity
  8
LAYER_1
  6
CONTINUOUS
 62
     7
100
AcDbPolyline
 90
        4
 70
     1
 43
0.0
 10
3.089440999999999
 20
3.646291
 10
3.076341999999999
 20
3.551648
 10
3.063346
 20
3.456932
 10
3.050456999999999
 20
3.362291
  0
LWPOLYLINE
  5
7F
330
1E
100
AcDbEntity
  8
LAYER_1
  6
CONTINUOUS
 62
     7
100
AcDbPolyline
 90
        4
 70
     1
 43
0.0
 10
3.050456999999999
 20
3.362291
 10
3.037673999999999
 20
3.267825999999999
 10
3.024999999999999
 20
3.173470999999999
 10
3.012440999999999
 20
3.07911
  0
LWPOLYLINE
  5
85
330
1E
100
AcDbEntity
  8
LAYER_1
  6
CONTINUOUS
 62
     7
100
AcDbPolyline
 90
        4
 70
     1
 43
0.0
 10
3.012440999999999
 20
3.07911
 10
2.99999
 20
2.984676999999999
 10
2.987683
 20
2.890204999999999
 10
2.975554999999999
 20
2.795764
  0
LWPOLYLINE
  5
8B
330
1E
100
AcDbEntity
  8
LAYER_1
  6
CONTINUOUS
 62
     7
100
AcDbPolyline
 90
        4
 70
     1
 43
0.0
 10
2.975554999999999
 20
2.795764
 10
2.963636999999999
 20
2.70142
 10
2.951895999999999
 20
2.607147
 10
2.940302999999999
 20
2.512913
  0
LWPOLYLINE
  5
91
330
1E
100
AcDbEntity
  8
LAYER_1
  6
CONTINUOUS
 62
     7
100
AcDbPolyline
 90
        4
 70
     1
 43
0.0
 10
2.940302999999999
 20
2.512913
 10
2.928827999999999
 20
2.418686999999999
 10
2.917499
 20
2.324501999999999
 10
2.906346
 20
2.230386
  0
LWPOLYLINE
  5
97
330
1E
100
AcDbEntity
  8
LAYER_1
  6
CONTINUOUS
 62
     7
100
AcDbPolyline
 90
        4
 70
     1
 43
0.0
 10
2.906346
 20
2.230386
 10
2.89541
 20
2.136359
 10
2.884688
 20
2.042413999999999
 10
2.874176999999999
 20
1.948499999999999
  0
LWPOLYLINE
  5
9D
330
1E
100
AcDbEntity
  8
LAYER_1
  6
CONTINUOUS
 62
     7
100
AcDbPolyline
 90
        4
 70
     1
 43
0.0
 10
2.874176999999999
 20
1.948499999999999
 10
2.863885999999999
 20
1.854594999999999
 10
2.853813
 20
1.760688
 10
2.843956999999999
 20
1.666775999999999
  0
LWPOLYLINE
  5
A3
330
1E
100
AcDbEntity
  8
LAYER_1
  6
CONTINUOUS
 62
     7
100
AcDbPolyline
 90
        4
 70
     1
 43
0.0
 10
2.843956999999999
 20
1.666775999999999
 10
2.834322
 20
1.572867
 10
2.824943
 20
1.478920999999999
 10
2.815846
 20
1.384902
  0
LWPOLYLINE
  5
A9
330
1E
100
AcDbEntity
  8
LAYER_1
  6
CONTINUOUS
 62
     7
100
AcDbPolyline
 90
        4
 70
     1
 43
0.0
 10
2.815846
 20
1.384902
 10
2.807064
 20
1.290781999999999
 10
2.798531999999999
 20
1.196593
 10
2.790176999999999
 20
1.102373999999999
  0
LWPOLYLINE
  5
AF
330
1E
100
AcDbEntity
  8
LAYER_1
  6
CONTINUOUS
 62
     7
100
AcDbPolyline
 90
        4
 70
     1
 43
0.0
 10
2.790176999999999
 20
1.102373999999999
 10
2.781963999999999
 20
1.008140999999999
 10
2.773925999999999
 20
0.9139099999999999
 10
2.766138
 20
0.819677
  0
LWPOLYLINE
  5
B5
330
1E
100
AcDbEntity
  8
LAYER_1
  6
CONTINUOUS
 62
     7
100
AcDbPolyline
 90
        4
 70
     1
 43
0.0
 10
2.766138
 20
0.819677
 10
2.758659
 20
0.7254450000000001
 10
2.751468999999999
 20
0.6312160000000001
 10
2.744527999999999
 20
0.536984
  0
LWPOLYLINE
  5
BB
330
1E
100
AcDbEntity
  8
LAYER_1
  6
CONTINUOUS
 62
     7
100
AcDbPolyline
 90
        4
 70
     1
 43
0.0
 10
2.744527999999999
 20
0.536984
 10
2.737813
 20
0.4427520000000001
 10
2.731316
 20
0.348523
 10
2.725038999999999
 20
0.254291
  0
LWPOLYLINE
  5
C1
330
1E
100
AcDbEntity
  8
LAYER_1
  6
CONTINUOUS
 62
     7
100
AcDbPolyline
 90
        4
 70
     1
 43
0.0
 10
2.725038999999999
 20
0.254291
 10
2.718968999999999
 20
0.160056
 10
2.713118999999999
 20
0.065824
 10
2.707484
 20
-0.028402
  0
LWPOLYLINE
  5
C7
330
1E
100
AcDbEntity
  8
LAYER_1
  6
CONTINUOUS
 62
     7
100
AcDbPolyline
 90
        4
 70
     1
 43
0.0
 10
2.707484
 20
-0.028402
 10
2.702074
 20
-0.122634
 10
2.696919999999999
 20
-0.216862
 10
2.692054999999999
 20
-0.311094
  0
LWPOLYLINE
  5
CD
330
1E
100
AcDbEntity
  8
LAYER_1
  6
CONTINUOUS
 62
     7
100
AcDbPolyline
 90
        4
 70
     1
 43
0.0
 10
2.692054999999999
 20
-0.311094
 10
2.687504999999999
 20
-0.405321
 10
2.683279
 20
-0.499508
 10
2.679386
 20
-0.593622
  0
LWPOLYLINE
  5
D3
330
1E
100
AcDbEntity
  8
LAYER_1
  6
CONTINUOUS
 62
     7
100
AcDbPolyline
 90
        4
 70
     1
 43
0.0
 10
2.679386
 20
-0.593622
 10
2.675802999999999
 20
-0.687649
 10
2.672553999999999
 20
-0.7816380000000001
 10
2.669637999999999
 20
-0.8756649999999998
  0
LWPOLYLINE
  5
D9
330
1E
100
AcDbEntity
  8
LAYER_1
  6
CONTINUOUS
 62
     7
100
AcDbPolyline
 90
        4
 70
     0
 43
0.0
 10
2.669637999999999
 20
-0.8756649999999998
 10
2.667035999999999
 20
-0.9697700000000001
 10
2.664756999999999
 20
-1.063876999999999
 10
2.662802999999999
 20
-1.157874
  0
LWPOLYLINE
  5
DF
330
1E
100
AcDbEntity
  8
LAYER_1
  6
CONTINUOUS
 62
     7
100
AcDbPolyline
 90
        4
 70
     0
 43
0.0
 10
2.662802999999999
 20
-1.157874
 10
2.661184999999999
 20
-1.251687999999999
 10
2.659886
 20
-1.34535
 10
2.658913
 20
-1.438940999999999
  0
LWPOLYLINE
  5
E5
330
1E
100
AcDbEntity
  8
LAYER_1
  6
CONTINUOUS
 62
     7
100
AcDbPolyline
 90
        4
 70
     0
 43
0.0
 10
2.658913
 20
-1.438940999999999
 10
2.658265999999999
 20
-1.53252
 10
2.657983
 20
-1.626060999999999
 10
2.658093999999999
 20
-1.719527999999999
  0
LWPOLYLINE
  5
EB
330
1E
100
AcDbEntity
  8
LAYER_1
  6
CONTINUOUS
 62
     7
100
AcDbPolyline
 90
        4
 70
     0
 43
0.0
 10
2.658093999999999
 20
-1.719527999999999
 10
2.658641999999999
 20
-1.812893999999999
 10
2.659618999999999
 20
-1.90619
 10
2.661027999999999
 20
-1.999456999999999
  0
LWPOLYLINE
  5
F1
330
1E
100
AcDbEntity
  8
LAYER_1
  6
CONTINUOUS
 62
     7
100
AcDbPolyline
 90
        4
 70
     1
 43
0.0
 10
2.661027999999999
 20
-1.999456999999999
 10
2.662873999999999
 20
-2.092690999999999
 10
2.665191
 20
-2.185820999999999
 10
2.668012
 20
-2.278731999999999
  0
LWPOLYLINE
  5
F7
330
1E
100
AcDbEntity
  8
LAYER_1
  6
CONTINUOUS
 62
     7
100
AcDbPolyline
 90
        4
 70
     1
 43
0.0
 10
2.668012
 20
-2.278731999999999
 10
2.671368
 20
-2.371358
 10
2.675266999999999
 20
-2.463768999999999
 10
2.679704999999999
 20
-2.556066999999999
  0
LWPOLYLINE
  5
FD
330
1E
100
AcDbEntity
  8
LAYER_1
  6
CONTINUOUS
 62
     7
100
AcDbPolyline
 90
        4
 70
     1
 43
0.0
 10
2.679704999999999
 20
-2.556066999999999
 10
2.684691999999999
 20
-2.648331
 10
2.690259
 20
-2.74049
 10
2.696441
 20
-2.832429
  0
LWPOLYLINE
  5
103
330
1E
100
AcDbEntity
  8
LAYER_1
  6
CONTINUOUS
 62
     7
100
AcDbPolyline
 90
        4
 70
     1
 43
0.0
 10
2.696441
 20
-2.832429
 10
2.703265
 20
-2.924059
 10
2.710738
 20
-3.015365
 10
2.718857999999999
 20
-3.106345999999999
  0
LWPOLYLINE
  5
109
330
1E
100
AcDbEntity
  8
LAYER_1
  6
CONTINUOUS
 62
     7
100
AcDbPolyline
 90
        4
 70
     1
 43
0.0
 10
2.718857999999999
 20
-3.106345999999999
 10
2.727643
 20
-3.196991
 10
2.737152999999999
 20
-3.287237999999999
 10
2.747456999999999
 20
-3.377012
  0
LWPOLYLINE
  5
10F
330
1E
100
AcDbEntity
  8
LAYER_1
  6
CONTINUOUS
 62
     7
100
AcDbPolyline
 90
        4
 70
     1
 43
0.0
 10
2.747456999999999
 20
-3.377012
 10
2.758624
 20
-3.466261
 10
2.770731
 20
-3.55493
 10
2.783846
 20
-3.642983999999999
  0
LWPOLYLINE
  5
115
330
1E
100
AcDbEntity
  8
LAYER_1
  6
CONTINUOUS
 62
     7
100
AcDbPolyline
 90
        4
 70
     1
 43
0.0
 10
2.783846
 20
-3.642983999999999
 10
2.798038
 20
-3.730361
 10
2.813308999999999
 20
-3.816951999999999
 10
2.829665
 20
-3.902609999999999
  0
LWPOLYLINE
  5
11B
330
1E
100
AcDbEntity
  8
LAYER_1
  6
CONTINUOUS
 62
     7
100
AcDbPolyline
 90
        4
 70
     1
 43
0.0
 10
2.829665
 20
-3.902609999999999
 10
2.847118
 20
-3.987159999999999
 10
2.865764
 20
-4.070415
 10
2.885704999999999
 20
-4.152154
  0
LWPOLYLINE
  5
121
330
1E
100
AcDbEntity
  8
LAYER_1
  6
CONTINUOUS
 62
     7
100
AcDbPolyline
 90
        4
 70
     1
 43
0.0
 10
2.885704999999999
 20
-4.152154
 10
2.907019
 20
-4.23208
 10
2.929556
 20
-4.309587999999999
 10
2.953138
 20
-4.383992
  0
LWPOLYLINE
  5
127
330
1E
100
AcDbEntity
  8
LAYER_1
  6
CONTINUOUS
 62
     7
100
AcDbPolyline
 90
        4
 70
     1
 43
0.0
 10
2.953138
 20
-4.383992
 10
2.977541
 20
-4.454545999999999
 10
3.002381
 20
-4.520259999999999
 10
3.02722
 20
-4.580087
  0
LWPOLYLINE
  5
12D
330
1E
100
AcDbEntity
  8
LAYER_1
  6
CONTINUOUS
 62
     7
100
AcDbPolyline
 90
        4
 70
     1
 43
0.0
 10
3.02722
 20
-4.580087
 10
3.051622
 20
-4.63318
 10
3.075121999999999
 20
-4.679446999999999
 10
3.097248
 20
-4.719
  0
LWPOLYLINE
  5
133
330
1E
100
AcDbEntity
  8
LAYER_1
  6
CONTINUOUS
 62
     7
100
AcDbPolyline
 90
        4
 70
     1
 43
0.0
 10
3.097248
 20
-4.719
 10
3.117633
 20
-4.752070999999999
 10
3.136322999999999
 20
-4.779401999999999
 10
3.153456999999999
 20
-4.801858
  0
LWPOLYLINE
  5
139
330
1E
100
AcDbEntity
  8
LAYER_1
  6
CONTINUOUS
 62
     7
100
AcDbPolyline
 90
        4
 70
     1
 43
0.0
 10
3.153456999999999
 20
-4.801858
 10
3.169195999999999
 20
-4.820257999999999
 10
3.183704
 20
-4.835228999999999
 10
3.197165
 20
-4.847349999999999
  0
LWPOLYLINE
  5
13F
330
1E
100
AcDbEntity
  8
LAYER_1
  6
CONTINUOUS
 62
     7
100
AcDbPolyline
 90
        4
 70
     1
 43
0.0
 10
3.197165
 20
-4.847349999999999
 10
3.209754
 20
-4.857133
 10
3.221620999999999
 20
-4.864859
 10
3.232912999999999
 20
-4.870744
  0
LWPOLYLINE
  5
145
330
1E
100
AcDbEntity
  8
LAYER_1
  6
CONTINUOUS
 62
     7
100
AcDbPolyline
 90
        4
 70
     1
 43
0.0
 10
3.232912999999999
 20
-4.870744
 10
3.243759999999999
 20
-4.874943
 10
3.254281999999999
 20
-4.877373999999999
 10
3.264583
 20
-4.877894
  0
LWPOLYLINE
  5
14B
330
1E
100
AcDbEntity
  8
LAYER_1
  6
CONTINUOUS
 62
     7
100
AcDbPolyline
 90
        4
 70
     1
 43
0.0
 10
3.264583
 20
-4.877894
 10
3.274745
 20
-4.876370999999999
 10
3.284691999999999
 20
-4.872754
 10
3.294319
 20
-4.867008
  0
LWPOLYLINE
  5
151
330
1E
100
AcDbEntity
  8
LAYER_1
  6
CONTINUOUS
 62
     7
100
AcDbPolyline
 90
        4
 70
     1
 43
0.0
 10
3.294319
 20
-4.867008
 10
3.303544
 20
-4.859087
 10
3.312483999999999
 20
-4.84893
 10
3.321276
 20
-4.836460999999999
  0
LWPOLYLINE
  5
157
330
1E
100
AcDbEntity
  8
LAYER_1
  6
CONTINUOUS
 62
     7
100
AcDbPolyline
 90
        4
 70
     1
 43
0.0
 10
3.321276
 20
-4.836460999999999
 10
3.330071999999999
 20
-4.821524
 10
3.338972
 20
-4.803587
 10
3.348083
 20
-4.782034999999999
  0
LWPOLYLINE
  5
15D
330
1E
100
AcDbEntity
  8
LAYER_1
  6
CONTINUOUS
 62
     7
100
AcDbPolyline
 90
        4
 70
     1
 43
0.0
 10
3.348083
 20
-4.782034999999999
 10
3.357519999999999
 20
-4.756178
 10
3.367355999999999
 20
-4.724979
 10
3.377665
 20
-4.687319
  0
LWPOLYLINE
  5
163
330
1E
100
AcDbEntity
  8
LAYER_1
  6
CONTINUOUS
 62
     7
100
AcDbPolyline
 90
        4
 70
     1
 43
0.0
 10
3.377665
 20
-4.687319
 10
3.388421
 20
-4.642250999999999
 10
3.399287999999999
 20
-4.589526
 10
3.409830999999999
 20
-4.529074999999999
  0
LWPOLYLINE
  5
169
330
1E
100
AcDbEntity
  8
LAYER_1
  6
CONTINUOUS
 62
     7
100
AcDbPolyline
 90
        4
 70
     1
 43
0.0
 10
3.409830999999999
 20
-4.529074999999999
 10
3.419669999999999
 20
-4.461073999999999
 10
3.428641
 20
-4.386680999999999
 10
3.436637999999999
 20
-4.307306999999999
  0
LWPOLYLINE
  5
16F
330
1E
100
AcDbEntity
  8
LAYER_1
  6
CONTINUOUS
 62
     7
100
AcDbPolyline
 90
        4
 70
     1
 43
0.0
 10
3.436637999999999
 20
-4.307306999999999
 10
3.443575
 20
-4.224248999999999
 10
3.449465
 20
-4.138374999999999
 10
3.454345999999999
 20
-4.050441
  0
LWPOLYLINE
  5
175
330
1E
100
AcDbEntity
  8
LAYER_1
  6
CONTINUOUS
 62
     7
100
AcDbPolyline
 90
        4
 70
     1
 43
0.0
 10
3.454345999999999
 20
-4.050441
 10
3.458262
 20
-3.961120999999999
 10
3.461312
 20
-3.870720999999999
 10
3.463609999999999
 20
-3.779456999999999
  0
LWPOLYLINE
  5
17B
330
1E
100
AcDbEntity
  8
LAYER_1
  6
CONTINUOUS
 62
     7
100
AcDbPolyline
 90
        4
 70
     1
 43
0.0
 10
3.463609999999999
 20
-3.779456999999999
 10
3.465243
 20
-3.687512
 10
3.466301
 20
-3.59503
 10
3.466858
 20
-3.502121999999999
  0
LWPOLYLINE
  5
181
330
1E
100
AcDbEntity
  8
LAYER_1
  6
CONTINUOUS
 62
     7
100
AcDbPolyline
 90
        4
 70
     1
 43
0.0
 10
3.466858
 20
-3.502121999999999
 10
3.466969999999999
 20
-3.408863999999999
 10
3.466686
 20
-3.31528
 10
3.466038999999999
 20
-3.221373999999999
  0
LWPOLYLINE
  5
187
330
1E
100
AcDbEntity
  8
LAYER_1
  6
CONTINUOUS
 62
     7
100
AcDbPolyline
 90
        4
 70
     1
 43
0.0
 10
3.466038999999999
 20
-3.221373999999999
 10
3.465079
 20
-3.127159999999999
 10
3.463864
 20
-3.032729999999999
 10
3.462469
 20
-2.938193
  0
LWPOLYLINE
  5
18D
330
1E
100
AcDbEntity
  8
LAYER_1
  6
CONTINUOUS
 62
     7
100
AcDbPolyline
 90
        4
 70
     1
 43
0.0
 10
3.462469
 20
-2.938193
 10
3.460941
 20
-2.843626
 10
3.459226999999999
 20
-2.748987
 10
3.457263999999999
 20
-2.654205
  0
LWPOLYLINE
  5
193
330
1E
100
AcDbEntity
  8
LAYER_1
  6
CONTINUOUS
 62
     7
100
AcDbPolyline
 90
        4
 70
     1
 43
0.0
 10
3.457263999999999
 20
-2.654205
 10
3.455001
 20
-2.559222999999999
 10
3.452491
 20
-2.464097999999999
 10
3.449802999999999
 20
-2.368901999999999
  0
LWPOLYLINE
  5
199
330
1E
100
AcDbEntity
  8
LAYER_1
  6
CONTINUOUS
 62
     7
100
AcDbPolyline
 90
        4
 70
     1
 43
0.0
 10
3.449802999999999
 20
-2.368901999999999
 10
3.446991
 20
-2.273700999999999
 10
3.444108
 20
-2.178497
 10
3.441193
 20
-2.083291
  0
LWPOLYLINE
  5
19F
330
1E
100
AcDbEntity
  8
LAYER_1
  6
CONTINUOUS
 62
     7
100
AcDbPolyline
 90
        4
 70
     0
 43
0.0
 10
3.441193
 20
-2.083291
 10
3.438251
 20
-1.988084999999999
 10
3.435241
 20
-1.892878999999999
 10
3.432094
 20
-1.797665
  0
LWPOLYLINE
  5
1A5
330
1E
100
AcDbEntity
  8
LAYER_1
  6
CONTINUOUS
 62
     7
100
AcDbPolyline
 90
        4
 70
     0
 43
0.0
 10
3.432094
 20
-1.797665
 10
3.428748
 20
-1.702459999999999
 10
3.425255
 20
-1.607212
 10
3.421692999999999
 20
-1.511886
  0
LWPOLYLINE
  5
1AB
330
1E
100
AcDbEntity
  8
LAYER_1
  6
CONTINUOUS
 62
     7
100
AcDbPolyline
 90
        4
 70
     0
 43
0.0
 10
3.421692999999999
 20
-1.511886
 10
3.418108
 20
-1.41647
 10
3.414491
 20
-1.320937999999999
 10
3.410803
 20
-1.225290999999999
  0
LWPOLYLINE
  5
1B1
330
1E
100
AcDbEntity
  8
LAYER_1
  6
CONTINUOUS
 62
     7
100
AcDbPolyline
 90
        4
 70
     0
 43
0.0
 10
3.410803
 20
-1.225290999999999
 10
3.407017999999999
 20
-1.129562999999999
 10
3.403158999999999
 20
-1.033790999999999
 10
3.399264
 20
-0.9380549999999999
  0
LWPOLYLINE
  5
1B7
330
1E
100
AcDbEntity
  8
LAYER_1
  6
CONTINUOUS
 62
     7
100
AcDbPolyline
 90
        4
 70
     1
 43
0.0
 10
3.399264
 20
-0.9380549999999999
 10
3.395369
 20
-0.842408
 10
3.391469
 20
-0.7468370000000001
 10
3.387566999999999
 20
-0.651303
  0
LWPOLYLINE
  5
1BD
330
1E
100
AcDbEntity
  8
LAYER_1
  6
CONTINUOUS
 62
     7
100
AcDbPolyline
 90
        4
 70
     1
 43
0.0
 10
3.387566999999999
 20
-0.651303
 10
3.383673999999999
 20
-0.555769
 10
3.379774999999999
 20
-0.4601939999999999
 10
3.375873999999999
 20
-0.364539
  0
LWPOLYLINE
  5
1C3
330
1E
100
AcDbEntity
  8
LAYER_1
  6
CONTINUOUS
 62
     7
100
AcDbPolyline
 90
        4
 70
     1
 43
0.0
 10
3.375873999999999
 20
-0.364539
 10
3.371966999999999
 20
-0.2688
 10
3.368028999999999
 20
-0.172988
 10
3.364012
 20
-0.077138
  0
LWPOLYLINE
  5
1C9
330
1E
100
AcDbEntity
  8
LAYER_1
  6
CONTINUOUS
 62
     7
100
AcDbPolyline
 90
        4
 70
     1
 43
0.0
 10
3.364012
 20
-0.077138
 10
3.359904
 20
0.018704
 10
3.355717999999999
 20
0.114519
 10
3.3515
 20
0.210264
  0
LWPOLYLINE
  5
1CF
330
1E
100
AcDbEntity
  8
LAYER_1
  6
CONTINUOUS
 62
     7
100
AcDbPolyline
 90
        4
 70
     1
 43
0.0
 10
3.3515
 20
0.210264
 10
3.347283
 20
0.305914
 10
3.343104
 20
0.4015270000000001
 10
3.338999999999999
 20
0.4971770000000001
  0
LWPOLYLINE
  5
1D5
330
1E
100
AcDbEntity
  8
LAYER_1
  6
CONTINUOUS
 62
     7
100
AcDbPolyline
 90
        4
 70
     1
 43
0.0
 10
3.338999999999999
 20
0.4971770000000001
 10
3.334973
 20
0.5929190000000001
 10
3.330987
 20
0.6887310000000002
 10
3.326969
 20
0.7845830000000001
  0
LWPOLYLINE
  5
1DB
330
1E
100
AcDbEntity
  8
LAYER_1
  6
CONTINUOUS
 62
     7
100
AcDbPolyline
 90
        4
 70
     1
 43
0.0
 10
3.326969
 20
0.7845830000000001
 10
3.322866
 20
0.880433
 10
3.318724
 20
0.9762439999999999
 10
3.314621999999999
 20
1.071984
  0
LWPOLYLINE
  5
1E1
330
1E
100
AcDbEntity
  8
LAYER_1
  6
CONTINUOUS
 62
     7
100
AcDbPolyline
 90
        4
 70
     1
 43
0.0
 10
3.314621999999999
 20
1.071984
 10
3.310607
 20
1.167632
 10
3.306626
 20
1.263209999999999
 10
3.30261
 20
1.358748
  0
LWPOLYLINE
  5
1E7
330
1E
100
AcDbEntity
  8
LAYER_1
  6
CONTINUOUS
 62
     7
100
AcDbPolyline
 90
        4
 70
     1
 43
0.0
 10
3.30261
 20
1.358748
 10
3.298501
 20
1.454282
 10
3.294358
 20
1.549853
 10
3.290248
 20
1.6455
  0
LWPOLYLINE
  5
1ED
330
1E
100
AcDbEntity
  8
LAYER_1
  6
CONTINUOUS
 62
     7
100
AcDbPolyline
 90
        4
 70
     1
 43
0.0
 10
3.290248
 20
1.6455
 10
3.286244999999999
 20
1.741231
 10
3.282345999999999
 20
1.836961999999999
 10
3.278555
 20
1.932583
  0
LWPOLYLINE
  5
1F3
330
1E
100
AcDbEntity
  8
LAYER_1
  6
CONTINUOUS
 62
     7
100
AcDbPolyline
 90
        4
 70
     1
 43
0.0
 10
3.278555
 20
1.932583
 10
3.27488
 20
2.027906999999999
 10
3.271349999999999
 20
2.122438
 10
3.267999999999999
 20
2.215593999999999
  0
LWPOLYLINE
  5
1F9
330
1E
100
AcDbEntity
  8
LAYER_1
  6
CONTINUOUS
 62
     7
100
AcDbPolyline
 90
        4
 70
     1
 43
0.0
 10
3.267999999999999
 20
2.215593999999999
 10
3.264895
 20
2.307068999999999
 10
3.262225999999999
 20
2.397606999999999
 10
3.260205
 20
2.48822
  0
LWPOLYLINE
  5
1FF
330
1E
100
AcDbEntity
  8
LAYER_1
  6
CONTINUOUS
 62
     7
100
AcDbPolyline
 90
        4
 70
     1
 43
0.0
 10
3.260205
 20
2.48822
 10
3.25897
 20
2.579731999999999
 10
3.258345999999999
 20
2.672296999999999
 10
3.258083
 20
2.765874
  0
LWPOLYLINE
  5
205
330
1E
100
AcDbEntity
  8
LAYER_1
  6
CONTINUOUS
 62
     7
100
AcDbPolyline
 90
        4
 70
     1
 43
0.0
 10
3.258083
 20
2.765874
 10
3.257975
 20
2.860374
 10
3.257934999999999
 20
2.955524
 10
3.257929
 20
3.051
  0
LWPOLYLINE
  5
20B
330
1E
100
AcDbEntity
  8
LAYER_1
  6
CONTINUOUS
 62
     7
100
AcDbPolyline
 90
        4
 70
     1
 43
0.0
 10
3.257929
 20
3.051
 10
3.257929
 20
3.146536
 10
3.257929
 20
3.242065999999999
 10
3.257929
 20
3.337594
  0
LWPOLYLINE
  5
211
330
1E
100
AcDbEntity
  8
LAYER_1
  6
CONTINUOUS
 62
     7
100
AcDbPolyline
 90
        4
 70
     1
 43
0.0
 10
3.257929
 20
3.337594
 10
3.257934999999999
 20
3.433126
 10
3.257975
 20
3.528661
 10
3.258083
 20
3.624192999999999
  0
LWPOLYLINE
  5
217
330
1E
100
AcDbEntity
  8
LAYER_1
  6
CONTINUOUS
 62
     7
100
AcDbPolyline
 90
        4
 70
     1
 43
0.0
 10
3.258083
 20
3.624192999999999
 10
3.258303999999999
 20
3.719715
 10
3.258633
 20
3.815202999999999
 10
3.259066999999999
 20
3.910622
  0
LWPOLYLINE
  5
21D
330
1E
100
AcDbEntity
  8
LAYER_1
  6
CONTINUOUS
 62
     7
100
AcDbPolyline
 90
        4
 70
     1
 43
0.0
 10
3.259066999999999
 20
3.910622
 10
3.259609
 20
4.005931999999999
 10
3.260257
 20
4.101137
 10
3.261012
 20
4.196232
  0
LWPOLYLINE
  5
223
330
1E
100
AcDbEntity
  8
LAYER_1
  6
CONTINUOUS
 62
     7
100
AcDbPolyline
 90
        4
 70
     1
 43
0.0
 10
3.261012
 20
4.196232
 10
3.261875999999999
 20
4.291096999999999
 10
3.262808999999999
 20
4.385097
 10
3.263776
 20
4.477469
  0
LWPOLYLINE
  5
229
330
1E
100
AcDbEntity
  8
LAYER_1
  6
CONTINUOUS
 62
     7
100
AcDbPolyline
 90
        4
 70
     1
 43
0.0
 10
3.263776
 20
4.477469
 10
3.264742
 20
4.566850999999999
 10
3.265674999999999
 20
4.649446
 10
3.266538999999999
 20
4.720845999999999
  0
LWPOLYLINE
  5
22F
330
1E
100
AcDbEntity
  8
LAYER_1
  6
CONTINUOUS
 62
     7
100
AcDbPolyline
 90
        4
 70
     1
 43
0.0
 10
3.266538999999999
 20
4.720845999999999
 10
3.267288999999999
 20
4.77749
 10
3.267895
 20
4.819189999999999
 10
3.268318999999999
 20
4.846594
  0
LWPOLYLINE
  5
235
330
1E
100
AcDbEntity
  8
LAYER_1
  6
CONTINUOUS
 62
     7
100
AcDbPolyline
 90
        4
 70
     1
 43
0.0
 10
3.268318999999999
 20
4.846594
 10
3.268552
 20
4.861000999999999
 10
3.268637
 20
4.866308999999999
 10
3.26865
 20
4.867066999999999
  0
SOLID
  5
23B
330
1E
100
AcDbEntity
  8
LAYER_1
  6
CONTINUOUS
100
AcDbTrace
 10
2.904566999999999
 20
2.444665
 30
0.0
 11
2.959802999999999
 21
2.436583
 31
0.0
 12
2.908609999999999
 22
2.498555
 32
0.0
 13
2.967886
 23
2.489122
 33
0.0
  0
LWPOLYLINE
  5
23C
330
1E
100
AcDbEntity
  8
LAYER_1
  6
CONTINUOUS
100
AcDbPolyline
 90
        4
 70
     1
 43
0.0
 10
2.904566999999999
 20
2.444665
 10
2.959802999999999
 20
2.436583
 10
2.967886
 20
2.489122
 10
2.908609999999999
 20
2.498555
  0
LWPOLYLINE
  5
242
330
1E
100
AcDbEntity
  8
LAYER_1
  6
CONTINUOUS
 62
     7
100
AcDbPolyline
 90
        2
 70
     1
 43
0.0
 10
3.25872
 20
2.432331
 10
2.931331
 20
2.433676999999999
  0
LWPOLYLINE
  5
246
330
1E
100
AcDbEntity
  8
LAYER_1
  6
CONTINUOUS
 62
     7
100
AcDbPolyline
 90
        2
 70
     1
 43
0.0
 10
3.25872
 20
2.444456999999999
 10
2.939413
 20
2.499693
  0
LWPOLYLINE
  5
24A
330
1E
100
AcDbEntity
  8
LAYER_1
  6
CONTINUOUS
 62
     7
100
AcDbPolyline
 90
        4
 70
     1
 43
0.0
 10
1.720083
 20
4.114276
 10
1.719997
 20
4.113605999999999
 10
1.719395999999999
 20
4.108918
 10
1.717763999999999
 20
4.096193
  0
LWPOLYLINE
  5
250
330
1E
100
AcDbEntity
  8
LAYER_1
  6
CONTINUOUS
 62
     7
100
AcDbPolyline
 90
        4
 70
     1
 43
0.0
 10
1.717763999999999
 20
4.096193
 10
1.714636
 20
4.071994
 10
1.709853999999999
 20
4.035191999999999
 10
1.703318999999999
 20
3.985231999999999
  0
LWPOLYLINE
  5
256
330
1E
100
AcDbEntity
  8
LAYER_1
  6
CONTINUOUS
 62
     7
100
AcDbPolyline
 90
        4
 70
     1
 43
0.0
 10
1.703318999999999
 20
3.985231999999999
 10
1.695052999999999
 20
3.922312999999999
 10
1.685488
 20
3.849536
 10
1.675177
 20
3.770763999999999
  0
LWPOLYLINE
  5
25C
330
1E
100
AcDbEntity
  8
LAYER_1
  6
CONTINUOUS
 62
     7
100
AcDbPolyline
 90
        4
 70
     1
 43
0.0
 10
1.675177
 20
3.770763999999999
 10
1.664584
 20
3.689319999999999
 10
1.653799999999999
 20
3.606348
 10
1.642818999999999
 20
3.522469
  0
LWPOLYLINE
  5
262
330
1E
100
AcDbEntity
  8
LAYER_1
  6
CONTINUOUS
 62
     7
100
AcDbPolyline
 90
        4
 70
     1
 43
0.0
 10
1.642818999999999
 20
3.522469
 10
1.631653
 20
3.438219
 10
1.620392999999999
 20
3.353804
 10
1.609137999999999
 20
3.269357999999999
  0
LWPOLYLINE
  5
268
330
1E
100
AcDbEntity
  8
LAYER_1
  6
CONTINUOUS
 62
     7
100
AcDbPolyline
 90
        4
 70
     1
 43
0.0
 10
1.609137999999999
 20
3.269357999999999
 10
1.59796
 20
3.184978
 10
1.586877
 20
3.100629
 10
1.575886
 20
3.016248
  0
LWPOLYLINE
  5
26E
330
1E
100
AcDbEntity
  8
LAYER_1
  6
CONTINUOUS
 62
     7
100
AcDbPolyline
 90
        4
 70
     1
 43
0.0
 10
1.575886
 20
3.016248
 10
1.565003
 20
2.931788999999999
 10
1.554216
 20
2.847265999999999
 10
1.543528
 20
2.762704999999999
  0
LWPOLYLINE
  5
274
330
1E
100
AcDbEntity
  8
LAYER_1
  6
CONTINUOUS
 62
     7
100
AcDbPolyline
 90
        4
 70
     1
 43
0.0
 10
1.543528
 20
2.762704999999999
 10
1.532928
 20
2.678145999999999
 10
1.522391
 20
2.593618999999999
 10
1.511886
 20
2.509149999999999
  0
LWPOLYLINE
  5
27A
330
1E
100
AcDbEntity
  8
LAYER_1
  6
CONTINUOUS
 62
     7
100
AcDbPolyline
 90
        4
 70
     1
 43
0.0
 10
1.511886
 20
2.509149999999999
 10
1.5014
 20
2.424777
 10
1.490979
 20
2.340470999999999
 10
1.480677
 20
2.256193
  0
LWPOLYLINE
  5
280
330
1E
100
AcDbEntity
  8
LAYER_1
  6
CONTINUOUS
 62
     7
100
AcDbPolyline
 90
        4
 70
     1
 43
0.0
 10
1.480677
 20
2.256193
 10
1.470570999999999
 20
2.171924999999999
 10
1.460619
 20
2.08765
 10
1.450790999999999
 20
2.003373999999999
  0
LWPOLYLINE
  5
286
330
1E
100
AcDbEntity
  8
LAYER_1
  6
CONTINUOUS
 62
     7
100
AcDbPolyline
 90
        4
 70
     1
 43
0.0
 10
1.450790999999999
 20
2.003373999999999
 10
1.441079
 20
1.919104
 10
1.431493
 20
1.834872
 10
1.422067
 20
1.750704999999999
  0
LWPOLYLINE
  5
28C
330
1E
100
AcDbEntity
  8
LAYER_1
  6
CONTINUOUS
 62
     7
100
AcDbPolyline
 90
        4
 70
     1
 43
0.0
 10
1.422067
 20
1.750704999999999
 10
1.412841
 20
1.666616999999999
 10
1.403801999999999
 20
1.582559
 10
1.394956999999999
 20
1.498469
  0
LWPOLYLINE
  5
292
330
1E
100
AcDbEntity
  8
LAYER_1
  6
CONTINUOUS
 62
     7
100
AcDbPolyline
 90
        4
 70
     1
 43
0.0
 10
1.394956999999999
 20
1.498469
 10
1.386298
 20
1.414299999999999
 10
1.377803
 20
1.330065999999999
 10
1.369440999999999
 20
1.245802999999999
  0
LWPOLYLINE
  5
298
330
1E
100
AcDbEntity
  8
LAYER_1
  6
CONTINUOUS
 62
     7
100
AcDbPolyline
 90
        4
 70
     1
 43
0.0
 10
1.369440999999999
 20
1.245802999999999
 10
1.361187999999999
 20
1.161526999999999
 10
1.353061
 20
1.077253
 10
1.345094
 20
0.992984
  0
LWPOLYLINE
  5
29E
330
1E
100
AcDbEntity
  8
LAYER_1
  6
CONTINUOUS
 62
     7
100
AcDbPolyline
 90
        4
 70
     1
 43
0.0
 10
1.345094
 20
0.992984
 10
1.337318
 20
0.9087059999999999
 10
1.329735
 20
0.8244329999999999
 10
1.322346
 20
0.740165
  0
LWPOLYLINE
  5
2A4
330
1E
100
AcDbEntity
  8
LAYER_1
  6
CONTINUOUS
 62
     7
100
AcDbPolyline
 90
        4
 70
     1
 43
0.0
 10
1.322346
 20
0.740165
 10
1.315152
 20
0.6558850000000001
 10
1.308151999999999
 20
0.571577
 10
1.301345999999999
 20
0.487205
  0
LWPOLYLINE
  5
2AA
330
1E
100
AcDbEntity
  8
LAYER_1
  6
CONTINUOUS
 62
     7
100
AcDbPolyline
 90
        4
 70
     1
 43
0.0
 10
1.301345999999999
 20
0.487205
 10
1.294731999999999
 20
0.402743
 10
1.288281999999999
 20
0.318257
 10
1.281957
 20
0.233803
  0
LWPOLYLINE
  5
2B0
330
1E
100
AcDbEntity
  8
LAYER_1
  6
CONTINUOUS
 62
     7
100
AcDbPolyline
 90
        4
 70
     1
 43
0.0
 10
1.281957
 20
0.233803
 10
1.275749999999999
 20
0.149423
 10
1.269704
 20
0.065113
 10
1.263886
 20
-0.019165
  0
LWPOLYLINE
  5
2B6
330
1E
100
AcDbEntity
  8
LAYER_1
  6
CONTINUOUS
 62
     7
100
AcDbPolyline
 90
        4
 70
     1
 43
0.0
 10
1.263886
 20
-0.019165
 10
1.258334
 20
-0.103438
 10
1.253044999999999
 20
-0.187709
 10
1.247983999999999
 20
-0.271984
  0
LWPOLYLINE
  5
2BC
330
1E
100
AcDbEntity
  8
LAYER_1
  6
CONTINUOUS
 62
     7
100
AcDbPolyline
 90
        4
 70
     1
 43
0.0
 10
1.247983999999999
 20
-0.271984
 10
1.243123999999999
 20
-0.3562530000000001
 10
1.238461
 20
-0.4405270000000001
 10
1.233999999999999
 20
-0.524803
  0
LWPOLYLINE
  5
2C2
330
1E
100
AcDbEntity
  8
LAYER_1
  6
CONTINUOUS
 62
     7
100
AcDbPolyline
 90
        4
 70
     1
 43
0.0
 10
1.233999999999999
 20
-0.524803
 10
1.229714999999999
 20
-0.609066
 10
1.225634
 20
-0.6933
 10
1.221748
 20
-0.777469
  0
LWPOLYLINE
  5
2C8
330
1E
100
AcDbEntity
  8
LAYER_1
  6
CONTINUOUS
 62
     7
100
AcDbPolyline
 90
        4
 70
     1
 43
0.0
 10
1.221748
 20
-0.777469
 10
1.218059
 20
-0.8615540000000001
 10
1.214595
 20
-0.9455759999999999
 10
1.211386
 20
-1.029566999999999
  0
LWPOLYLINE
  5
2CE
330
1E
100
AcDbEntity
  8
LAYER_1
  6
CONTINUOUS
 62
     7
100
AcDbPolyline
 90
        4
 70
     0
 43
0.0
 10
1.211386
 20
-1.029566999999999
 10
1.208474
 20
-1.113539999999999
 10
1.205853999999999
 20
-1.197516
 10
1.203528
 20
-1.2815
  0
LWPOLYLINE
  5
2D4
330
1E
100
AcDbEntity
  8
LAYER_1
  6
CONTINUOUS
 62
     7
100
AcDbPolyline
 90
        4
 70
     0
 43
0.0
 10
1.203528
 20
-1.2815
 10
1.201485
 20
-1.365475999999999
 10
1.199770999999999
 20
-1.449418999999999
 10
1.198412999999999
 20
-1.533303
  0
LWPOLYLINE
  5
2DA
330
1E
100
AcDbEntity
  8
LAYER_1
  6
CONTINUOUS
 62
     7
100
AcDbPolyline
 90
        4
 70
     0
 43
0.0
 10
1.198412999999999
 20
-1.533303
 10
1.197437
 20
-1.617087999999999
 10
1.196819
 20
-1.700775999999999
 10
1.196528
 20
-1.784374
  0
LWPOLYLINE
  5
2E0
330
1E
100
AcDbEntity
  8
LAYER_1
  6
CONTINUOUS
 62
     7
100
AcDbPolyline
 90
        4
 70
     1
 43
0.0
 10
1.196528
 20
-1.784374
 10
1.196527
 20
-1.867858999999999
 10
1.196854
 20
-1.951254
 10
1.197538999999999
 20
-2.034555
  0
LWPOLYLINE
  5
2E6
330
1E
100
AcDbEntity
  8
LAYER_1
  6
CONTINUOUS
 62
     7
100
AcDbPolyline
 90
        4
 70
     1
 43
0.0
 10
1.197538999999999
 20
-2.034555
 10
1.198613999999999
 20
-2.117757
 10
1.200109
 20
-2.200864
 10
1.202054999999999
 20
-2.283873999999999
  0
LWPOLYLINE
  5
2EC
330
1E
100
AcDbEntity
  8
LAYER_1
  6
CONTINUOUS
 62
     7
100
AcDbPolyline
 90
        4
 70
     1
 43
0.0
 10
1.202054999999999
 20
-2.283873999999999
 10
1.20449
 20
-2.366783999999999
 10
1.20741
 20
-2.4496
 10
1.210819
 20
-2.532318999999999
  0
LWPOLYLINE
  5
2F2
330
1E
100
AcDbEntity
  8
LAYER_1
  6
CONTINUOUS
 62
     7
100
AcDbPolyline
 90
        4
 70
     1
 43
0.0
 10
1.210819
 20
-2.532318999999999
 10
1.214706999999999
 20
-2.614927
 10
1.219117999999999
 20
-2.697375
 10
1.224083
 20
-2.779593999999999
  0
LWPOLYLINE
  5
2F8
330
1E
100
AcDbEntity
  8
LAYER_1
  6
CONTINUOUS
 62
     7
100
AcDbPolyline
 90
        4
 70
     1
 43
0.0
 10
1.224083
 20
-2.779593999999999
 10
1.229619
 20
-2.861539
 10
1.235737
 20
-2.943227999999999
 10
1.242440999999999
 20
-3.024693
  0
LWPOLYLINE
  5
2FE
330
1E
100
AcDbEntity
  8
LAYER_1
  6
CONTINUOUS
 62
     7
100
AcDbPolyline
 90
        4
 70
     1
 43
0.0
 10
1.242440999999999
 20
-3.024693
 10
1.249743999999999
 20
-3.105942999999999
 10
1.257695999999999
 20
-3.186929999999999
 10
1.266358
 20
-3.267593999999999
  0
LWPOLYLINE
  5
304
330
1E
100
AcDbEntity
  8
LAYER_1
  6
CONTINUOUS
 62
     7
100
AcDbPolyline
 90
        4
 70
     1
 43
0.0
 10
1.266358
 20
-3.267593999999999
 10
1.275795
 20
-3.347859999999999
 10
1.28604
 20
-3.427644
 10
1.297121999999999
 20
-3.506845999999999
  0
LWPOLYLINE
  5
30A
330
1E
100
AcDbEntity
  8
LAYER_1
  6
CONTINUOUS
 62
     7
100
AcDbPolyline
 90
        4
 70
     1
 43
0.0
 10
1.297121999999999
 20
-3.506845999999999
 10
1.309082
 20
-3.585385
 10
1.321951
 20
-3.663206999999999
 10
1.335763999999999
 20
-3.740276
  0
LWPOLYLINE
  5
310
330
1E
100
AcDbEntity
  8
LAYER_1
  6
CONTINUOUS
 62
     7
100
AcDbPolyline
 90
        4
 70
     1
 43
0.0
 10
1.335763999999999
 20
-3.740276
 10
1.350562
 20
-3.816537
 10
1.366459
 20
-3.891758999999999
 10
1.383582999999999
 20
-3.965676999999999
  0
LWPOLYLINE
  5
316
330
1E
100
AcDbEntity
  8
LAYER_1
  6
CONTINUOUS
 62
     7
100
AcDbPolyline
 90
        4
 70
     1
 43
0.0
 10
1.383582999999999
 20
-3.965676999999999
 10
1.402031999999999
 20
-4.038008
 10
1.42171
 20
-4.108262999999999
 10
1.442484
 20
-4.175925
  0
LWPOLYLINE
  5
31C
330
1E
100
AcDbEntity
  8
LAYER_1
  6
CONTINUOUS
 62
     7
100
AcDbPolyline
 90
        4
 70
     1
 43
0.0
 10
1.442484
 20
-4.175925
 10
1.464193
 20
-4.240408999999999
 10
1.486482999999999
 20
-4.300839999999999
 10
1.508969
 20
-4.356279999999999
  0
LWPOLYLINE
  5
322
330
1E
100
AcDbEntity
  8
LAYER_1
  6
CONTINUOUS
 62
     7
100
AcDbPolyline
 90
        4
 70
     1
 43
0.0
 10
1.508969
 20
-4.356279999999999
 10
1.531245
 20
-4.405918999999999
 10
1.55288
 20
-4.449433999999999
 10
1.573412999999999
 20
-4.486629999999999
  0
LWPOLYLINE
  5
328
330
1E
100
AcDbEntity
  8
LAYER_1
  6
CONTINUOUS
 62
     7
100
AcDbPolyline
 90
        4
 70
     1
 43
0.0
 10
1.573412999999999
 20
-4.486629999999999
 10
1.592465999999999
 20
-4.517498999999999
 10
1.609958999999999
 20
-4.542797
 10
1.625901999999999
 20
-4.563464999999999
  0
LWPOLYLINE
  5
32E
330
1E
100
AcDbEntity
  8
LAYER_1
  6
CONTINUOUS
 62
     7
100
AcDbPolyline
 90
        4
 70
     1
 43
0.0
 10
1.625901999999999
 20
-4.563464999999999
 10
1.640338
 20
-4.580360999999999
 10
1.653509999999999
 20
-4.594051
 10
1.665704999999999
 20
-4.605015999999999
  0
LWPOLYLINE
  5
334
330
1E
100
AcDbEntity
  8
LAYER_1
  6
CONTINUOUS
 62
     7
100
AcDbPolyline
 90
        4
 70
     1
 43
0.0
 10
1.665704999999999
 20
-4.605015999999999
 10
1.677184
 20
-4.613712
 10
1.688047
 20
-4.62043
 10
1.698358
 20
-4.625433
  0
LWPOLYLINE
  5
33A
330
1E
100
AcDbEntity
  8
LAYER_1
  6
CONTINUOUS
 62
     7
100
AcDbPolyline
 90
        4
 70
     1
 43
0.0
 10
1.698358
 20
-4.625433
 10
1.708204999999999
 20
-4.628908
 10
1.717686
 20
-4.630797
 10
1.726929
 20
-4.630971999999999
  0
LWPOLYLINE
  5
340
330
1E
100
AcDbEntity
  8
LAYER_1
  6
CONTINUOUS
 62
     7
100
AcDbPolyline
 90
        4
 70
     1
 43
0.0
 10
1.726929
 20
-4.630971999999999
 10
1.73605
 20
-4.629304
 10
1.744941
 20
-4.625691
 10
1.753468999999999
 20
-4.620034999999999
  0
LWPOLYLINE
  5
346
330
1E
100
AcDbEntity
  8
LAYER_1
  6
CONTINUOUS
 62
     7
100
AcDbPolyline
 90
        4
 70
     1
 43
0.0
 10
1.753468999999999
 20
-4.620034999999999
 10
1.76157
 20
-4.612248
 10
1.769384
 20
-4.602258999999999
 10
1.777093999999999
 20
-4.589999999999999
  0
LWPOLYLINE
  5
34C
330
1E
100
AcDbEntity
  8
LAYER_1
  6
CONTINUOUS
 62
     7
100
AcDbPolyline
 90
        4
 70
     1
 43
0.0
 10
1.777093999999999
 20
-4.589999999999999
 10
1.784884999999999
 20
-4.575296999999999
 10
1.792870999999999
 20
-4.557516
 10
1.801149999999999
 20
-4.535908999999999
  0
LWPOLYLINE
  5
352
330
1E
100
AcDbEntity
  8
LAYER_1
  6
CONTINUOUS
 62
     7
100
AcDbPolyline
 90
        4
 70
     1
 43
0.0
 10
1.801149999999999
 20
-4.535908999999999
 10
1.809791999999999
 20
-4.509675999999999
 10
1.818754
 20
-4.477771999999999
 10
1.827968999999999
 20
-4.439098
  0
LWPOLYLINE
  5
358
330
1E
100
AcDbEntity
  8
LAYER_1
  6
CONTINUOUS
 62
     7
100
AcDbPolyline
 90
        4
 70
     1
 43
0.0
 10
1.827968999999999
 20
-4.439098
 10
1.837345999999999
 20
-4.392831
 10
1.846593
 20
-4.339272
 10
1.855386
 20
-4.279008
  0
LWPOLYLINE
  5
35E
330
1E
100
AcDbEntity
  8
LAYER_1
  6
CONTINUOUS
 62
     7
100
AcDbPolyline
 90
        4
 70
     1
 43
0.0
 10
1.855386
 20
-4.279008
 10
1.863445999999999
 20
-4.212744999999999
 10
1.870661999999999
 20
-4.141687999999999
 10
1.876968999999999
 20
-4.067165
  0
LWPOLYLINE
  5
364
330
1E
100
AcDbEntity
  8
LAYER_1
  6
CONTINUOUS
 62
     7
100
AcDbPolyline
 90
        4
 70
     1
 43
0.0
 10
1.876968999999999
 20
-4.067165
 10
1.882322
 20
-3.990341999999999
 10
1.886732
 20
-3.911772
 10
1.890231999999999
 20
-3.831846
  0
LWPOLYLINE
  5
36A
330
1E
100
AcDbEntity
  8
LAYER_1
  6
CONTINUOUS
 62
     7
100
AcDbPolyline
 90
        4
 70
     1
 43
0.0
 10
1.890231999999999
 20
-3.831846
 10
1.892881
 20
-3.750905999999999
 10
1.894818
 20
-3.669191
 10
1.896204999999999
 20
-3.586901999999999
  0
LWPOLYLINE
  5
370
330
1E
100
AcDbEntity
  8
LAYER_1
  6
CONTINUOUS
 62
     7
100
AcDbPolyline
 90
        4
 70
     1
 43
0.0
 10
1.896204999999999
 20
-3.586901999999999
 10
1.897174
 20
-3.504191
 10
1.897720999999999
 20
-3.421158999999999
 10
1.897818999999999
 20
-3.337873999999999
  0
LWPOLYLINE
  5
376
330
1E
100
AcDbEntity
  8
LAYER_1
  6
CONTINUOUS
 62
     7
100
AcDbPolyline
 90
        4
 70
     1
 43
0.0
 10
1.897818999999999
 20
-3.337873999999999
 10
1.897440999999999
 20
-3.254372999999999
 10
1.896677
 20
-3.170681999999999
 10
1.895622
 20
-3.086802999999999
  0
LWPOLYLINE
  5
37C
330
1E
100
AcDbEntity
  8
LAYER_1
  6
CONTINUOUS
 62
     7
100
AcDbPolyline
 90
        4
 70
     1
 43
0.0
 10
1.895622
 20
-3.086802999999999
 10
1.894358999999999
 20
-3.002724999999999
 10
1.892902
 20
-2.918454
 10
1.891248
 20
-2.833984
  0
LWPOLYLINE
  5
382
330
1E
100
AcDbEntity
  8
LAYER_1
  6
CONTINUOUS
 62
     7
100
AcDbPolyline
 90
        4
 70
     1
 43
0.0
 10
1.891248
 20
-2.833984
 10
1.889414999999999
 20
-2.749331
 10
1.887413
 20
-2.664552
 10
1.885275999999999
 20
-2.579705
  0
LWPOLYLINE
  5
388
330
1E
100
AcDbEntity
  8
LAYER_1
  6
CONTINUOUS
 62
     7
100
AcDbPolyline
 90
        4
 70
     1
 43
0.0
 10
1.885275999999999
 20
-2.579705
 10
1.883029999999999
 20
-2.494842999999999
 10
1.880661
 20
-2.409952
 10
1.878138
 20
-2.324996
  0
LWPOLYLINE
  5
38E
330
1E
100
AcDbEntity
  8
LAYER_1
  6
CONTINUOUS
 62
     7
100
AcDbPolyline
 90
        4
 70
     1
 43
0.0
 10
1.878138
 20
-2.324996
 10
1.875424999999999
 20
-2.239952999999999
 10
1.872583999999999
 20
-2.154840999999999
 10
1.869677
 20
-2.069693
  0
LWPOLYLINE
  5
394
330
1E
100
AcDbEntity
  8
LAYER_1
  6
CONTINUOUS
 62
     7
100
AcDbPolyline
 90
        4
 70
     1
 43
0.0
 10
1.869677
 20
-2.069693
 10
1.866758
 20
-1.984550999999999
 10
1.863804999999999
 20
-1.899406
 10
1.860791
 20
-1.814263999999999
  0
LWPOLYLINE
  5
39A
330
1E
100
AcDbEntity
  8
LAYER_1
  6
CONTINUOUS
 62
     7
100
AcDbPolyline
 90
        4
 70
     0
 43
0.0
 10
1.860791
 20
-1.814263999999999
 10
1.857675
 20
-1.729104999999999
 10
1.854466
 20
-1.643915999999999
 10
1.851165
 20
-1.558664999999999
  0
LWPOLYLINE
  5
3A0
330
1E
100
AcDbEntity
  8
LAYER_1
  6
CONTINUOUS
 62
     7
100
AcDbPolyline
 90
        4
 70
     0
 43
0.0
 10
1.851165
 20
-1.558664999999999
 10
1.847768
 20
-1.473331999999999
 10
1.844343999999999
 20
-1.387933
 10
1.840956999999999
 20
-1.302499999999999
  0
LWPOLYLINE
  5
3A6
330
1E
100
AcDbEntity
  8
LAYER_1
  6
CONTINUOUS
 62
     7
100
AcDbPolyline
 90
        4
 70
     0
 43
0.0
 10
1.840956999999999
 20
-1.302499999999999
 10
1.837634999999999
 20
-1.217057999999999
 10
1.834350999999999
 20
-1.131619
 10
1.831038999999999
 20
-1.046177
  0
LWPOLYLINE
  5
3AC
330
1E
100
AcDbEntity
  8
LAYER_1
  6
CONTINUOUS
 62
     7
100
AcDbPolyline
 90
        4
 70
     1
 43
0.0
 10
1.831038999999999
 20
-1.046177
 10
1.827636
 20
-0.9607359999999999
 10
1.824172
 20
-0.8752989999999998
 10
1.820677
 20
-0.7898579999999999
  0
LWPOLYLINE
  5
3B2
330
1E
100
AcDbEntity
  8
LAYER_1
  6
CONTINUOUS
 62
     7
100
AcDbPolyline
 90
        4
 70
     1
 43
0.0
 10
1.820677
 20
-0.7898579999999999
 10
1.817183
 20
-0.70443
 10
1.813646999999999
 20
-0.6190290000000001
 10
1.810038999999999
 20
-0.5336930000000001
  0
LWPOLYLINE
  5
3B8
330
1E
100
AcDbEntity
  8
LAYER_1
  6
CONTINUOUS
 62
     7
100
AcDbPolyline
 90
        4
 70
     1
 43
0.0
 10
1.810038999999999
 20
-0.5336930000000001
 10
1.806361
 20
-0.4484320000000001
 10
1.802645
 20
-0.363171
 10
1.798956999999999
 20
-0.277819
  0
LWPOLYLINE
  5
3BE
330
1E
100
AcDbEntity
  8
LAYER_1
  6
CONTINUOUS
 62
     7
100
AcDbPolyline
 90
        4
 70
     1
 43
0.0
 10
1.798956999999999
 20
-0.277819
 10
1.795359999999999
 20
-0.192296
 10
1.791824
 20
-0.106678
 10
1.788318999999999
 20
-0.021055
  0
LWPOLYLINE
  5
3C4
330
1E
100
AcDbEntity
  8
LAYER_1
  6
CONTINUOUS
 62
     7
100
AcDbPolyline
 90
        4
 70
     1
 43
0.0
 10
1.788318999999999
 20
-0.021055
 10
1.784818999999999
 20
0.064483
 10
1.781318999999999
 20
0.149956
 10
1.777818999999999
 20
0.235402
  0
LWPOLYLINE
  5
3CA
330
1E
100
AcDbEntity
  8
LAYER_1
  6
CONTINUOUS
 62
     7
100
AcDbPolyline
 90
        4
 70
     1
 43
0.0
 10
1.777818999999999
 20
0.235402
 10
1.774319
 20
0.320842
 10
1.770818999999999
 20
0.4062800000000001
 10
1.767318999999999
 20
0.4917200000000001
  0
LWPOLYLINE
  5
3D0
330
1E
100
AcDbEntity
  8
LAYER_1
  6
CONTINUOUS
 62
     7
100
AcDbPolyline
 90
        4
 70
     1
 43
0.0
 10
1.767318999999999
 20
0.4917200000000001
 10
1.763818999999999
 20
0.577154
 10
1.760322
 20
0.662595
 10
1.756831
 20
0.748039
  0
LWPOLYLINE
  5
3D6
330
1E
100
AcDbEntity
  8
LAYER_1
  6
CONTINUOUS
 62
     7
100
AcDbPolyline
 90
        4
 70
     1
 43
0.0
 10
1.756831
 20
0.748039
 10
1.753336
 20
0.8334669999999999
 10
1.749872
 20
0.9188679999999999
 10
1.746468999999999
 20
1.004205
  0
LWPOLYLINE
  5
3DC
330
1E
100
AcDbEntity
  8
LAYER_1
  6
CONTINUOUS
 62
     7
100
AcDbPolyline
 90
        4
 70
     1
 43
0.0
 10
1.746468999999999
 20
1.004205
 10
1.743163
 20
1.08946
 10
1.739918
 20
1.174684999999999
 10
1.736704999999999
 20
1.259940999999999
  0
LWPOLYLINE
  5
3E2
330
1E
100
AcDbEntity
  8
LAYER_1
  6
CONTINUOUS
 62
     7
100
AcDbPolyline
 90
        4
 70
     1
 43
0.0
 10
1.736704999999999
 20
1.259940999999999
 10
1.733499
 20
1.345250999999999
 10
1.730291
 20
1.430464999999999
 10
1.727083
 20
1.515386
  0
LWPOLYLINE
  5
3E8
330
1E
100
AcDbEntity
  8
LAYER_1
  6
CONTINUOUS
 62
     7
100
AcDbPolyline
 90
        4
 70
     1
 43
0.0
 10
1.727083
 20
1.515386
 10
1.723904
 20
1.599690999999999
 10
1.720850999999999
 20
1.682535999999999
 10
1.718054999999999
 20
1.762941
  0
LWPOLYLINE
  5
3EE
330
1E
100
AcDbEntity
  8
LAYER_1
  6
CONTINUOUS
 62
     7
100
AcDbPolyline
 90
        4
 70
     1
 43
0.0
 10
1.718054999999999
 20
1.762941
 10
1.715638999999999
 20
1.840452999999999
 10
1.713708
 20
1.916533
 10
1.712358
 20
1.993165
  0
LWPOLYLINE
  5
3F4
330
1E
100
AcDbEntity
  8
LAYER_1
  6
CONTINUOUS
 62
     7
100
AcDbPolyline
 90
        4
 70
     1
 43
0.0
 10
1.712358
 20
1.993165
 10
1.711650999999999
 20
2.071927
 10
1.711425
 20
2.152795
 10
1.711484
 20
2.235345999999999
  0
LWPOLYLINE
  5
3FA
330
1E
100
AcDbEntity
  8
LAYER_1
  6
CONTINUOUS
 62
     7
100
AcDbPolyline
 90
        4
 70
     1
 43
0.0
 10
1.711484
 20
2.235345999999999
 10
1.711679
 20
2.319158999999999
 10
1.711934
 20
2.403814
 10
1.71222
 20
2.488885999999999
  0
LWPOLYLINE
  5
400
330
1E
100
AcDbEntity
  8
LAYER_1
  6
CONTINUOUS
 62
     7
100
AcDbPolyline
 90
        4
 70
     1
 43
0.0
 10
1.71222
 20
2.488885999999999
 10
1.712516999999999
 20
2.574040999999999
 10
1.712843999999999
 20
2.659227
 10
1.713231999999999
 20
2.744483999999999
  0
LWPOLYLINE
  5
406
330
1E
100
AcDbEntity
  8
LAYER_1
  6
CONTINUOUS
 62
     7
100
AcDbPolyline
 90
        4
 70
     1
 43
0.0
 10
1.713231999999999
 20
2.744483999999999
 10
1.713724
 20
2.829810999999999
 10
1.714309
 20
2.91517
 10
1.714984
 20
3.0005
  0
LWPOLYLINE
  5
40C
330
1E
100
AcDbEntity
  8
LAYER_1
  6
CONTINUOUS
 62
     7
100
AcDbPolyline
 90
        4
 70
     1
 43
0.0
 10
1.714984
 20
3.0005
 10
1.715761
 20
3.085749
 10
1.716599999999999
 20
3.170936999999999
 10
1.717468999999999
 20
3.256094
  0
LWPOLYLINE
  5
412
330
1E
100
AcDbEntity
  8
LAYER_1
  6
CONTINUOUS
 62
     7
100
AcDbPolyline
 90
        4
 70
     1
 43
0.0
 10
1.717468999999999
 20
3.256094
 10
1.71835
 20
3.341230999999999
 10
1.719261
 20
3.426341
 10
1.720232
 20
3.511385999999999
  0
LWPOLYLINE
  5
418
330
1E
100
AcDbEntity
  8
LAYER_1
  6
CONTINUOUS
 62
     7
100
AcDbPolyline
 90
        4
 70
     1
 43
0.0
 10
1.720232
 20
3.511385999999999
 10
1.721293
 20
3.596236
 10
1.72242
 20
3.680373999999999
 10
1.723583
 20
3.763176999999999
  0
LWPOLYLINE
  5
41E
330
1E
100
AcDbEntity
  8
LAYER_1
  6
CONTINUOUS
 62
     7
100
AcDbPolyline
 90
        4
 70
     1
 43
0.0
 10
1.723583
 20
3.763176999999999
 10
1.724737
 20
3.84348
 10
1.725827999999999
 20
3.917819
 10
1.726790999999999
 20
3.982176999999999
  0
LWPOLYLINE
  5
424
330
1E
100
AcDbEntity
  8
LAYER_1
  6
CONTINUOUS
 62
     7
100
AcDbPolyline
 90
        4
 70
     1
 43
0.0
 10
1.726790999999999
 20
3.982176999999999
 10
1.727567999999999
 20
4.033297
 10
1.728150999999999
 20
4.070973999999999
 10
1.728539
 20
4.095763999999999
  0
LWPOLYLINE
  5
42A
330
1E
100
AcDbEntity
  8
LAYER_1
  6
CONTINUOUS
 62
     7
100
AcDbPolyline
 90
        4
 70
     1
 43
0.0
 10
1.728539
 20
4.095763999999999
 10
1.728743999999999
 20
4.108791
 10
1.728819999999999
 20
4.11359
 10
1.728831
 20
4.114276
  0
SOLID
  5
430
330
1E
100
AcDbEntity
  8
LAYER_1
  6
CONTINUOUS
100
AcDbTrace
 10
2.391
 20
1.928747999999999
 30
0.0
 11
2.438028
 21
1.926066999999999
 31
0.0
 12
2.399066999999999
 22
1.989204999999999
 32
0.0
 13
2.447429
 23
1.982483999999999
 33
0.0
  0
LWPOLYLINE
  5
431
330
1E
100
AcDbEntity
  8
LAYER_1
  6
CONTINUOUS
100
AcDbPolyline
 90
        4
 70
     1
 43
0.003
 10
2.391
 20
1.928747999999999
 10
2.438028
 20
1.926066999999999
 10
2.447429
 20
1.982483999999999
 10
2.399066999999999
 20
1.989204999999999
  0
SOLID
  5
437
330
1E
100
AcDbEntity
  8
LAYER_1
  6
CONTINUOUS
100
AcDbTrace
 10
1.411664999999999
 20
1.910609999999999
 30
0.0
 11
1.468764
 21
1.907929
 31
0.0
 12
1.42711
 22
2.026137999999999
 32
0.0
 13
1.478831
 23
2.012039
 33
0.0
  0
LWPOLYLINE
  5
438
330
1E
100
AcDbEntity
  8
LAYER_1
  6
CONTINUOUS
100
AcDbPolyline
 90
        4
 70
     1
 43
0.0
 10
1.411664999999999
 20
1.910609999999999
 10
1.468764
 20
1.907929
 10
1.478831
 20
2.012039
 10
1.42711
 20
2.026137999999999
  0
LWPOLYLINE
  5
43E
330
1E
100
AcDbEntity
  8
LAYER_1
  6
CONTINUOUS
 62
     7
100
AcDbPolyline
 90
        2
 70
     1
 43
0.0
 10
1.439677
 20
1.90572
 10
1.712401999999999
 20
1.924527999999999
  0
LWPOLYLINE
  5
442
330
1E
100
AcDbEntity
  8
LAYER_1
  6
CONTINUOUS
 62
     7
100
AcDbPolyline
 90
        2
 70
     1
 43
0.0
 10
1.45311
 20
2.023940999999999
 10
1.712401999999999
 20
1.937956999999999
  0
LWPOLYLINE
  5
446
330
1E
100
AcDbEntity
  8
LAYER_1
  6
CONTINUOUS
 62
     7
100
AcDbPolyline
 90
       16
 70
     1
 43
0.0
 10
3.861263999999999
 20
2.444846
 10
3.857804
 20
2.509087
 10
3.847665
 20
2.571323
 10
3.831205999999999
 20
2.631196
 10
3.808785999999999
 20
2.688346
 10
3.780766999999999
 20
2.742412999999999
 10
3.747505999999999
 20
2.793038
 10
3.709365
 20
2.839859999999999
 10
3.666701999999999
 20
2.882522
 10
3.619876999999999
 20
2.920662
 10
3.569249999999999
 20
2.953920999999999
 10
3.515180999999999
 20
2.981939
 10
3.45803
 20
3.004357
 10
3.398155999999999
 20
3.020815
 10
3.335917999999999
 20
3.030953999999999
 10
3.271676999999999
 20
3.034413
  0
LWPOLYLINE
  5
458
330
1E
100
AcDbEntity
  8
LAYER_1
  6
CONTINUOUS
 62
     7
100
AcDbPolyline
 90
       16
 70
     1
 43
0.0
 10
3.271676999999999
 20
3.034413
 10
3.207437
 20
3.030953999999999
 10
3.145199999999999
 20
3.020815
 10
3.085325999999999
 20
3.004357
 10
3.028175
 20
2.981939
 10
2.974107
 20
2.953920999999999
 10
2.923479999999999
 20
2.920662
 10
2.876656
 20
2.882522
 10
2.833992999999999
 20
2.839859999999999
 10
2.795852
 20
2.793038
 10
2.762591
 20
2.742412999999999
 10
2.734572
 20
2.688346
 10
2.712152999999999
 20
2.631196
 10
2.695692999999999
 20
2.571323
 10
2.685554
 20
2.509087
 10
2.682093999999999
 20
2.444846
  0
LWPOLYLINE
  5
46A
330
1E
100
AcDbEntity
  8
LAYER_1
  6
CONTINUOUS
 62
     7
100
AcDbPolyline
 90
       16
 70
     1
 43
0.0
 10
2.682093999999999
 20
2.444846
 10
2.685554
 20
2.380602999999999
 10
2.695692999999999
 20
2.318365
 10
2.712152999999999
 20
2.258488999999999
 10
2.734572
 20
2.201338
 10
2.762591
 20
2.147268999999999
 10
2.795852
 20
2.096642999999999
 10
2.833992999999999
 20
2.049818999999999
 10
2.876656
 20
2.007156999999999
 10
2.923479999999999
 20
1.969016999999999
 10
2.974107
 20
1.935756999999999
 10
3.028175
 20
1.907738999999999
 10
3.085325999999999
 20
1.88532
 10
3.145199999999999
 20
1.868861999999999
 10
3.207437
 20
1.858722999999999
 10
3.271676999999999
 20
1.855264
  0
LWPOLYLINE
  5
47C
330
1E
100
AcDbEntity
  8
LAYER_1
  6
CONTINUOUS
 62
     7
100
AcDbPolyline
 90
       16
 70
     1
 43
0.0
 10
3.271676999999999
 20
1.855264
 10
3.335917999999999
 20
1.858722999999999
 10
3.398155999999999
 20
1.868861999999999
 10
3.45803
 20
1.88532
 10
3.515180999999999
 20
1.907738999999999
 10
3.569249999999999
 20
1.935756999999999
 10
3.619876999999999
 20
1.969016999999999
 10
3.666701999999999
 20
2.007156999999999
 10
3.709365
 20
2.049818999999999
 10
3.747505999999999
 20
2.096642999999999
 10
3.780766999999999
 20
2.147268999999999
 10
3.808785999999999
 20
2.201338
 10
3.831205999999999
 20
2.258488999999999
 10
3.847665
 20
2.318365
 10
3.857804
 20
2.380602999999999
 10
3.861263999999999
 20
2.444846
  0
LWPOLYLINE
  5
48E
330
1E
100
AcDbEntity
  8
LAYER_1
  6
CONTINUOUS
 62
     7
100
AcDbPolyline
 90
        2
 70
     1
 43
0.0
 10
3.255231999999999
 20
2.438263999999999
 10
2.827528
 20
2.056621999999999
  0
LWPOLYLINE
  5
492
330
1E
100
AcDbEntity
  8
LAYER_1
  6
CONTINUOUS
 62
     7
100
AcDbPolyline
 90
        2
 70
     1
 43
0.0
 10
3.260912999999999
 20
2.440593999999999
 10
2.716539
 20
2.620176999999999
  0
LWPOLYLINE
  5
496
330
1E
100
AcDbEntity
  8
LAYER_1
  6
CONTINUOUS
 62
     7
100
AcDbPolyline
 90
        2
 70
     1
 43
0.0
 10
1.477885999999999
 20
-0.7770830000000001
 10
1.819609999999999
 20
-0.916929
  0
LWPOLYLINE
  5
49A
330
1E
100
AcDbEntity
  8
LAYER_1
  6
CONTINUOUS
 62
     7
100
AcDbPolyline
 90
        2
 70
     1
 43
0.0
 10
1.814831
 20
-0.6425
 10
1.477819
 20
-0.779622
  0
LWPOLYLINE
  5
49E
330
1E
100
AcDbEntity
  8
LAYER_1
  6
CONTINUOUS
 62
     7
100
AcDbPolyline
 90
        7
 70
     1
 43
0.0
 10
1.226094
 20
-0.895484
 10
1.265531999999999
 20
-0.957909
 10
1.318304999999999
 20
-1.006079
 10
1.380916999999999
 20
-1.038705999999999
 10
1.449873
 20
-1.054504
 10
1.521676
 20
-1.052186999999999
 10
1.592830999999999
 20
-1.030469
  0
LWPOLYLINE
  5
4A7
330
1E
100
AcDbEntity
  8
LAYER_1
  6
CONTINUOUS
 62
     7
100
AcDbPolyline
 90
        7
 70
     1
 43
0.0
 10
1.592830999999999
 20
-1.030469
 10
1.655804
 20
-0.9908629999999998
 10
1.704527
 20
-0.938076
 10
1.737688
 20
-0.875591
 10
1.753970999999999
 20
-0.8068939999999999
 10
1.752063
 20
-0.73547
 10
1.730649999999999
 20
-0.664803
  0
LWPOLYLINE
  5
4B0
330
1E
100
AcDbEntity
  8
LAYER_1
  6
CONTINUOUS
 62
     7
100
AcDbPolyline
 90
        7
 70
     1
 43
0.0
 10
1.730649999999999
 20
-0.664803
 10
1.691213
 20
-0.602378
 10
1.63844
 20
-0.5542090000000001
 10
1.575829
 20
-0.5215830000000001
 10
1.506872999999999
 20
-0.505787
 10
1.43507
 20
-0.508107
 10
1.363912999999999
 20
-0.5298310000000001
  0
LWPOLYLINE
  5
4B9
330
1E
100
AcDbEntity
  8
LAYER_1
  6
CONTINUOUS
 62
     7
100
AcDbPolyline
 90
        7
 70
     1
 43
0.0
 10
1.363912999999999
 20
-0.5298310000000001
 10
1.300939999999999
 20
-0.569433
 10
1.252216999999999
 20
-0.62222
 10
1.219055999999999
 20
-0.6847050000000001
 10
1.202772999999999
 20
-0.753402
 10
1.204680999999999
 20
-0.8248239999999999
 10
1.226094
 20
-0.895484
  0
LWPOLYLINE
  5
4C2
330
1E
100
AcDbEntity
  8
LAYER_1
  6
CONTINUOUS
 62
     7
100
AcDbPolyline
 90
        2
 70
     1
 43
0.0
 10
3.252205
 20
2.441483999999999
 10
2.695374
 20
2.305302999999999
  0
TEXT
  5
4C6
330
1E
100
AcDbEntity
  8
LAYER_1
 62
     7
100
AcDbText
 10
2.746593999999999
 20
2.81272
 30
0.0
 40
0.112388
  1
15mm horn, +/-28 deg
 50
90.0
 41
0.5999965606785286
  7
SN0
 72
     5
 11
2.746593999999999
 21
4.148524
 31
0.0
100
AcDbText
  0
LWPOLYLINE
  5
4C7
330
1E
100
AcDbEntity
  8
LAYER_1
  6
CONTINUOUS
 62
     7
100
AcDbPolyline
 90
       14
 70
     1
 43
0.0
 10
2.220956999999999
 20
1.934902
 10
2.216985999999999
 20
1.999323
 10
2.205391999999999
 20
2.061357
 10
2.186653999999999
 20
2.120522
 10
2.161246999999999
 20
2.176336999999999
 10
2.129650999999999
 20
2.22832
 10
2.092341999999999
 20
2.27599
 10
2.049799
 20
2.318865999999999
 10
2.002498
 20
2.356466
 10
1.950917999999999
 20
2.388309
 10
1.895536999999999
 20
2.413914
 10
1.836831
 20
2.432799
 10
1.775279
 20
2.444482999999999
 10
1.711358
 20
2.448484
  0
LWPOLYLINE
  5
4D7
330
1E
100
AcDbEntity
  8
LAYER_1
  6
CONTINUOUS
 62
     7
100
AcDbPolyline
 90
       14
 70
     1
 43
0.0
 10
1.711358
 20
2.448484
 10
1.647434999999999
 20
2.444482999999999
 10
1.585881999999999
 20
2.432799
 10
1.527174999999999
 20
2.413914
 10
1.471794
 20
2.388309
 10
1.420213999999999
 20
2.356466
 10
1.372914999999999
 20
2.318865999999999
 10
1.330373
 20
2.27599
 10
1.293064999999999
 20
2.22832
 10
1.26147
 20
2.176336999999999
 10
1.236064999999999
 20
2.120522
 10
1.217327
 20
2.061357
 10
1.205734
 20
1.999323
 10
1.201763999999999
 20
1.934902
  0
LWPOLYLINE
  5
4E7
330
1E
100
AcDbEntity
  8
LAYER_1
  6
CONTINUOUS
 62
     7
100
AcDbPolyline
 90
       14
 70
     1
 43
0.0
 10
1.201763999999999
 20
1.934902
 10
1.205734
 20
1.870479999999999
 10
1.217327
 20
1.808445999999999
 10
1.236064999999999
 20
1.749281
 10
1.26147
 20
1.693465999999999
 10
1.293064999999999
 20
1.641483
 10
1.330373
 20
1.593812999999999
 10
1.372914999999999
 20
1.550937999999999
 10
1.420213999999999
 20
1.513337
 10
1.471794
 20
1.481494
 10
1.527174999999999
 20
1.455889999999999
 10
1.585881999999999
 20
1.437004999999999
 10
1.647434999999999
 20
1.425320999999999
 10
1.711358
 20
1.421318999999999
  0
LWPOLYLINE
  5
4F7
330
1E
100
AcDbEntity
  8
LAYER_1
  6
CONTINUOUS
 62
     7
100
AcDbPolyline
 90
       14
 70
     1
 43
0.0
 10
1.711358
 20
1.421318999999999
 10
1.775279
 20
1.425320999999999
 10
1.836831
 20
1.437004999999999
 10
1.895536999999999
 20
1.455889999999999
 10
1.950917999999999
 20
1.481494
 10
2.002498
 20
1.513337
 10
2.049799
 20
1.550937999999999
 10
2.092341999999999
 20
1.593812999999999
 10
2.129650999999999
 20
1.641483
 10
2.161246999999999
 20
1.693465999999999
 10
2.186653999999999
 20
1.749281
 10
2.205391999999999
 20
1.808445999999999
 10
2.216985999999999
 20
1.870479999999999
 10
2.220956999999999
 20
1.934902
  0
LWPOLYLINE
  5
507
330
1E
100
AcDbEntity
  8
LAYER_1
  6
CONTINUOUS
 62
     7
100
AcDbPolyline
 90
        2
 70
     1
 43
0.0
 10
1.711402
 20
1.936802999999999
 10
1.255121999999999
 20
1.716468999999999
  0
LWPOLYLINE
  5
50B
330
1E
100
AcDbEntity
  8
LAYER_1
  6
CONTINUOUS
 62
     7
100
AcDbPolyline
 90
        2
 70
     1
 43
0.0
 10
1.712747999999999
 20
1.93972
 10
1.231469
 20
2.098193
  0
LWPOLYLINE
  5
50F
330
1E
100
AcDbEntity
  8
LAYER_1
  6
CONTINUOUS
 62
     7
100
AcDbPolyline
 90
        2
 70
     1
 43
0.0
 10
1.708831
 20
1.9365
 10
1.203247999999999
 20
1.903138
  0
TEXT
  5
513
330
1E
100
AcDbEntity
  8
LAYER_1
 62
     7
100
AcDbText
 10
1.999386
 20
-0.94122
 30
0.0
 40
0.112388
  1
7mm horn, +/-45 deg
 50
90.0
 41
0.5947530524665094
  7
SN0
 72
     5
 11
1.999386
 21
0.31925
 31
0.0
100
AcDbText
  0
TEXT
  5
514
330
1E
100
AcDbEntity
  8
LAYER_1
 62
     7
100
AcDbText
 10
1.274402
 20
2.321193
 30
0.0
 40
0.112388
  1
13mm horn, +/-22 deg
 50
90.0
 41
0.5999961115134111
  7
SN0
 72
     5
 11
1.274402
 21
3.656995999999999
 31
0.0
100
AcDbText
  0
LWPOLYLINE
  5
515
330
1E
100
AcDbEntity
  8
LAYER_1
  6
DASHED
 62
     7
100
AcDbPolyline
 90
        9
 70
     1
 43
0.0
 10
1.173121999999999
 20
-0.9197049999999999
 10
1.207235
 20
-0.977912
 10
1.25102
 20
-1.026634999999999
 10
1.302689999999999
 20
-1.065217999999999
 10
1.360462999999999
 20
-1.093003
 10
1.422552
 20
-1.109334999999999
 10
1.487172999999999
 20
-1.113555999999999
 10
1.552542
 20
-1.10501
 10
1.616873999999999
 20
-1.083038999999999
  0
LWPOLYLINE
  5
520
330
1E
100
AcDbEntity
  8
LAYER_1
  6
DASHED
 62
     7
100
AcDbPolyline
 90
        9
 70
     1
 43
0.0
 10
1.616873999999999
 20
-1.083038999999999
 10
1.675577999999999
 20
-1.048756999999999
 10
1.724807
 20
-1.004909
 10
1.76389
 20
-0.953274
 10
1.792156
 20
-0.895631
 10
1.808933999999999
 20
-0.83376
 10
1.813555
 20
-0.76944
 10
1.805345999999999
 20
-0.704449
 10
1.783638
 20
-0.640567
  0
LWPOLYLINE
  5
52B
330
1E
100
AcDbEntity
  8
LAYER_1
  6
DASHED
 62
     7
100
AcDbPolyline
 90
        9
 70
     1
 43
0.0
 10
1.783638
 20
-0.640567
 10
1.74953
 20
-0.5823610000000001
 10
1.705749
 20
-0.5336390000000001
 10
1.654081
 20
-0.495057
 10
1.596311
 20
-0.467273
 10
1.534222999999999
 20
-0.450943
 10
1.469602
 20
-0.446724
 10
1.404233
 20
-0.455274
 10
1.339902
 20
-0.477248
  0
LWPOLYLINE
  5
536
330
1E
100
AcDbEntity
  8
LAYER_1
  6
DASHED
 62
     7
100
AcDbPolyline
 90
        9
 70
     1
 43
0.0
 10
1.339902
 20
-0.477248
 10
1.281193
 20
-0.5115300000000001
 10
1.231961
 20
-0.555378
 10
1.192876999999999
 20
-0.6070120000000001
 10
1.16461
 20
-0.664654
 10
1.147831
 20
-0.7265229999999999
 10
1.14321
 20
-0.790841
 10
1.151416999999999
 20
-0.8558279999999999
 10
1.173121999999999
 20
-0.9197049999999999
  0
LWPOLYLINE
  5
541
330
1E
100
AcDbEntity
  8
LAYER_1
  6
CONTINUOUS
 62
     7
100
AcDbPolyline
 90
        4
 70
     1
 43
0.0
 10
1.479276
 20
-0.7710390000000001
 10
1.483057999999999
 20
-0.7722670000000001
 10
1.485649999999999
 20
-0.775128
 10
1.486499999999999
 20
-0.779012
  0
LWPOLYLINE
  5
547
330
1E
100
AcDbEntity
  8
LAYER_1
  6
CONTINUOUS
 62
     7
100
AcDbPolyline
 90
        4
 70
     1
 43
0.0
 10
1.486499999999999
 20
-0.779012
 10
1.485271999999999
 20
-0.7827850000000001
 10
1.482412
 20
-0.785373
 10
1.478528
 20
-0.7862200000000001
  0
LWPOLYLINE
  5
54D
330
1E
100
AcDbEntity
  8
LAYER_1
  6
CONTINUOUS
 62
     7
100
AcDbPolyline
 90
        4
 70
     1
 43
0.0
 10
1.478528
 20
-0.7862200000000001
 10
1.474754
 20
-0.7849930000000001
 10
1.472166
 20
-0.782137
 10
1.471319
 20
-0.7782640000000001
  0
LWPOLYLINE
  5
553
330
1E
100
AcDbEntity
  8
LAYER_1
  6
CONTINUOUS
 62
     7
100
AcDbPolyline
 90
        4
 70
     1
 43
0.0
 10
1.471319
 20
-0.7782640000000001
 10
1.472545
 20
-0.774479
 10
1.475400999999999
 20
-0.771887
 10
1.479276
 20
-0.7710390000000001
  0
LWPOLYLINE
  5
559
330
1E
100
AcDbEntity
  8
LAYER_1
  6
CONTINUOUS
 62
     7
100
AcDbPolyline
 90
        4
 70
     1
 43
0.0
 10
1.770583
 20
0.026583
 10
1.712858
 20
-1.098732
 10
1.215999999999999
 20
-1.073247999999999
 10
1.273731999999999
 20
0.052067
  0
TEXT
  5
55F
330
1E
100
AcDbEntity
  8
LAYER_1
 62
     7
100
AcDbText
 10
1.408969
 20
-0.3753579999999999
 30
0.0
 40
0.100201
  1
DS368
 50
87.06345314700499
 41
0.793934530568183
  7
SN1
 72
     5
 11
1.427987999999999
 21
-0.004598
 31
0.0
100
AcDbText
  0
LWPOLYLINE
  5
560
330
1E
100
AcDbEntity
  8
LAYER_1
  6
CONTINUOUS
 62
     7
100
AcDbPolyline
 90
        2
 70
     1
 43
0.0
 10
1.478941
 20
-0.7824130000000001
 10
1.623886
 20
-0.4386100000000001
  0
LWPOLYLINE
  5
564
330
1E
100
AcDbEntity
  8
LAYER_1
  6
CONTINUOUS
 62
     7
100
AcDbPolyline
 90
        2
 70
     1
 43
0.0
 10
2.945219999999999
 20
-0.498677
 10
3.415373999999999
 20
-0.7378460000000001
  0
LWPOLYLINE
  5
568
330
1E
100
AcDbEntity
  8
LAYER_1
  6
CONTINUOUS
 62
     7
100
AcDbPolyline
 90
        2
 70
     1
 43
0.0
 10
2.943374
 20
-0.4983310000000001
 10
3.10422
 20
0.009831
  0
LWPOLYLINE
  5
56C
330
1E
100
AcDbEntity
  8
LAYER_1
  6
CONTINUOUS
 62
     7
100
AcDbPolyline
 90
        2
 70
     1
 43
0.0
 10
3.428055
 20
-0.300886
 10
2.947621999999999
 20
-0.499248
  0
LWPOLYLINE
  5
570
330
1E
100
AcDbEntity
  8
LAYER_1
  6
CONTINUOUS
 62
     7
100
AcDbPolyline
 90
        4
 70
     1
 43
0.0
 10
2.944913
 20
-0.488913
 10
2.948701999999999
 20
-0.490118
 10
2.951306999999999
 20
-0.492965
 10
2.952176999999999
 20
-0.4968460000000001
  0
LWPOLYLINE
  5
576
330
1E
100
AcDbEntity
  8
LAYER_1
  6
CONTINUOUS
 62
     7
100
AcDbPolyline
 90
        4
 70
     1
 43
0.0
 10
2.952176999999999
 20
-0.4968460000000001
 10
2.950966999999999
 20
-0.500624
 10
2.948123999999999
 20
-0.5032250000000001
 10
2.944247999999999
 20
-0.5040939999999999
  0
LWPOLYLINE
  5
57C
330
1E
100
AcDbEntity
  8
LAYER_1
  6
CONTINUOUS
 62
     7
100
AcDbPolyline
 90
        4
 70
     1
 43
0.0
 10
2.944247999999999
 20
-0.5040939999999999
 10
2.940461999999999
 20
-0.50289
 10
2.937859999999999
 20
-0.500044
 10
2.936999999999999
 20
-0.496165
  0
LWPOLYLINE
  5
582
330
1E
100
AcDbEntity
  8
LAYER_1
  6
CONTINUOUS
 62
     7
100
AcDbPolyline
 90
        4
 70
     1
 43
0.0
 10
2.936999999999999
 20
-0.496165
 10
2.938200999999999
 20
-0.492387
 10
2.941043
 20
-0.4897840000000001
 10
2.944913
 20
-0.488913
  0
LWPOLYLINE
  5
588
330
1E
100
AcDbEntity
  8
LAYER_1
  6
CONTINUOUS
 62
     7
100
AcDbPolyline
 90
        4
 70
     1
 43
0.0
 10
3.232149999999999
 20
0.31015
 10
3.180177
 20
-0.8154289999999999
 10
2.683205
 20
-0.792484
 10
2.735177
 20
0.333094
  0
TEXT
  5
58E
330
1E
100
AcDbEntity
  8
LAYER_1
 62
     7
100
AcDbText
 10
2.847248
 20
-0.081539
 30
0.0
 40
0.100201
  1
DS368
 50
87.35657475807304
 41
0.7939357129951647
  7
SN1
 72
     5
 11
2.86437
 21
0.289314
 31
0.0
100
AcDbText
  0
LWPOLYLINE
  5
58F
330
1E
100
AcDbEntity
  8
LAYER_1
  6
CONTINUOUS
 62
     7
100
AcDbPolyline
 90
       10
 70
     1
 43
0.0
 10
3.316873999999999
 20
-0.4975120000000001
 10
3.311991
 20
-0.4302720000000001
 10
3.295711
 20
-0.366789
 10
3.26907
 20
-0.308135
 10
3.233106
 20
-0.255382
 10
3.188854
 20
-0.209604
 10
3.137350999999999
 20
-0.171873
 10
3.079633999999999
 20
-0.143262
 10
3.016739999999999
 20
-0.124845
 10
2.949704999999999
 20
-0.117693
  0
LWPOLYLINE
  5
59B
330
1E
100
AcDbEntity
  8
LAYER_1
  6
CONTINUOUS
 62
     7
100
AcDbPolyline
 90
       10
 70
     1
 43
0.0
 10
2.949704999999999
 20
-0.117693
 10
2.882469999999999
 20
-0.122575
 10
2.81899
 20
-0.138854
 10
2.760337999999999
 20
-0.165495
 10
2.707586999999999
 20
-0.201459
 10
2.661808999999999
 20
-0.245711
 10
2.624077
 20
-0.2972139999999999
 10
2.595463999999999
 20
-0.354931
 10
2.577041999999999
 20
-0.417824
 10
2.569885999999999
 20
-0.4848580000000001
  0
LWPOLYLINE
  5
5A7
330
1E
100
AcDbEntity
  8
LAYER_1
  6
CONTINUOUS
 62
     7
100
AcDbPolyline
 90
       10
 70
     1
 43
0.0
 10
2.569885999999999
 20
-0.4848580000000001
 10
2.574768999999999
 20
-0.5520930000000001
 10
2.591050999999999
 20
-0.615573
 10
2.617693
 20
-0.674225
 10
2.653659
 20
-0.7269760000000001
 10
2.697913
 20
-0.772754
 10
2.749416
 20
-0.8104859999999998
 10
2.807132
 20
-0.8390989999999998
 10
2.870024
 20
-0.8575209999999998
 10
2.937054999999999
 20
-0.864677
  0
LWPOLYLINE
  5
5B3
330
1E
100
AcDbEntity
  8
LAYER_1
  6
CONTINUOUS
 62
     7
100
AcDbPolyline
 90
       10
 70
     1
 43
0.0
 10
2.937054999999999
 20
-0.864677
 10
3.004293
 20
-0.859795
 10
3.067775999999999
 20
-0.843515
 10
3.12643
 20
-0.816873
 10
3.179181999999999
 20
-0.7809070000000001
 10
3.224959999999999
 20
-0.7366540000000001
 10
3.262690999999999
 20
-0.6851510000000001
 10
3.291301999999999
 20
-0.6274350000000001
 10
3.309720999999999
 20
-0.5645430000000001
 10
3.316873999999999
 20
-0.4975120000000001
  0
LWPOLYLINE
  5
5BF
330
1E
100
AcDbEntity
  8
LAYER_1
  6
DASHED
 62
     7
100
AcDbPolyline
 90
       11
 70
     1
 43
0.0
 10
3.372912999999999
 20
-0.498457
 10
3.368470999999999
 20
-0.4286930000000001
 10
3.353314
 20
-0.362327
 10
3.328311
 20
-0.300259
 10
3.294332999999999
 20
-0.243387
 10
3.252248999999999
 20
-0.192612
 10
3.202926999999999
 20
-0.148833
 10
3.147238999999999
 20
-0.112949
 10
3.086052999999999
 20
-0.08586
 10
3.020237999999999
 20
-0.068466
 10
2.950665
 20
-0.061665
  0
LWPOLYLINE
  5
5CC
330
1E
100
AcDbEntity
  8
LAYER_1
  6
DASHED
 62
     7
100
AcDbPolyline
 90
       11
 70
     1
 43
0.0
 10
2.950665
 20
-0.061665
 10
2.880901999999999
 20
-0.066108
 10
2.814536
 20
-0.081264
 10
2.752467999999999
 20
-0.106265
 10
2.695596
 20
-0.140242
 10
2.644820999999999
 20
-0.182324
 10
2.601041999999999
 20
-0.231644
 10
2.565158
 20
-0.287331
 10
2.538068999999999
 20
-0.348515
 10
2.520674
 20
-0.4143290000000001
 10
2.513873999999999
 20
-0.4839020000000001
  0
LWPOLYLINE
  5
5D9
330
1E
100
AcDbEntity
  8
LAYER_1
  6
DASHED
 62
     7
100
AcDbPolyline
 90
       11
 70
     1
 43
0.0
 10
2.513873999999999
 20
-0.4839020000000001
 10
2.518315999999999
 20
-0.5536680000000001
 10
2.533472999999999
 20
-0.620037
 10
2.558474
 20
-0.6821070000000001
 10
2.592449999999999
 20
-0.73898
 10
2.634533
 20
-0.7897560000000001
 10
2.683851999999999
 20
-0.8335360000000001
 10
2.739538999999999
 20
-0.8694209999999998
 10
2.800724
 20
-0.8965099999999999
 10
2.866537
 20
-0.9139040000000001
 10
2.936109999999999
 20
-0.9207049999999998
  0
LWPOLYLINE
  5
5E6
330
1E
100
AcDbEntity
  8
LAYER_1
  6
DASHED
 62
     7
100
AcDbPolyline
 90
       11
 70
     1
 43
0.0
 10
2.936109999999999
 20
-0.9207049999999998
 10
3.005876999999999
 20
-0.916262
 10
3.072245
 20
-0.9011049999999999
 10
3.134316
 20
-0.8761030000000001
 10
3.191189
 20
-0.8421239999999999
 10
3.241964999999999
 20
-0.8000399999999999
 10
3.285744999999999
 20
-0.750719
 10
3.321629
 20
-0.6950300000000001
 10
3.348717999999999
 20
-0.633844
 10
3.366112999999999
 20
-0.5680300000000001
 10
3.372912999999999
 20
-0.498457
  0
TEXT
  5
5F3
330
1E
100
AcDbEntity
  8
LAYER_1
 62
     7
100
AcDbText
 10
3.551457
 20
-0.8091219999999999
 30
0.0
 40
0.112388
  1
9.5mm horn, +/-50 deg
 50
90.0
 41
0.6009143091526596
  7
SN0
 72
     5
 11
3.551457
 21
0.5641010000000001
 31
0.0
100
AcDbText
  0
LWPOLYLINE
  5
5F4
330
1E
100
AcDbEntity
  8
LAYER_1
  6
CONTINUOUS
 62
     7
100
AcDbPolyline
 90
        4
 70
     0
 43
0.003
 10
3.010345999999999
 20
-1.242831
 10
3.01032
 20
-1.242063999999999
 10
3.010132
 20
-1.236695
 10
3.009622
 20
-1.222121999999999
  0
LWPOLYLINE
  5
5FA
330
1E
100
AcDbEntity
  8
LAYER_1
  6
CONTINUOUS
 62
     7
100
AcDbPolyline
 90
        4
 70
     0
 43
0.003
 10
3.009622
 20
-1.222121999999999
 10
3.008682999999999
 20
-1.195249999999999
 10
3.007419
 20
-1.159175
 10
3.005999999999999
 20
-1.1185
  0
LWPOLYLINE
  5
600
330
1E
100
AcDbEntity
  8
LAYER_1
  6
CONTINUOUS
 62
     7
100
AcDbPolyline
 90
        4
 70
     0
 43
0.003
 10
3.005999999999999
 20
-1.1185
 10
3.005349
 20
-1.077795999999999
 10
3.009463999999999
 20
-1.041536
 10
3.023109999999999
 20
-1.014164999999999
  0
LWPOLYLINE
  5
606
330
1E
100
AcDbEntity
  8
LAYER_1
  6
CONTINUOUS
 62
     7
100
AcDbPolyline
 90
        4
 70
     1
 43
0.0
 10
3.023109999999999
 20
-1.014164999999999
 10
3.048722999999999
 20
-0.9994309999999998
 10
3.079422
 20
-0.9983579999999999
 10
3.105995999999999
 20
-1.011263999999999
  0
LWPOLYLINE
  5
60C
330
1E
100
AcDbEntity
  8
LAYER_1
  6
CONTINUOUS
 62
     7
100
AcDbPolyline
 90
        4
 70
     0
 43
0.003
 10
3.105995999999999
 20
-1.011263999999999
 10
3.121516
 20
-1.037625999999999
 10
3.12815
 20
-1.073513999999999
 10
3.130345999999999
 20
-1.114165
  0
LWPOLYLINE
  5
612
330
1E
100
AcDbEntity
  8
LAYER_1
  6
CONTINUOUS
 62
     7
100
AcDbPolyline
 90
        4
 70
     0
 43
0.003
 10
3.130345999999999
 20
-1.114165
 10
3.131763999999999
 20
-1.154843
 10
3.13302
 20
-1.190914999999999
 10
3.133957
 20
-1.217775999999999
  0
LWPOLYLINE
  5
618
330
1E
100
AcDbEntity
  8
LAYER_1
  6
CONTINUOUS
 62
     7
100
AcDbPolyline
 90
        4
 70
     0
 43
0.003
 10
3.133957
 20
-1.217775999999999
 10
3.134463999999999
 20
-1.232356999999999
 10
3.13465
 20
-1.237729
 10
3.134676999999999
 20
-1.238495999999999
  0
LWPOLYLINE
  5
61E
330
1E
100
AcDbEntity
  8
LAYER_1
  6
CONTINUOUS
 62
     7
100
AcDbPolyline
 90
        2
 70
     1
 43
0.0
 10
3.055109999999999
 20
-0.13022
 10
2.717192999999999
 20
2.622247999999999
  0
LWPOLYLINE
  5
622
330
1E
100
AcDbEntity
  8
LAYER_1
  6
CONTINUOUS
 62
     7
100
AcDbPolyline
 90
        2
 70
     1
 43
0.0
 10
3.273012
 20
-0.66965
 10
2.831055
 20
2.068038999999999
  0
LWPOLYLINE
  5
626
330
1E
100
AcDbEntity
  8
LAYER_1
  6
CONTINUOUS
 62
     7
100
AcDbPolyline
 90
        2
 70
     1
 43
0.0
 10
1.229638
 20
2.096941
 10
1.584457
 20
-0.526512
  0
LWPOLYLINE
  5
62A
330
1E
100
AcDbEntity
  8
LAYER_1
  6
CONTINUOUS
 62
     7
100
AcDbPolyline
 90
        2
 70
     1
 43
0.0
 10
1.25261
 20
1.714858
 10
1.736594
 20
-0.8878459999999998
  0
LWPOLYLINE
  5
62E
330
1E
100
AcDbEntity
  8
LAYER_1
  6
CONTINUOUS
 62
     7
100
AcDbPolyline
 90
        4
 70
     1
 43
0.0
 10
-3.265909
 20
0.390638
 10
-3.117141999999999
 20
0.390638
 10
-3.117141999999999
 20
0.5460470000000001
 10
-3.265909
 20
0.5460470000000001
  0
LWPOLYLINE
  5
634
330
1E
100
AcDbEntity
  8
LAYER_1
  6
CONTINUOUS
 62
     7
100
AcDbPolyline
 90
        4
 70
     1
 43
0.0
 10
-3.275097999999999
 20
0.569705
 10
-3.178727999999999
 20
0.569705
 10
-3.178727999999999
 20
0.580232
 10
-3.275097999999999
 20
0.580232
  0
LWPOLYLINE
  5
63A
330
1E
100
AcDbEntity
  8
LAYER_1
  6
CONTINUOUS
 62
     7
100
AcDbPolyline
 90
        4
 70
     1
 43
0.0
 10
-3.243149999999999
 20
0.5620390000000001
 10
-3.210318999999999
 20
0.5620390000000001
 10
-3.210318999999999
 20
0.57863
 10
-3.243149999999999
 20
0.57863
  0
LWPOLYLINE
  5
640
330
1E
100
AcDbEntity
  8
LAYER_1
  6
CONTINUOUS
 62
     7
100
AcDbPolyline
 90
        2
 70
     0
 43
0.0
 10
-3.263268
 20
0.5916930000000001
 10
-3.263268
 20
0.558512
  0
LWPOLYLINE
  5
644
330
1E
100
AcDbEntity
  8
LAYER_1
  6
CONTINUOUS
 62
     7
100
AcDbPolyline
 90
        4
 70
     0
 43
0.0
 10
-3.238653999999999
 20
0.5804020000000002
 10
-3.238653999999999
 20
0.58765
 10
-3.214461
 20
0.58765
 10
-3.214461
 20
0.5807479999999999
  0
LWPOLYLINE
  5
64A
330
1E
100
AcDbEntity
  8
LAYER_1
  6
CONTINUOUS
 62
     7
100
AcDbPolyline
 90
        2
 70
     0
 43
0.0
 10
-3.226925
 20
0.6113310000000001
 10
-3.226925
 20
0.430232
  0
LWPOLYLINE
  5
64E
330
1E
100
AcDbEntity
  8
LAYER_1
  6
CONTINUOUS
 62
     7
100
AcDbPolyline
 90
        2
 70
     0
 43
0.0
 10
-3.172956999999999
 20
0.574791
 10
-2.838109999999999
 20
0.574791
  0
LWPOLYLINE
  5
652
330
1E
100
AcDbEntity
  8
LAYER_1
  6
CONTINUOUS
 62
     7
100
AcDbPolyline
 90
        2
 70
     0
 43
0.0
 10
-3.391394
 20
-3.587566999999999
 10
-3.301571
 20
-3.584802999999999
  0
LWPOLYLINE
  5
656
330
1E
100
AcDbEntity
  8
LAYER_1
  6
CONTINUOUS
 62
     7
100
AcDbPolyline
 90
        2
 70
     0
 43
0.0
 10
-3.391369999999999
 20
-3.578555
 10
-3.301551
 20
-3.575791
  0
LWPOLYLINE
  5
65A
330
1E
100
AcDbEntity
  8
LAYER_1
  6
CONTINUOUS
 62
     7
100
AcDbPolyline
 90
        2
 70
     0
 43
0.0
 10
-3.39135
 20
-3.569555
 10
-3.301527999999999
 20
-3.566791
  0
LWPOLYLINE
  5
65E
330
1E
100
AcDbEntity
  8
LAYER_1
  6
CONTINUOUS
 62
     7
100
AcDbPolyline
 90
        2
 70
     0
 43
0.0
 10
-3.391849999999999
 20
-3.560538999999999
 10
-3.302027999999999
 20
-3.557776
  0
LWPOLYLINE
  5
662
330
1E
100
AcDbEntity
  8
LAYER_1
  6
CONTINUOUS
 62
     7
100
AcDbPolyline
 90
        2
 70
     0
 43
0.0
 10
-3.391826999999999
 20
-3.551527999999999
 10
-3.302004
 20
-3.548763999999999
  0
LWPOLYLINE
  5
666
330
1E
100
AcDbEntity
  8
LAYER_1
  6
CONTINUOUS
 62
     7
100
AcDbPolyline
 90
        4
 70
     0
 43
0.0
 10
-3.409476
 20
-3.628109999999999
 10
-3.411077999999999
 20
-3.622194
 10
-3.415283999999999
 20
-3.617987
 10
-3.421201
 20
-3.616385999999999
  0
LWPOLYLINE
  5
66C
330
1E
100
AcDbEntity
  8
LAYER_1
  6
CONTINUOUS
 62
     7
100
AcDbPolyline
 90
        4
 70
     0
 43
0.0
 10
-3.421201
 20
-3.616385999999999
 10
-3.427116999999999
 20
-3.617987
 10
-3.431323999999999
 20
-3.622194
 10
-3.432925
 20
-3.628109999999999
  0
LWPOLYLINE
  5
672
330
1E
100
AcDbEntity
  8
LAYER_1
  6
CONTINUOUS
 62
     7
100
AcDbPolyline
 90
        4
 70
     0
 43
0.0
 10
-3.432925
 20
-3.628109999999999
 10
-3.431323999999999
 20
-3.634026
 10
-3.427116999999999
 20
-3.63823
 10
-3.421201
 20
-3.639830999999999
  0
LWPOLYLINE
  5
678
330
1E
100
AcDbEntity
  8
LAYER_1
  6
CONTINUOUS
 62
     7
100
AcDbPolyline
 90
        4
 70
     0
 43
0.0
 10
-3.421201
 20
-3.639830999999999
 10
-3.415283999999999
 20
-3.63823
 10
-3.411077999999999
 20
-3.634026
 10
-3.409476
 20
-3.628109999999999
  0
LWPOLYLINE
  5
67E
330
1E
100
AcDbEntity
  8
LAYER_1
  6
CONTINUOUS
 62
     7
100
AcDbPolyline
 90
        4
 70
     0
 43
0.0
 10
-3.397751999999999
 20
-3.628122
 10
-3.400952999999999
 20
-3.61629
 10
-3.409365
 20
-3.607879
 10
-3.421201
 20
-3.604676999999999
  0
LWPOLYLINE
  5
684
330
1E
100
AcDbEntity
  8
LAYER_1
  6
CONTINUOUS
 62
     7
100
AcDbPolyline
 90
        4
 70
     0
 43
0.0
 10
-3.421201
 20
-3.604676999999999
 10
-3.433034999999999
 20
-3.607879
 10
-3.441448
 20
-3.61629
 10
-3.44465
 20
-3.628122
  0
LWPOLYLINE
  5
68A
330
1E
100
AcDbEntity
  8
LAYER_1
  6
CONTINUOUS
 62
     7
100
AcDbPolyline
 90
        4
 70
     0
 43
0.0
 10
-3.44465
 20
-3.628122
 10
-3.441448
 20
-3.639953999999999
 10
-3.433034999999999
 20
-3.648365
 10
-3.421201
 20
-3.651567
  0
LWPOLYLINE
  5
690
330
1E
100
AcDbEntity
  8
LAYER_1
  6
CONTINUOUS
 62
     7
100
AcDbPolyline
 90
        4
 70
     0
 43
0.0
 10
-3.421201
 20
-3.651567
 10
-3.409365
 20
-3.648365
 10
-3.400952999999999
 20
-3.639953999999999
 10
-3.397751999999999
 20
-3.628122
  0
LWPOLYLINE
  5
696
330
1E
100
AcDbEntity
  8
LAYER_1
  6
DASHED
 62
     7
100
AcDbPolyline
 90
        2
 70
     0
 43
0.0
 10
-2.372345999999999
 20
-3.628122
 10
-3.917369999999999
 20
-3.628122
  0
LWPOLYLINE
  5
69A
330
1E
100
AcDbEntity
  8
LAYER_1
  6
CONTINUOUS
 62
     7
100
AcDbPolyline
 90
        4
 70
     0
 43
0.0
 10
-3.392023999999999
 20
-3.626676999999999
 10
-3.392023999999999
 20
0.30772
 10
-3.300633999999999
 20
0.308484
 10
-3.300633999999999
 20
-3.62515
  0
LWPOLYLINE
  5
6A0
330
1E
100
AcDbEntity
  8
LAYER_1
  6
CONTINUOUS
 62
     7
100
AcDbPolyline
 90
        2
 70
     0
 43
0.0
 10
-3.390622
 20
0.259803
 10
-3.300798999999999
 20
0.262567
  0
LWPOLYLINE
  5
6A4
330
1E
100
AcDbEntity
  8
LAYER_1
  6
CONTINUOUS
 62
     7
100
AcDbPolyline
 90
        2
 70
     0
 43
0.0
 10
-3.390601999999999
 20
0.268803
 10
-3.30078
 20
0.271567
  0
LWPOLYLINE
  5
6A8
330
1E
100
AcDbEntity
  8
LAYER_1
  6
CONTINUOUS
 62
     7
100
AcDbPolyline
 90
        2
 70
     0
 43
0.0
 10
-3.390587
 20
0.277819
 10
-3.300764
 20
0.280583
  0
LWPOLYLINE
  5
6AC
330
1E
100
AcDbEntity
  8
LAYER_1
  6
CONTINUOUS
 62
     7
100
AcDbPolyline
 90
        2
 70
     0
 43
0.0
 10
-3.391078999999999
 20
0.286831
 10
-3.301255999999999
 20
0.289594
  0
LWPOLYLINE
  5
6B0
330
1E
100
AcDbEntity
  8
LAYER_1
  6
CONTINUOUS
 62
     7
100
AcDbPolyline
 90
        2
 70
     0
 43
0.0
 10
-3.391062999999999
 20
0.295846
 10
-3.301239999999999
 20
0.29861
  0
LWPOLYLINE
  5
6B4
330
1E
100
AcDbEntity
  8
LAYER_1
  6
CONTINUOUS
 62
     7
100
AcDbPolyline
 90
        2
 70
     0
 43
0.0
 10
-3.36215
 20
0.305874
 10
-3.301969
 20
0.308638
  0
LWPOLYLINE
  5
6B8
330
1E
100
AcDbEntity
  8
LAYER_1
  6
CONTINUOUS
 62
     7
100
AcDbPolyline
 90
        2
 70
     0
 43
0.0
 10
-3.36213
 20
0.314886
 10
-3.301944999999999
 20
0.31765
  0
LWPOLYLINE
  5
6BC
330
1E
100
AcDbEntity
  8
LAYER_1
  6
CONTINUOUS
 62
     7
100
AcDbPolyline
 90
        2
 70
     0
 43
0.0
 10
-3.362091
 20
0.323902
 10
-3.301908999999999
 20
0.326665
  0
LWPOLYLINE
  5
6C0
330
1E
100
AcDbEntity
  8
LAYER_1
  6
CONTINUOUS
 62
     7
100
AcDbPolyline
 90
        2
 70
     0
 43
0.0
 10
-3.362751999999999
 20
0.332913
 10
-3.302570999999999
 20
0.335677
  0
LWPOLYLINE
  5
6C4
330
1E
100
AcDbEntity
  8
LAYER_1
  6
CONTINUOUS
 62
     7
100
AcDbPolyline
 90
        2
 70
     0
 43
0.0
 10
-3.362731999999999
 20
0.341913
 10
-3.302547
 20
0.344677
  0
LWPOLYLINE
  5
6C8
330
1E
100
AcDbEntity
  8
LAYER_1
  6
CONTINUOUS
 62
     7
100
AcDbPolyline
 90
        2
 70
     0
 43
0.0
 10
-2.619291
 20
0.307748
 10
-3.712908999999999
 20
0.307748
  0
LWPOLYLINE
  5
6CC
330
1E
100
AcDbEntity
  8
LAYER_1
  6
CONTINUOUS
 62
     7
100
AcDbPolyline
 90
        2
 70
     0
 43
0.0
 10
-2.527137999999999
 20
-3.627412999999999
 10
-2.823583
 20
-3.627412999999999
  0
LWPOLYLINE
  5
6D0
330
1E
100
AcDbEntity
  8
LAYER_1
  6
CONTINUOUS
 62
     7
100
AcDbPolyline
 90
        4
 70
     0
 43
0.0
 10
-2.808231999999999
 20
3.253763999999999
 10
-2.808781999999999
 20
3.259908
 10
-2.812631999999999
 20
3.302915
 10
-2.823083
 20
3.419649999999999
  0
LWPOLYLINE
  5
6D6
330
1E
100
AcDbEntity
  8
LAYER_1
  6
CONTINUOUS
 62
     7
100
AcDbPolyline
 90
       11
 70
     0
 43
0.0
 10
-2.823083
 20
3.419649999999999
 10
-2.827954999999999
 20
3.474108
 10
-2.833577999999999
 20
3.536811
 10
-2.839809999999999
 20
3.606051
 10
-2.846510999999999
 20
3.680119
 10
-2.853536999999999
 20
3.757308999999999
 10
-2.860749
 20
3.835910999999999
 10
-2.868002999999999
 20
3.914217999999999
 10
-2.875159999999999
 20
3.990523
 10
-2.882075999999999
 20
4.063115999999999
 10
-2.888609999999999
 20
4.130291
  0
LWPOLYLINE
  5
6E3
330
1E
100
AcDbEntity
  8
LAYER_1
  6
CONTINUOUS
 62
     7
100
AcDbPolyline
 90
        6
 70
     0
 43
0.0
 10
-2.888609999999999
 20
4.130291
 10
-2.900228999999999
 20
4.244596999999999
 10
-2.910163
 20
4.334960999999999
 10
-2.91882
 20
4.405958
 10
-2.926604
 20
4.462158999999999
 10
-2.933920999999999
 20
4.508137999999999
  0
LWPOLYLINE
  5
6EB
330
1E
100
AcDbEntity
  8
LAYER_1
  6
CONTINUOUS
 62
     7
100
AcDbPolyline
 90
        4
 70
     0
 43
0.0
 10
-2.933920999999999
 20
4.508137999999999
 10
-2.945826999999999
 20
4.571341
 10
-2.957302999999999
 20
4.621234999999999
 10
-2.968097999999999
 20
4.660205
  0
LWPOLYLINE
  5
6F1
330
1E
100
AcDbEntity
  8
LAYER_1
  6
CONTINUOUS
 62
     7
100
AcDbPolyline
 90
        4
 70
     0
 43
0.0
 10
-2.968097999999999
 20
4.660205
 10
-2.978015999999999
 20
4.690370999999999
 10
-2.987109
 20
4.712772
 10
-2.995487999999999
 20
4.728176999999999
  0
LWPOLYLINE
  5
6F7
330
1E
100
AcDbEntity
  8
LAYER_1
  6
CONTINUOUS
 62
     7
100
AcDbPolyline
 90
        4
 70
     0
 43
0.0
 10
-2.995487999999999
 20
4.728176999999999
 10
-3.003413999999999
 20
4.737508
 10
-3.011711999999999
 20
4.742348
 10
-3.021345999999999
 20
4.744429
  0
LWPOLYLINE
  5
6FD
330
1E
100
AcDbEntity
  8
LAYER_1
  6
CONTINUOUS
 62
     7
100
AcDbPolyline
 90
        4
 70
     0
 43
0.0
 10
-3.021345999999999
 20
4.744429
 10
-3.032731999999999
 20
4.745256999999999
 10
-3.044090999999999
 20
4.745433
 10
-3.053090999999999
 20
4.745319
  0
LWPOLYLINE
  5
703
330
1E
100
AcDbEntity
  8
LAYER_1
  6
CONTINUOUS
 62
     7
100
AcDbPolyline
 90
        4
 70
     0
 43
0.0
 10
-3.053090999999999
 20
4.745319
 10
-3.058040999999999
 20
4.74523
 10
-3.059865
 20
4.745198
 10
-3.060125999999999
 20
4.745193
  0
LWPOLYLINE
  5
709
330
1E
100
AcDbEntity
  8
LAYER_1
  6
CONTINUOUS
 62
     7
100
AcDbPolyline
 90
        3
 70
     0
 43
0.0
 10
-2.527137999999999
 20
-3.627412999999999
 10
-2.619302999999999
 20
0.307764
 10
-2.808231999999999
 20
3.246083
  0
LWPOLYLINE
  5
70E
330
1E
100
AcDbEntity
  8
LAYER_1
  6
DASHED
 62
     7
100
AcDbPolyline
 90
        4
 70
     0
 43
0.0
 10
-3.482523999999999
 20
4.146164999999999
 10
-3.410334999999999
 20
4.748263999999999
 10
-2.943393999999999
 20
4.748263999999999
 10
-2.901924999999999
 20
4.301302999999999
  0
LWPOLYLINE
  5
714
330
1E
100
AcDbEntity
  8
LAYER_1
  6
CONTINUOUS
 62
     7
100
AcDbPolyline
 90
        4
 70
     0
 43
0.0
 10
-3.588503999999999
 20
3.250693
 10
-3.587924999999999
 20
3.255699
 10
-3.583876
 20
3.290741999999999
 10
-3.572886
 20
3.385858
  0
LWPOLYLINE
  5
71A
330
1E
100
AcDbEntity
  8
LAYER_1
  6
CONTINUOUS
 62
     7
100
AcDbPolyline
 90
        9
 70
     0
 43
0.0
 10
-3.572886
 20
3.385858
 10
-3.566341
 20
3.442455999999999
 10
-3.558591
 20
3.509169999999999
 10
-3.549891999999999
 20
3.583442999999999
 10
-3.540502999999999
 20
3.662719999999999
 10
-3.530683
 20
3.744444999999999
 10
-3.520687999999999
 20
3.826062
 10
-3.510776999999999
 20
3.905015
 10
-3.501208999999999
 20
3.978748
  0
LWPOLYLINE
  5
725
330
1E
100
AcDbEntity
  8
LAYER_1
  6
CONTINUOUS
 62
     7
100
AcDbPolyline
 90
        6
 70
     0
 43
0.0
 10
-3.501208999999999
 20
3.978748
 10
-3.486968
 20
4.081843
 10
-3.473612999999999
 20
4.168718
 10
-3.460491
 20
4.243058999999999
 10
-3.446951999999999
 20
4.308552999999999
 10
-3.432342999999999
 20
4.368885999999999
  0
LWPOLYLINE
  5
72D
330
1E
100
AcDbEntity
  8
LAYER_1
  6
CONTINUOUS
 62
     7
100
AcDbPolyline
 90
        4
 70
     0
 43
0.0
 10
-3.432342999999999
 20
4.368885999999999
 10
-3.404688999999999
 20
4.464127999999999
 10
-3.374244999999999
 20
4.549183
 10
-3.343004
 20
4.617969
  0
LWPOLYLINE
  5
733
330
1E
100
AcDbEntity
  8
LAYER_1
  6
CONTINUOUS
 62
     7
100
AcDbPolyline
 90
        4
 70
     0
 43
0.0
 10
-3.343004
 20
4.617969
 10
-3.312748
 20
4.666323999999999
 10
-3.284426999999999
 20
4.697780999999999
 10
-3.258779999999999
 20
4.717802999999999
  0
LWPOLYLINE
  5
739
330
1E
100
AcDbEntity
  8
LAYER_1
  6
CONTINUOUS
 62
     7
100
AcDbPolyline
 90
        4
 70
     0
 43
0.0
 10
-3.258779999999999
 20
4.717802999999999
 10
-3.235740999999999
 20
4.731122
 10
-3.212018999999999
 20
4.739549
 10
-3.183516
 20
4.744164999999999
  0
LWPOLYLINE
  5
73F
330
1E
100
AcDbEntity
  8
LAYER_1
  6
CONTINUOUS
 62
     7
100
AcDbPolyline
 90
        4
 70
     0
 43
0.0
 10
-3.183516
 20
4.744164999999999
 10
-3.148161999999999
 20
4.746049
 10
-3.111952999999999
 20
4.74622
 10
-3.082908999999999
 20
4.745705
  0
LWPOLYLINE
  5
745
330
1E
100
AcDbEntity
  8
LAYER_1
  6
CONTINUOUS
 62
     7
100
AcDbPolyline
 90
        4
 70
     0
 43
0.0
 10
-3.082908999999999
 20
4.745705
 10
-3.066876999999999
 20
4.745344999999999
 10
-3.06097
 20
4.745212
 10
-3.060125999999999
 20
4.745193
  0
LWPOLYLINE
  5
74B
330
1E
100
AcDbEntity
  8
LAYER_1
  6
DASHED
 62
     7
100
AcDbPolyline
 90
        2
 70
     0
 43
0.0
 10
-3.588503999999999
 20
3.247622
 10
-2.808231999999999
 20
3.247622
  0
LWPOLYLINE
  5
74F
330
1E
100
AcDbEntity
  8
LAYER_1
  6
CONTINUOUS
 62
     7
100
AcDbPolyline
 90
        3
 70
     0
 43
0.0
 10
-3.745169
 20
-3.628193
 10
-3.712917
 20
0.307748
 10
-3.588503999999999
 20
3.246083
  0
LWPOLYLINE
  5
754
330
1E
100
AcDbEntity
  8
LAYER_1
  6
CONTINUOUS
 62
     7
100
AcDbPolyline
 90
        3
 70
     0
 43
0.0
 10
-2.830499999999999
 20
-3.626665
 10
-2.895783
 20
0.307748
 10
-3.060125999999999
 20
4.745193
  0
LWPOLYLINE
  5
759
330
1E
100
AcDbEntity
  8
LAYER_1
  6
CONTINUOUS
 62
     7
100
AcDbPolyline
 90
        7
 70
     0
 43
0.0
 10
-3.301212999999999
 20
-3.62765
 10
-3.301212999999999
 20
-3.590027999999999
 10
-3.421791
 20
-3.590027999999999
 10
-3.440991999999999
 20
-3.593857999999999
 10
-3.45328
 20
-3.602303
 10
-3.460957
 20
-3.613830999999999
 10
-3.462491999999999
 20
-3.629192999999999
  0
LWPOLYLINE
  5
762
330
1E
100
AcDbEntity
  8
LAYER_1
  6
CONTINUOUS
 62
     7
100
AcDbPolyline
 90
        4
 70
     0
 43
0.0
 10
-3.361886
 20
0.307539
 10
-3.324255999999999
 20
4.599831
 10
-3.300448999999999
 20
4.645137999999999
 10
-3.300448999999999
 20
0.307539
  0
LWPOLYLINE
  5
768
330
1E
100
AcDbEntity
  8
LAYER_1
  6
CONTINUOUS
 62
     7
100
AcDbPolyline
 90
        4
 70
     1
 43
0.0
 10
-3.358389999999999
 20
0.000319
 10
-3.302408999999999
 20
0.000319
 10
-3.302408999999999
 20
0.622394
 10
-3.358389999999999
 20
0.622394
  0
LWPOLYLINE
  5
76E
330
1E
100
AcDbEntity
  8
LAYER_1
  6
CONTINUOUS
 62
     7
100
AcDbPolyline
 90
        4
 70
     0
 43
0.0
 10
-2.909468999999999
 20
-3.628109999999999
 10
-2.911070999999999
 20
-3.622194
 10
-2.91528
 20
-3.617987
 10
-2.921197
 20
-3.616385999999999
  0
LWPOLYLINE
  5
774
330
1E
100
AcDbEntity
  8
LAYER_1
  6
CONTINUOUS
 62
     7
100
AcDbPolyline
 90
        4
 70
     0
 43
0.0
 10
-2.921197
 20
-3.616385999999999
 10
-2.927111999999999
 20
-3.617987
 10
-2.931316999999999
 20
-3.622194
 10
-2.932916999999999
 20
-3.628109999999999
  0
LWPOLYLINE
  5
77A
330
1E
100
AcDbEntity
  8
LAYER_1
  6
CONTINUOUS
 62
     7
100
AcDbPolyline
 90
        4
 70
     0
 43
0.0
 10
-2.932916999999999
 20
-3.628109999999999
 10
-2.931316999999999
 20
-3.634026
 10
-2.927111999999999
 20
-3.63823
 10
-2.921197
 20
-3.639830999999999
  0
LWPOLYLINE
  5
780
330
1E
100
AcDbEntity
  8
LAYER_1
  6
CONTINUOUS
 62
     7
100
AcDbPolyline
 90
        4
 70
     0
 43
0.0
 10
-2.921197
 20
-3.639830999999999
 10
-2.91528
 20
-3.63823
 10
-2.911070999999999
 20
-3.634026
 10
-2.909468999999999
 20
-3.628109999999999
  0
LWPOLYLINE
  5
786
330
1E
100
AcDbEntity
  8
LAYER_1
  6
CONTINUOUS
 62
     7
100
AcDbPolyline
 90
        4
 70
     0
 43
0.0
 10
-2.897747999999999
 20
-3.628122
 10
-2.900949
 20
-3.61629
 10
-2.909361
 20
-3.607879
 10
-2.921197
 20
-3.604676999999999
  0
LWPOLYLINE
  5
78C
330
1E
100
AcDbEntity
  8
LAYER_1
  6
CONTINUOUS
 62
     7
100
AcDbPolyline
 90
        4
 70
     0
 43
0.0
 10
-2.921197
 20
-3.604676999999999
 10
-2.933031
 20
-3.607879
 10
-2.941443999999999
 20
-3.61629
 10
-2.944646
 20
-3.628122
  0
LWPOLYLINE
  5
792
330
1E
100
AcDbEntity
  8
LAYER_1
  6
CONTINUOUS
 62
     7
100
AcDbPolyline
 90
        4
 70
     0
 43
0.0
 10
-2.944646
 20
-3.628122
 10
-2.941443999999999
 20
-3.639953999999999
 10
-2.933031
 20
-3.648365
 10
-2.921197
 20
-3.651567
  0
LWPOLYLINE
  5
798
330
1E
100
AcDbEntity
  8
LAYER_1
  6
CONTINUOUS
 62
     7
100
AcDbPolyline
 90
        4
 70
     0
 43
0.0
 10
-2.921197
 20
-3.651567
 10
-2.909361
 20
-3.648365
 10
-2.900949
 20
-3.639953999999999
 10
-2.897747999999999
 20
-3.628122
  0
LWPOLYLINE
  5
79E
330
1E
100
AcDbEntity
  8
LAYER_1
  6
CONTINUOUS
 62
     7
100
AcDbPolyline
 90
        2
 70
     0
 43
0.0
 10
-3.166815
 20
-2.822791
 10
-2.748263999999999
 20
-2.822791
  0
SOLID
  5
7A2
330
1E
100
AcDbEntity
  8
LAYER_1
  6
CONTINUOUS
 62
   253
100
AcDbTrace
 10
2.738528
 20
-1.260512
 30
0.0
 11
3.371164999999999
 21
-1.236554999999999
 31
0.0
 12
2.745066999999999
 22
-2.010038999999999
 32
0.0
 13
3.399205
 23
-1.985885999999999
 33
0.0
  0
LWPOLYLINE
  5
7A3
330
1E
100
AcDbEntity
  8
LAYER_1
  6
CONTINUOUS
 62
   253
100
AcDbPolyline
 90
        4
 70
     1
 43
0.003
 10
2.738528
 20
-1.260512
 10
3.371164999999999
 20
-1.236554999999999
 10
3.399205
 20
-1.985885999999999
 10
2.745066999999999
 20
-2.010038999999999
  0
LWPOLYLINE
  5
7A9
330
1E
100
AcDbEntity
  8
LAYER_1
  6
CONTINUOUS
 62
     7
100
AcDbPolyline
 90
        4
 70
     1
 43
0.003
 10
2.738528
 20
-1.260512
 10
3.371164999999999
 20
-1.236554999999999
 10
3.399205
 20
-1.985885999999999
 10
2.745066999999999
 20
-2.010038999999999
  0
SOLID
  5
7AF
330
1E
100
AcDbEntity
  8
LAYER_1
  6
CONTINUOUS
 62
   153
100
AcDbTrace
 10
1.258583
 20
-1.771386
 30
0.0
 11
1.241983999999999
 21
-1.296412999999999
 31
0.0
 12
1.821968999999999
 22
-1.751704999999999
 32
0.0
 13
1.805386
 23
-1.276731999999999
 33
0.0
  0
LWPOLYLINE
  5
7B0
330
1E
100
AcDbEntity
  8
LAYER_1
  6
CONTINUOUS
 62
   153
100
AcDbPolyline
 90
        4
 70
     1
 43
0.003
 10
1.258583
 20
-1.771386
 10
1.241983999999999
 20
-1.296412999999999
 10
1.805386
 20
-1.276731999999999
 10
1.821968999999999
 20
-1.751704999999999
  0
LWPOLYLINE
  5
7B6
330
1E
100
AcDbEntity
  8
LAYER_1
  6
CONTINUOUS
 62
     7
100
AcDbPolyline
 90
        4
 70
     1
 43
0.003
 10
1.258583
 20
-1.771386
 10
1.241983999999999
 20
-1.296412999999999
 10
1.805386
 20
-1.276731999999999
 10
1.821968999999999
 20
-1.751704999999999
  0
SOLID
  5
7BC
330
1E
100
AcDbEntity
  8
LAYER_1
  6
CONTINUOUS
 62
     7
100
AcDbTrace
 10
1.799957
 20
-1.751109999999999
 30
0.0
 11
1.783457
 21
-1.278764
 31
0.0
 12
1.842176999999999
 22
-1.749638
 32
0.0
 13
1.825676999999999
 23
-1.277290999999999
 33
0.0
  0
LWPOLYLINE
  5
7BD
330
1E
100
AcDbEntity
  8
LAYER_1
  6
CONTINUOUS
 62
     7
100
AcDbPolyline
 90
        4
 70
     1
 43
0.003
 10
1.799957
 20
-1.751109999999999
 10
1.783457
 20
-1.278764
 10
1.825676999999999
 20
-1.277290999999999
 10
1.842176999999999
 20
-1.749638
  0
LWPOLYLINE
  5
7C3
330
1E
100
AcDbEntity
  8
LAYER_1
  6
CONTINUOUS
 62
     7
100
AcDbPolyline
 90
        4
 70
     1
 43
0.0
 10
1.799957
 20
-1.751109999999999
 10
1.783457
 20
-1.278764
 10
1.825676999999999
 20
-1.277290999999999
 10
1.842176999999999
 20
-1.749638
  0
LWPOLYLINE
  5
7C9
330
1E
100
AcDbEntity
  8
LAYER_1
  6
CONTINUOUS
 62
   137
100
AcDbPolyline
 90
       16
 70
     1
 43
0.003
 10
1.635054999999999
 20
-1.518302999999999
 10
1.617207999999999
 20
-1.434906999999999
 10
1.573568
 20
-1.367935
 10
1.510585
 20
-1.324084
 10
1.434704999999999
 20
-1.310054999999999
 10
1.359885
 20
-1.329938999999999
 10
1.2998
 20
-1.378576
 10
1.26046
 20
-1.448778
 10
1.247873999999999
 20
-1.533357999999999
 10
1.265720999999999
 20
-1.616755999999999
 10
1.30936
 20
-1.683729999999999
 10
1.372343
 20
-1.727580999999999
 10
1.44822
 20
-1.741609999999999
 10
1.523044999999999
 20
-1.721716999999999
 10
1.583132999999999
 20
-1.673079999999999
 10
1.622473999999999
 20
-1.602881
  0
LWPOLYLINE
  5
7DB
330
1E
100
AcDbEntity
  8
LAYER_1
  6
CONTINUOUS
 62
     7
100
AcDbPolyline
 90
        5
 70
     0
 43
0.003
 10
1.635054999999999
 20
-1.518302999999999
 10
1.617207999999999
 20
-1.434906999999999
 10
1.573568
 20
-1.367935
 10
1.510585
 20
-1.324084
 10
1.434704999999999
 20
-1.310054999999999
  0
LWPOLYLINE
  5
7E2
330
1E
100
AcDbEntity
  8
LAYER_1
  6
CONTINUOUS
 62
     7
100
AcDbPolyline
 90
        5
 70
     0
 43
0.003
 10
1.434704999999999
 20
-1.310054999999999
 10
1.359885
 20
-1.329938999999999
 10
1.2998
 20
-1.378576
 10
1.26046
 20
-1.448778
 10
1.247873999999999
 20
-1.533357999999999
  0
LWPOLYLINE
  5
7E9
330
1E
100
AcDbEntity
  8
LAYER_1
  6
CONTINUOUS
 62
     7
100
AcDbPolyline
 90
        5
 70
     0
 43
0.003
 10
1.247873999999999
 20
-1.533357999999999
 10
1.265720999999999
 20
-1.616755999999999
 10
1.30936
 20
-1.683729999999999
 10
1.372343
 20
-1.727580999999999
 10
1.44822
 20
-1.741609999999999
  0
LWPOLYLINE
  5
7F0
330
1E
100
AcDbEntity
  8
LAYER_1
  6
CONTINUOUS
 62
     7
100
AcDbPolyline
 90
        5
 70
     0
 43
0.003
 10
1.44822
 20
-1.741609999999999
 10
1.523044999999999
 20
-1.721716999999999
 10
1.583132999999999
 20
-1.673079999999999
 10
1.622473999999999
 20
-1.602881
 10
1.635054999999999
 20
-1.518302999999999
  0
LWPOLYLINE
  5
7F7
330
1E
100
AcDbEntity
  8
LAYER_1
  6
CONTINUOUS
 62
     7
100
AcDbPolyline
 90
       12
 70
     1
 43
0.003
 10
1.609901999999999
 20
-1.519290999999999
 10
1.583931999999999
 20
-1.425420999999999
 10
1.521392
 20
-1.360416
 10
1.435583
 20
-1.338094
 10
1.35137
 20
-1.367030999999999
 10
1.293048999999999
 20
-1.436735999999999
 10
1.273012
 20
-1.532385999999999
 10
1.298982
 20
-1.626255999999999
 10
1.361526
 20
-1.691263
 10
1.447346
 20
-1.713593999999999
 10
1.531547999999999
 20
-1.684647
 10
1.589864999999999
 20
-1.614938999999999
  0
LWPOLYLINE
  5
805
330
1E
100
AcDbEntity
  8
LAYER_1
  6
CONTINUOUS
 62
     7
100
AcDbPolyline
 90
        4
 70
     0
 43
0.003
 10
1.609901999999999
 20
-1.519290999999999
 10
1.583931999999999
 20
-1.425420999999999
 10
1.521392
 20
-1.360416
 10
1.435583
 20
-1.338094
  0
LWPOLYLINE
  5
80B
330
1E
100
AcDbEntity
  8
LAYER_1
  6
CONTINUOUS
 62
     7
100
AcDbPolyline
 90
        4
 70
     0
 43
0.003
 10
1.435583
 20
-1.338094
 10
1.35137
 20
-1.367030999999999
 10
1.293048999999999
 20
-1.436735999999999
 10
1.273012
 20
-1.532385999999999
  0
LWPOLYLINE
  5
811
330
1E
100
AcDbEntity
  8
LAYER_1
  6
CONTINUOUS
 62
     7
100
AcDbPolyline
 90
        4
 70
     0
 43
0.003
 10
1.273012
 20
-1.532385999999999
 10
1.298982
 20
-1.626255999999999
 10
1.361526
 20
-1.691263
 10
1.447346
 20
-1.713593999999999
  0
LWPOLYLINE
  5
817
330
1E
100
AcDbEntity
  8
LAYER_1
  6
CONTINUOUS
 62
     7
100
AcDbPolyline
 90
        4
 70
     0
 43
0.003
 10
1.447346
 20
-1.713593999999999
 10
1.531547999999999
 20
-1.684647
 10
1.589864999999999
 20
-1.614938999999999
 10
1.609901999999999
 20
-1.519290999999999
  0
SOLID
  5
81D
330
1E
100
AcDbEntity
  8
LAYER_1
  6
CONTINUOUS
 62
     7
100
AcDbTrace
 10
3.341083
 20
-1.988413
 30
0.0
 11
3.315555
 21
-1.242593999999999
 31
0.0
 12
3.423983999999999
 22
-1.985483999999999
 32
0.0
 13
3.398457
 23
-1.239665
 33
0.0
  0
LWPOLYLINE
  5
81E
330
1E
100
AcDbEntity
  8
LAYER_1
  6
CONTINUOUS
 62
     7
100
AcDbPolyline
 90
        4
 70
     1
 43
0.003
 10
3.341083
 20
-1.988413
 10
3.315555
 20
-1.242593999999999
 10
3.398457
 20
-1.239665
 10
3.423983999999999
 20
-1.985483999999999
  0
LWPOLYLINE
  5
824
330
1E
100
AcDbEntity
  8
LAYER_1
  6
CONTINUOUS
 62
     7
100
AcDbPolyline
 90
        4
 70
     1
 43
0.0
 10
3.341083
 20
-1.988413
 10
3.315555
 20
-1.242593999999999
 10
3.398457
 20
-1.239665
 10
3.423983999999999
 20
-1.985483999999999
  0
SOLID
  5
82A
330
1E
100
AcDbEntity
  8
LAYER_1
  6
CONTINUOUS
 62
     7
100
AcDbTrace
 10
2.701775999999999
 20
-2.011638
 30
0.0
 11
2.676247999999999
 21
-1.265819
 31
0.0
 12
2.784664999999999
 22
-2.008704999999999
 32
0.0
 13
2.759149999999999
 23
-1.262901999999999
 33
0.0
  0
LWPOLYLINE
  5
82B
330
1E
100
AcDbEntity
  8
LAYER_1
  6
CONTINUOUS
 62
     7
100
AcDbPolyline
 90
        4
 70
     1
 43
0.003
 10
2.701775999999999
 20
-2.011638
 10
2.676247999999999
 20
-1.265819
 10
2.759149999999999
 20
-1.262901999999999
 10
2.784664999999999
 20
-2.008704999999999
  0
LWPOLYLINE
  5
831
330
1E
100
AcDbEntity
  8
LAYER_1
  6
CONTINUOUS
 62
     7
100
AcDbPolyline
 90
        4
 70
     1
 43
0.0
 10
2.701775999999999
 20
-2.011638
 10
2.676247999999999
 20
-1.265819
 10
2.759149999999999
 20
-1.262901999999999
 10
2.784664999999999
 20
-2.008704999999999
  0
SOLID
  5
837
330
1E
100
AcDbEntity
  8
LAYER_1
  6
CONTINUOUS
 62
     7
100
AcDbTrace
 10
2.692622
 20
-2.012290999999999
 30
0.0
 11
2.670802999999999
 21
-1.387528
 31
0.0
 12
2.700593999999999
 22
-2.012011999999999
 32
0.0
 13
2.678790999999999
 23
-1.387248
 33
0.0
  0
LWPOLYLINE
  5
838
330
1E
100
AcDbEntity
  8
LAYER_1
  6
CONTINUOUS
 62
     7
100
AcDbPolyline
 90
        4
 70
     1
 43
0.003
 10
2.692622
 20
-2.012290999999999
 10
2.670802999999999
 20
-1.387528
 10
2.678790999999999
 20
-1.387248
 10
2.700593999999999
 20
-2.012011999999999
  0
LWPOLYLINE
  5
83E
330
1E
100
AcDbEntity
  8
LAYER_1
  6
CONTINUOUS
 62
     7
100
AcDbPolyline
 90
        4
 70
     1
 43
0.003
 10
2.692622
 20
-2.012290999999999
 10
2.670802999999999
 20
-1.387528
 10
2.678790999999999
 20
-1.387248
 10
2.700593999999999
 20
-2.012011999999999
  0
SOLID
  5
844
330
1E
100
AcDbEntity
  8
LAYER_1
  6
CONTINUOUS
 62
     7
100
AcDbTrace
 10
2.684275999999999
 20
-2.011609999999999
 30
0.0
 11
2.669039
 21
-1.575083
 31
0.0
 12
2.692263999999999
 22
-2.011331
 32
0.0
 13
2.677011999999999
 23
-1.574803
 33
0.0
  0
LWPOLYLINE
  5
845
330
1E
100
AcDbEntity
  8
LAYER_1
  6
CONTINUOUS
 62
     7
100
AcDbPolyline
 90
        4
 70
     1
 43
0.003
 10
2.684275999999999
 20
-2.011609999999999
 10
2.669039
 20
-1.575083
 10
2.677011999999999
 20
-1.574803
 10
2.692263999999999
 20
-2.011331
  0
LWPOLYLINE
  5
84B
330
1E
100
AcDbEntity
  8
LAYER_1
  6
CONTINUOUS
 62
     7
100
AcDbPolyline
 90
        4
 70
     1
 43
0.003
 10
2.684275999999999
 20
-2.011609999999999
 10
2.669039
 20
-1.575083
 10
2.677011999999999
 20
-1.574803
 10
2.692263999999999
 20
-2.011331
  0
SOLID
  5
851
330
1E
100
AcDbEntity
  8
LAYER_1
  6
CONTINUOUS
 62
     7
100
AcDbTrace
 10
2.676083
 20
-2.012413
 30
0.0
 11
2.667402
 21
-1.763732
 31
0.0
 12
2.684054999999999
 22
-2.012122
 32
0.0
 13
2.675374
 23
-1.763457
 33
0.0
  0
LWPOLYLINE
  5
852
330
1E
100
AcDbEntity
  8
LAYER_1
  6
CONTINUOUS
 62
     7
100
AcDbPolyline
 90
        4
 70
     1
 43
0.003
 10
2.676083
 20
-2.012413
 10
2.667402
 20
-1.763732
 10
2.675374
 20
-1.763457
 10
2.684054999999999
 20
-2.012122
  0
LWPOLYLINE
  5
858
330
1E
100
AcDbEntity
  8
LAYER_1
  6
CONTINUOUS
 62
     7
100
AcDbPolyline
 90
        4
 70
     1
 43
0.003
 10
2.676083
 20
-2.012413
 10
2.667402
 20
-1.763732
 10
2.675374
 20
-1.763457
 10
2.684054999999999
 20
-2.012122
  0
SOLID
  5
85E
330
1E
100
AcDbEntity
  8
LAYER_1
  6
CONTINUOUS
 62
     7
100
AcDbTrace
 10
1.214291
 20
-1.767374
 30
0.0
 11
1.218412999999999
 21
-1.294764
 31
0.0
 12
1.256528
 22
-1.767732
 32
0.0
 13
1.26065
 23
-1.295121999999999
 33
0.0
  0
LWPOLYLINE
  5
85F
330
1E
100
AcDbEntity
  8
LAYER_1
  6
CONTINUOUS
 62
     7
100
AcDbPolyline
 90
        4
 70
     1
 43
0.003
 10
1.214291
 20
-1.767374
 10
1.218412999999999
 20
-1.294764
 10
1.26065
 20
-1.295121999999999
 10
1.256528
 20
-1.767732
  0
LWPOLYLINE
  5
865
330
1E
100
AcDbEntity
  8
LAYER_1
  6
CONTINUOUS
 62
     7
100
AcDbPolyline
 90
        4
 70
     1
 43
0.0
 10
1.214291
 20
-1.767374
 10
1.218412999999999
 20
-1.294764
 10
1.26065
 20
-1.295121999999999
 10
1.256528
 20
-1.767732
  0
LWPOLYLINE
  5
86B
330
1E
100
AcDbEntity
  8
LAYER_1
  6
CONTINUOUS
 62
     7
100
AcDbPolyline
 90
        2
 70
     1
 43
0.0
 10
-1.485637999999999
 20
-0.269413
 10
-1.878692999999999
 20
0.082346
  0
LWPOLYLINE
  5
86F
330
1E
100
AcDbEntity
  8
LAYER_1
  6
CONTINUOUS
 62
     7
100
AcDbPolyline
 90
        2
 70
     1
 43
0.0
 10
-1.483649999999999
 20
-0.276028
 10
-1.906122
 20
-0.601012
  0
LWPOLYLINE
  5
873
330
1E
100
AcDbEntity
  8
LAYER_1
  6
CONTINUOUS
 62
     7
100
AcDbPolyline
 90
        2
 70
     1
 43
0.0
 10
-1.999483999999999
 20
-0.2485
 10
-1.480177
 20
-0.2705389999999999
  0
LWPOLYLINE
  5
877
330
1E
100
AcDbEntity
  8
LAYER_1
  6
CONTINUOUS
 62
     7
100
AcDbPolyline
 90
        4
 70
     1
 43
0.0
 10
-1.479802999999999
 20
-0.282276
 10
-1.483594
 20
-0.281075
 10
-1.486207999999999
 20
-0.2782360000000001
 10
-1.487082999999999
 20
-0.274358
  0
LWPOLYLINE
  5
87D
330
1E
100
AcDbEntity
  8
LAYER_1
  6
CONTINUOUS
 62
     7
100
AcDbPolyline
 90
        4
 70
     1
 43
0.0
 10
-1.487082999999999
 20
-0.274358
 10
-1.485887
 20
-0.270571
 10
-1.483044
 20
-0.267962
 10
-1.479165
 20
-0.267083
  0
LWPOLYLINE
  5
883
330
1E
100
AcDbEntity
  8
LAYER_1
  6
CONTINUOUS
 62
     7
100
AcDbPolyline
 90
        4
 70
     1
 43
0.0
 10
-1.479165
 20
-0.267083
 10
-1.475376999999999
 20
-0.268283
 10
-1.472771999999999
 20
-0.271121
 10
-1.471902
 20
-0.274996
  0
LWPOLYLINE
  5
889
330
1E
100
AcDbEntity
  8
LAYER_1
  6
CONTINUOUS
 62
     7
100
AcDbPolyline
 90
        4
 70
     1
 43
0.0
 10
-1.471902
 20
-0.274996
 10
-1.473094
 20
-0.278785
 10
-1.475932999999999
 20
-0.281394
 10
-1.479802999999999
 20
-0.282276
  0
LWPOLYLINE
  5
88F
330
1E
100
AcDbEntity
  8
LAYER_1
  6
CONTINUOUS
 62
     7
100
AcDbPolyline
 90
        4
 70
     1
 43
0.0
 10
-1.765122
 20
-1.082027999999999
 10
-1.715818999999999
 20
0.043677
 10
-1.218790999999999
 20
0.021913
 10
-1.268094
 20
-1.103790999999999
  0
TEXT
  5
895
330
1E
100
AcDbEntity
  8
LAYER_1
 62
     7
100
AcDbText
 10
-1.588204999999999
 20
-1.013028
 30
0.0
 40
0.100201
  1
DS368
 50
87.492219492342
 41
0.7939367916170866
  7
SN1
 72
     5
 11
-1.571961
 21
-0.6421350000000001
 31
0.0
100
AcDbText
  0
SOLID
  5
896
330
1E
100
AcDbEntity
  8
LAYER_1
  6
CONTINUOUS
100
AcDbTrace
 10
-0.095429
 20
2.444665
 30
0.0
 11
-0.040205
 21
2.436583
 31
0.0
 12
-0.091386
 22
2.498555
 32
0.0
 13
-0.03211
 23
2.489122
 33
0.0
  0
LWPOLYLINE
  5
897
330
1E
100
AcDbEntity
  8
LAYER_1
  6
CONTINUOUS
100
AcDbPolyline
 90
        4
 70
     1
 43
0.0
 10
-0.095429
 20
2.444665
 10
-0.040205
 20
2.436583
 10
-0.03211
 20
2.489122
 10
-0.091386
 20
2.498555
  0
LWPOLYLINE
  5
89D
330
1E
100
AcDbEntity
  8
LAYER_1
  6
CONTINUOUS
 62
     7
100
AcDbPolyline
 90
        2
 70
     1
 43
0.0
 10
0.25872
 20
2.432331
 10
-0.068665
 20
2.433676999999999
  0
LWPOLYLINE
  5
8A1
330
1E
100
AcDbEntity
  8
LAYER_1
  6
CONTINUOUS
 62
     7
100
AcDbPolyline
 90
        2
 70
     1
 43
0.0
 10
0.25872
 20
2.444456999999999
 10
-0.060583
 20
2.499693
  0
SOLID
  5
8A5
330
1E
100
AcDbEntity
  8
LAYER_1
  6
CONTINUOUS
100
AcDbTrace
 10
-0.609
 20
1.928747999999999
 30
0.0
 11
-0.561969
 21
1.926066999999999
 31
0.0
 12
-0.600929
 22
1.989204999999999
 32
0.0
 13
-0.552567
 23
1.982483999999999
 33
0.0
  0
LWPOLYLINE
  5
8A6
330
1E
100
AcDbEntity
  8
LAYER_1
  6
CONTINUOUS
100
AcDbPolyline
 90
        4
 70
     1
 43
0.0
 10
-0.609
 20
1.928747999999999
 10
-0.561969
 20
1.926066999999999
 10
-0.552567
 20
1.982483999999999
 10
-0.600929
 20
1.989204999999999
  0
SOLID
  5
8AC
330
1E
100
AcDbEntity
  8
LAYER_1
  6
CONTINUOUS
100
AcDbTrace
 10
-1.588345999999999
 20
1.910609999999999
 30
0.0
 11
-1.531247999999999
 21
1.907929
 31
0.0
 12
-1.572886
 22
2.026137999999999
 32
0.0
 13
-1.521164999999999
 23
2.012039
 33
0.0
  0
LWPOLYLINE
  5
8AD
330
1E
100
AcDbEntity
  8
LAYER_1
  6
CONTINUOUS
100
AcDbPolyline
 90
        4
 70
     1
 43
0.0
 10
-1.588345999999999
 20
1.910609999999999
 10
-1.531247999999999
 20
1.907929
 10
-1.521164999999999
 20
2.012039
 10
-1.572886
 20
2.026137999999999
  0
LWPOLYLINE
  5
8B3
330
1E
100
AcDbEntity
  8
LAYER_1
  6
CONTINUOUS
 62
     7
100
AcDbPolyline
 90
        2
 70
     1
 43
0.0
 10
-1.560318999999999
 20
1.90572
 10
-1.28761
 20
1.924527999999999
  0
LWPOLYLINE
  5
8B7
330
1E
100
AcDbEntity
  8
LAYER_1
  6
CONTINUOUS
 62
     7
100
AcDbPolyline
 90
        2
 70
     1
 43
0.0
 10
-1.546885999999999
 20
2.023940999999999
 10
-1.28761
 20
1.937956999999999
  0
LWPOLYLINE
  5
8BB
330
1E
100
AcDbEntity
  8
LAYER_1
  6
CONTINUOUS
 62
     7
100
AcDbPolyline
 90
       10
 70
     1
 43
0.0
 10
-1.082528
 20
-0.272067
 10
-1.088912
 20
-0.201387
 10
-1.107320999999999
 20
-0.134863
 10
-1.136633999999999
 20
-0.073607
 10
-1.175730999999999
 20
-0.018728
 10
-1.223494999999999
 20
0.028662
 10
-1.278804999999999
 20
0.067455
 10
-1.340540999999999
 20
0.096538
 10
-1.407586
 20
0.114803
 10
-1.478819
 20
0.121138
  0
LWPOLYLINE
  5
8C7
330
1E
100
AcDbEntity
  8
LAYER_1
  6
CONTINUOUS
 62
     7
100
AcDbPolyline
 90
       10
 70
     1
 43
0.0
 10
-1.478819
 20
0.121138
 10
-1.550046999999999
 20
0.114803
 10
-1.617087999999999
 20
0.096538
 10
-1.678822
 20
0.067455
 10
-1.734129999999999
 20
0.028662
 10
-1.781891999999999
 20
-0.018728
 10
-1.820988999999999
 20
-0.073607
 10
-1.850300999999999
 20
-0.134863
 10
-1.868709999999999
 20
-0.201387
 10
-1.875093999999999
 20
-0.272067
  0
LWPOLYLINE
  5
8D3
330
1E
100
AcDbEntity
  8
LAYER_1
  6
CONTINUOUS
 62
     7
100
AcDbPolyline
 90
       10
 70
     1
 43
0.0
 10
-1.875093999999999
 20
-0.272067
 10
-1.868709999999999
 20
-0.342744
 10
-1.850300999999999
 20
-0.409266
 10
-1.820988999999999
 20
-0.470523
 10
-1.781891999999999
 20
-0.5254020000000001
 10
-1.734129999999999
 20
-0.572795
 10
-1.678822
 20
-0.6115890000000001
 10
-1.617087999999999
 20
-0.640674
 10
-1.550046999999999
 20
-0.65894
 10
-1.478819
 20
-0.665276
  0
LWPOLYLINE
  5
8DF
330
1E
100
AcDbEntity
  8
LAYER_1
  6
CONTINUOUS
 62
     7
100
AcDbPolyline
 90
       10
 70
     1
 43
0.0
 10
-1.478819
 20
-0.665276
 10
-1.407586
 20
-0.65894
 10
-1.340540999999999
 20
-0.640674
 10
-1.278804999999999
 20
-0.6115890000000001
 10
-1.223494999999999
 20
-0.572795
 10
-1.175730999999999
 20
-0.5254020000000001
 10
-1.136633999999999
 20
-0.470523
 10
-1.107320999999999
 20
-0.409266
 10
-1.088912
 20
-0.342744
 10
-1.082528
 20
-0.272067
  0
LWPOLYLINE
  5
8EB
330
1E
100
AcDbEntity
  8
LAYER_1
  6
CONTINUOUS
 62
     7
100
AcDbPolyline
 90
       19
 70
     1
 43
0.0
 10
-0.5795279999999999
 20
1.934902
 10
-0.58242
 20
1.999825999999999
 10
-0.5909310000000002
 20
2.063118
 10
-0.6048090000000001
 20
2.124525
 10
-0.6238070000000001
 20
2.183796
 10
-0.647673
 20
2.240677
 10
-0.6761580000000001
 20
2.294918999999999
 10
-0.709012
 20
2.346268
 10
-0.7459850000000001
 20
2.394473
 10
-0.7868270000000001
 20
2.439281999999999
 10
-0.8312889999999999
 20
2.480443999999999
 10
-0.8791209999999999
 20
2.517707
 10
-0.9300719999999998
 20
2.550818
 10
-0.9838929999999999
 20
2.579525999999999
 10
-1.040334
 20
2.603577999999999
 10
-1.099145999999999
 20
2.622724999999999
 10
-1.160078
 20
2.636711999999999
 10
-1.222879999999999
 20
2.64529
 10
-1.287303
 20
2.648204999999999
  0
LWPOLYLINE
  5
900
330
1E
100
AcDbEntity
  8
LAYER_1
  6
CONTINUOUS
 62
     7
100
AcDbPolyline
 90
       19
 70
     1
 43
0.0
 10
-1.287303
 20
2.648204999999999
 10
-1.351723999999999
 20
2.64529
 10
-1.414525
 20
2.636711999999999
 10
-1.475455999999999
 20
2.622724999999999
 10
-1.534265999999999
 20
2.603577999999999
 10
-1.590705999999999
 20
2.579525999999999
 10
-1.644525999999999
 20
2.550818
 10
-1.695477
 20
2.517707
 10
-1.743306999999999
 20
2.480443999999999
 10
-1.787768999999999
 20
2.439281999999999
 10
-1.828611
 20
2.394473
 10
-1.865583
 20
2.346268
 10
-1.898436999999999
 20
2.294918999999999
 10
-1.926922
 20
2.240677
 10
-1.950788
 20
2.183796
 10
-1.969784999999999
 20
2.124525
 10
-1.983663999999999
 20
2.063118
 10
-1.992174999999999
 20
1.999825999999999
 10
-1.995066999999999
 20
1.934902
  0
LWPOLYLINE
  5
915
330
1E
100
AcDbEntity
  8
LAYER_1
  6
CONTINUOUS
 62
     7
100
AcDbPolyline
 90
       19
 70
     1
 43
0.0
 10
-1.995066999999999
 20
1.934902
 10
-1.992174999999999
 20
1.869977
 10
-1.983663999999999
 20
1.806684999999999
 10
-1.969784999999999
 20
1.745277999999999
 10
-1.950788
 20
1.686007
 10
-1.926922
 20
1.629124999999999
 10
-1.898436999999999
 20
1.574882999999999
 10
-1.865583
 20
1.523533999999999
 10
-1.828611
 20
1.475328
 10
-1.787768999999999
 20
1.430519
 10
-1.743306999999999
 20
1.389356999999999
 10
-1.695477
 20
1.352094
 10
-1.644525999999999
 20
1.318983
 10
-1.590705999999999
 20
1.290273999999999
 10
-1.534265999999999
 20
1.266220999999999
 10
-1.475455999999999
 20
1.247074999999999
 10
-1.414525
 20
1.233087
 10
-1.351723999999999
 20
1.224509999999999
 10
-1.287303
 20
1.221594
  0
LWPOLYLINE
  5
92A
330
1E
100
AcDbEntity
  8
LAYER_1
  6
CONTINUOUS
 62
     7
100
AcDbPolyline
 90
       19
 70
     1
 43
0.0
 10
-1.287303
 20
1.221594
 10
-1.222879999999999
 20
1.224509999999999
 10
-1.160078
 20
1.233087
 10
-1.099145999999999
 20
1.247074999999999
 10
-1.040334
 20
1.266220999999999
 10
-0.9838929999999999
 20
1.290273999999999
 10
-0.9300719999999998
 20
1.318983
 10
-0.8791209999999999
 20
1.352094
 10
-0.8312889999999999
 20
1.389356999999999
 10
-0.7868270000000001
 20
1.430519
 10
-0.7459850000000001
 20
1.475328
 10
-0.709012
 20
1.523533999999999
 10
-0.6761580000000001
 20
1.574882999999999
 10
-0.647673
 20
1.629124999999999
 10
-0.6238070000000001
 20
1.686007
 10
-0.6048090000000001
 20
1.745277999999999
 10
-0.5909310000000002
 20
1.806684999999999
 10
-0.58242
 20
1.869977
 10
-0.5795279999999999
 20
1.934902
  0
LWPOLYLINE
  5
93F
330
1E
100
AcDbEntity
  8
LAYER_1
  6
CONTINUOUS
 62
     7
100
AcDbPolyline
 90
        2
 70
     1
 43
0.0
 10
-1.294192999999999
 20
1.934122
 10
-1.933165
 20
1.63922
  0
LWPOLYLINE
  5
943
330
1E
100
AcDbEntity
  8
LAYER_1
  6
CONTINUOUS
 62
     7
100
AcDbPolyline
 90
        2
 70
     1
 43
0.0
 10
-1.289873999999999
 20
1.928247999999999
 10
-1.962054999999999
 20
2.136638
  0
TEXT
  5
947
330
1E
100
AcDbEntity
  8
LAYER_1
 62
     7
100
AcDbText
 10
-1.983929
 20
-0.459441
 30
0.0
 40
0.112388
  1
10mm horn, +/-40 deg
 50
90.0
 41
0.599996111513411
  7
SN0
 72
     5
 11
-1.983929
 21
0.8763620000000001
 31
0.0
100
AcDbText
  0
LWPOLYLINE
  5
948
330
1E
100
AcDbEntity
  8
LAYER_1
  6
CONTINUOUS
 62
     7
100
AcDbPolyline
 90
        2
 70
     1
 43
0.0
 10
0.261
 20
2.439083
 10
-0.317583
 20
2.067038999999999
  0
LWPOLYLINE
  5
94C
330
1E
100
AcDbEntity
  8
LAYER_1
  6
CONTINUOUS
 62
     7
100
AcDbPolyline
 90
        2
 70
     1
 43
0.0
 10
0.260067
 20
2.440302999999999
 10
-0.340055
 20
2.776483999999999
  0
LWPOLYLINE
  5
950
330
1E
100
AcDbEntity
  8
LAYER_1
  6
CONTINUOUS
 62
     7
100
AcDbPolyline
 90
        2
 70
     1
 43
0.0
 10
0.258984
 20
2.437676999999999
 10
-0.427413
 20
2.392776
  0
TEXT
  5
954
330
1E
100
AcDbEntity
  8
LAYER_1
 62
     7
100
AcDbText
 10
-1.959055
 20
2.265902
 30
0.0
 40
0.112388
  1
18mm horn, +/-21 deg
 50
90.0
 41
0.5999961115134111
  7
SN0
 72
     5
 11
-1.959055
 21
3.601705
 31
0.0
100
AcDbText
  0
LWPOLYLINE
  5
955
330
1E
100
AcDbEntity
  8
LAYER_1
  6
CONTINUOUS
 62
     7
100
AcDbPolyline
 90
        2
 70
     1
 43
0.0
 10
-1.302512
 20
1.92965
 10
-2.004732
 20
1.883319
  0
LWPOLYLINE
  5
959
330
1E
100
AcDbEntity
  8
LAYER_1
  6
CONTINUOUS
 62
     7
100
AcDbPolyline
 90
       16
 70
     1
 43
0.0
 10
0.844984
 20
2.456358
 10
0.8415030000000001
 20
2.521001
 10
0.831301
 20
2.583628
 10
0.8147399999999999
 20
2.643877
 10
0.7921810000000001
 20
2.701384999999999
 10
0.7639870000000001
 20
2.755790999999999
 10
0.73052
 20
2.806733
 10
0.692141
 20
2.853849999999999
 10
0.649212
 20
2.896777999999999
 10
0.602096
 20
2.935156999999999
 10
0.5511530000000001
 20
2.968624999999999
 10
0.4967470000000001
 20
2.996818999999999
 10
0.4392390000000001
 20
3.019376999999999
 10
0.37899
 20
3.035938999999999
 10
0.316364
 20
3.046140999999999
 10
0.25172
 20
3.049622
  0
LWPOLYLINE
  5
96B
330
1E
100
AcDbEntity
  8
LAYER_1
  6
CONTINUOUS
 62
     7
100
AcDbPolyline
 90
       16
 70
     1
 43
0.0
 10
0.25172
 20
3.049622
 10
0.187078
 20
3.046140999999999
 10
0.124452
 20
3.035938999999999
 10
0.064204
 20
3.019376999999999
 10
0.006696
 20
2.996818999999999
 10
-0.04771
 20
2.968624999999999
 10
-0.098652
 20
2.935156999999999
 10
-0.145768
 20
2.896777999999999
 10
-0.188696
 20
2.853849999999999
 10
-0.227075
 20
2.806733
 10
-0.260542
 20
2.755790999999999
 10
-0.288736
 20
2.701384999999999
 10
-0.311295
 20
2.643877
 10
-0.327856
 20
2.583628
 10
-0.338058
 20
2.521001
 10
-0.341539
 20
2.456358
  0
LWPOLYLINE
  5
97D
330
1E
100
AcDbEntity
  8
LAYER_1
  6
CONTINUOUS
 62
     7
100
AcDbPolyline
 90
       16
 70
     1
 43
0.0
 10
-0.341539
 20
2.456358
 10
-0.338058
 20
2.391715
 10
-0.327856
 20
2.329088
 10
-0.311295
 20
2.268839999999999
 10
-0.288736
 20
2.211332
 10
-0.260542
 20
2.156925
 10
-0.227075
 20
2.105983
 10
-0.188696
 20
2.058866999999999
 10
-0.145768
 20
2.015938
 10
-0.098652
 20
1.977559
 10
-0.04771
 20
1.944091999999999
 10
0.006696
 20
1.915897999999999
 10
0.064204
 20
1.893338999999999
 10
0.124452
 20
1.876777999999999
 10
0.187078
 20
1.866575999999999
 10
0.25172
 20
1.863093999999999
  0
LWPOLYLINE
  5
98F
330
1E
100
AcDbEntity
  8
LAYER_1
  6
CONTINUOUS
 62
     7
100
AcDbPolyline
 90
       16
 70
     1
 43
0.0
 10
0.25172
 20
1.863093999999999
 10
0.316364
 20
1.866575999999999
 10
0.37899
 20
1.876777999999999
 10
0.4392390000000001
 20
1.893338999999999
 10
0.4967470000000001
 20
1.915897999999999
 10
0.5511530000000001
 20
1.944091999999999
 10
0.602096
 20
1.977559
 10
0.649212
 20
2.015938
 10
0.692141
 20
2.058866999999999
 10
0.73052
 20
2.105983
 10
0.7639870000000001
 20
2.156925
 10
0.7921810000000001
 20
2.211332
 10
0.8147399999999999
 20
2.268839999999999
 10
0.831301
 20
2.329088
 10
0.8415030000000001
 20
2.391715
 10
0.844984
 20
2.456358
  0
LWPOLYLINE
  5
9A1
330
1E
100
AcDbEntity
  8
LAYER_1
  6
CONTINUOUS
 62
     7
100
AcDbPolyline
 90
        4
 70
     1
 43
0.0
 10
0.019677
 20
0.599402
 10
0.015919
 20
0.600668
 10
0.013365
 20
0.60356
 10
0.012567
 20
0.6074570000000001
  0
LWPOLYLINE
  5
9A7
330
1E
100
AcDbEntity
  8
LAYER_1
  6
CONTINUOUS
 62
     7
100
AcDbPolyline
 90
        4
 70
     1
 43
0.0
 10
0.012567
 20
0.6074570000000001
 10
0.013843
 20
0.611217
 10
0.016734
 20
0.6137699999999999
 10
0.020622
 20
0.614567
  0
LWPOLYLINE
  5
9AD
330
1E
100
AcDbEntity
  8
LAYER_1
  6
CONTINUOUS
 62
     7
100
AcDbPolyline
 90
        4
 70
     1
 43
0.0
 10
0.020622
 20
0.614567
 10
0.02439
 20
0.6132900000000001
 10
0.026941
 20
0.6104000000000001
 10
0.027732
 20
0.606512
  0
LWPOLYLINE
  5
9B3
330
1E
100
AcDbEntity
  8
LAYER_1
  6
CONTINUOUS
 62
     7
100
AcDbPolyline
 90
        4
 70
     1
 43
0.0
 10
0.027732
 20
0.606512
 10
0.026466
 20
0.602746
 10
0.023576
 20
0.600196
 10
0.019677
 20
0.599402
  0
LWPOLYLINE
  5
9B9
330
1E
100
AcDbEntity
  8
LAYER_1
  6
CONTINUOUS
 62
     7
100
AcDbPolyline
 90
        4
 70
     1
 43
0.0
 10
-0.281874
 20
-0.194374
 10
-0.209705
 20
0.9301099999999999
 10
0.286776
 20
0.8982319999999999
 10
0.214594
 20
-0.226232
  0
TEXT
  5
9BF
330
1E
100
AcDbEntity
  8
LAYER_1
 62
     7
100
AcDbText
 10
-0.118264
 20
-0.179984
 30
0.0
 40
0.100201
  1
DS368
 50
88.32756622760856
 41
0.7939359285284194
  7
SN1
 72
     5
 11
-0.107429
 21
0.191106
 31
0.0
100
AcDbText
  0
LWPOLYLINE
  5
9C0
330
1E
100
AcDbEntity
  8
LAYER_1
  6
CONTINUOUS
 62
     7
100
AcDbPolyline
 90
        2
 70
     1
 43
0.0
 10
0.020028
 20
0.6049290000000001
 10
-0.346457
 20
0.9843189999999999
  0
LWPOLYLINE
  5
9C4
330
1E
100
AcDbEntity
  8
LAYER_1
  6
CONTINUOUS
 62
     7
100
AcDbPolyline
 90
        2
 70
     1
 43
0.0
 10
0.016969
 20
0.601858
 10
-0.370264
 20
0.235594
  0
LWPOLYLINE
  5
9C8
330
1E
100
AcDbEntity
  8
LAYER_1
  6
CONTINUOUS
 62
     7
100
AcDbPolyline
 90
        2
 70
     1
 43
0.0
 10
-0.5010670000000001
 20
0.619374
 10
0.018512
 20
0.604913
  0
LWPOLYLINE
  5
9CC
330
1E
100
AcDbEntity
  8
LAYER_1
  6
CONTINUOUS
 62
     7
100
AcDbPolyline
 90
       11
 70
     1
 43
0.0
 10
-0.362791
 20
0.8220120000000001
 10
-0.392968
 20
0.7584220000000001
 10
-0.4120510000000001
 20
0.692589
 10
-0.420367
 20
0.62573
 10
-0.418241
 20
0.5590600000000001
 10
-0.4060000000000001
 20
0.493797
 10
-0.3839679999999999
 20
0.431157
 10
-0.3524739999999999
 20
0.372357
 10
-0.311842
 20
0.318614
 10
-0.262398
 20
0.271145
 10
-0.204469
 20
0.231165
  0
LWPOLYLINE
  5
9D9
330
1E
100
AcDbEntity
  8
LAYER_1
  6
CONTINUOUS
 62
     7
100
AcDbPolyline
 90
       11
 70
     1
 43
0.0
 10
-0.204469
 20
0.231165
 10
-0.14088
 20
0.200988
 10
-0.075049
 20
0.181904
 10
-0.008192
 20
0.173588
 10
0.058476
 20
0.175714
 10
0.123737
 20
0.187955
 10
0.186376
 20
0.209986
 10
0.245175
 20
0.241481
 10
0.298919
 20
0.282113
 10
0.346391
 20
0.331556
 10
0.386374
 20
0.389484
  0
LWPOLYLINE
  5
9E6
330
1E
100
AcDbEntity
  8
LAYER_1
  6
CONTINUOUS
 62
     7
100
AcDbPolyline
 90
       11
 70
     1
 43
0.0
 10
0.386374
 20
0.389484
 10
0.416548
 20
0.453073
 10
0.43563
 20
0.5189050000000001
 10
0.443945
 20
0.5857630000000001
 10
0.441819
 20
0.6524320000000001
 10
0.429578
 20
0.7176930000000001
 10
0.4075490000000001
 20
0.7803320000000001
 10
0.376056
 20
0.839132
 10
0.3354249999999999
 20
0.892876
 10
0.285983
 20
0.9403469999999998
 10
0.228055
 20
0.9803309999999999
  0
LWPOLYLINE
  5
9F3
330
1E
100
AcDbEntity
  8
LAYER_1
  6
CONTINUOUS
 62
     7
100
AcDbPolyline
 90
       11
 70
     1
 43
0.0
 10
0.228055
 20
0.9803309999999999
 10
0.164465
 20
1.010505999999999
 10
0.098633
 20
1.029587999999999
 10
0.031774
 20
1.037903
 10
-0.034894
 20
1.035776999999999
 10
-0.100156
 20
1.023536
 10
-0.162794
 20
1.001506
 10
-0.221593
 20
0.9700129999999999
 10
-0.275337
 20
0.929382
 10
-0.322808
 20
0.8799399999999998
 10
-0.362791
 20
0.8220120000000001
  0
TEXT
  5
A00
330
1E
100
AcDbEntity
  8
LAYER_1
 62
     7
100
AcDbText
 10
-0.560594
 20
-0.446622
 30
0.0
 40
0.112388
  1
11mm horn, +/-45 deg
 50
90.0000428923872
 41
0.5999961115135795
  7
SN0
 72
     5
 11
-0.560595
 21
0.8891809999999999
 31
0.0
100
AcDbText
  0
TEXT
  5
A01
330
1E
100
AcDbEntity
  8
LAYER_1
 62
     7
100
AcDbText
 10
-0.373205
 20
2.815790999999999
 30
0.0
 40
0.112388
  1
15mm horn, +/-29 deg
 50
90.0
 41
0.5999965606785282
  7
SN0
 72
     5
 11
-0.373205
 21
4.151594999999999
 31
0.0
100
AcDbText
  0
LWPOLYLINE
  5
A02
330
1E
100
AcDbEntity
  8
LAYER_1
  6
CONTINUOUS
 62
     7
100
AcDbPolyline
 90
        4
 70
     1
 43
0.0
 10
0.258902
 20
4.867066999999999
 10
0.258805
 20
4.866327
 10
0.258132
 20
4.861145999999999
 10
0.256303
 20
4.847083
  0
LWPOLYLINE
  5
A08
330
1E
100
AcDbEntity
  8
LAYER_1
  6
CONTINUOUS
 62
     7
100
AcDbPolyline
 90
        4
 70
     1
 43
0.0
 10
0.256303
 20
4.847083
 10
0.252809
 20
4.820337
 10
0.247399
 20
4.779694999999999
 10
0.239886
 20
4.724582999999999
  0
LWPOLYLINE
  5
A0E
330
1E
100
AcDbEntity
  8
LAYER_1
  6
CONTINUOUS
 62
     7
100
AcDbPolyline
 90
        4
 70
     1
 43
0.0
 10
0.239886
 20
4.724582999999999
 10
0.230249
 20
4.655189
 10
0.218988
 20
4.574859
 10
0.206748
 20
4.487705
  0
LWPOLYLINE
  5
A14
330
1E
100
AcDbEntity
  8
LAYER_1
  6
CONTINUOUS
 62
     7
100
AcDbPolyline
 90
        4
 70
     1
 43
0.0
 10
0.206748
 20
4.487705
 10
0.1941
 20
4.397292
 10
0.18123
 20
4.304964
 10
0.168248
 20
4.211511999999999
  0
LWPOLYLINE
  5
A1A
330
1E
100
AcDbEntity
  8
LAYER_1
  6
CONTINUOUS
 62
     7
100
AcDbPolyline
 90
        4
 70
     1
 43
0.0
 10
0.168248
 20
4.211511999999999
 10
0.155242
 20
4.117621999999999
 10
0.142203
 20
4.023518
 10
0.129094
 20
3.929302999999999
  0
LWPOLYLINE
  5
A20
330
1E
100
AcDbEntity
  8
LAYER_1
  6
CONTINUOUS
 62
     7
100
AcDbPolyline
 90
        4
 70
     1
 43
0.0
 10
0.129094
 20
3.929302999999999
 10
0.115889
 20
3.835058999999999
 10
0.102649
 20
3.740748
 10
0.089441
 20
3.646291
  0
LWPOLYLINE
  5
A26
330
1E
100
AcDbEntity
  8
LAYER_1
  6
CONTINUOUS
 62
     7
100
AcDbPolyline
 90
        4
 70
     1
 43
0.0
 10
0.089441
 20
3.646291
 10
0.076342
 20
3.551648
 10
0.063346
 20
3.456932
 10
0.050457
 20
3.362291
  0
LWPOLYLINE
  5
A2C
330
1E
100
AcDbEntity
  8
LAYER_1
  6
CONTINUOUS
 62
     7
100
AcDbPolyline
 90
        4
 70
     1
 43
0.0
 10
0.050457
 20
3.362291
 10
0.037674
 20
3.267825999999999
 10
0.025
 20
3.173470999999999
 10
0.012441
 20
3.07911
  0
LWPOLYLINE
  5
A32
330
1E
100
AcDbEntity
  8
LAYER_1
  6
CONTINUOUS
 62
     7
100
AcDbPolyline
 90
        4
 70
     1
 43
0.0
 10
0.012441
 20
3.07911
 10
-0.000007
 20
2.984676999999999
 10
-0.012313
 20
2.890204999999999
 10
-0.024441
 20
2.795764
  0
LWPOLYLINE
  5
A38
330
1E
100
AcDbEntity
  8
LAYER_1
  6
CONTINUOUS
 62
     7
100
AcDbPolyline
 90
        4
 70
     1
 43
0.0
 10
-0.024441
 20
2.795764
 10
-0.036359
 20
2.70142
 10
-0.0481
 20
2.607147
 10
-0.059693
 20
2.512913
  0
LWPOLYLINE
  5
A3E
330
1E
100
AcDbEntity
  8
LAYER_1
  6
CONTINUOUS
 62
     7
100
AcDbPolyline
 90
        4
 70
     1
 43
0.0
 10
-0.059693
 20
2.512913
 10
-0.071168
 20
2.418686999999999
 10
-0.082497
 20
2.324501999999999
 10
-0.09365
 20
2.230386
  0
LWPOLYLINE
  5
A44
330
1E
100
AcDbEntity
  8
LAYER_1
  6
CONTINUOUS
 62
     7
100
AcDbPolyline
 90
        4
 70
     1
 43
0.0
 10
-0.09365
 20
2.230386
 10
-0.104586
 20
2.136359
 10
-0.115308
 20
2.042413999999999
 10
-0.125819
 20
1.948499999999999
  0
LWPOLYLINE
  5
A4A
330
1E
100
AcDbEntity
  8
LAYER_1
  6
CONTINUOUS
 62
     7
100
AcDbPolyline
 90
        4
 70
     1
 43
0.0
 10
-0.125819
 20
1.948499999999999
 10
-0.136111
 20
1.854594999999999
 10
-0.146183
 20
1.760688
 10
-0.156039
 20
1.666775999999999
  0
LWPOLYLINE
  5
A50
330
1E
100
AcDbEntity
  8
LAYER_1
  6
CONTINUOUS
 62
     7
100
AcDbPolyline
 90
        4
 70
     1
 43
0.0
 10
-0.156039
 20
1.666775999999999
 10
-0.165674
 20
1.572867
 10
-0.175053
 20
1.478920999999999
 10
-0.18415
 20
1.384902
  0
LWPOLYLINE
  5
A56
330
1E
100
AcDbEntity
  8
LAYER_1
  6
CONTINUOUS
 62
     7
100
AcDbPolyline
 90
        4
 70
     1
 43
0.0
 10
-0.18415
 20
1.384902
 10
-0.192932
 20
1.290781999999999
 10
-0.201464
 20
1.196593
 10
-0.209819
 20
1.102373999999999
  0
LWPOLYLINE
  5
A5C
330
1E
100
AcDbEntity
  8
LAYER_1
  6
CONTINUOUS
 62
     7
100
AcDbPolyline
 90
        4
 70
     1
 43
0.0
 10
-0.209819
 20
1.102373999999999
 10
-0.218032
 20
1.008140999999999
 10
-0.22607
 20
0.9139099999999999
 10
-0.233858
 20
0.819677
  0
LWPOLYLINE
  5
A62
330
1E
100
AcDbEntity
  8
LAYER_1
  6
CONTINUOUS
 62
     7
100
AcDbPolyline
 90
        4
 70
     1
 43
0.0
 10
-0.233858
 20
0.819677
 10
-0.241338
 20
0.7254450000000001
 10
-0.248527
 20
0.6312160000000001
 10
-0.255469
 20
0.536984
  0
LWPOLYLINE
  5
A68
330
1E
100
AcDbEntity
  8
LAYER_1
  6
CONTINUOUS
 62
     7
100
AcDbPolyline
 90
        4
 70
     1
 43
0.0
 10
-0.255469
 20
0.536984
 10
-0.262183
 20
0.4427520000000001
 10
-0.26868
 20
0.348523
 10
-0.274957
 20
0.254291
  0
LWPOLYLINE
  5
A6E
330
1E
100
AcDbEntity
  8
LAYER_1
  6
CONTINUOUS
 62
     7
100
AcDbPolyline
 90
        4
 70
     1
 43
0.0
 10
-0.274957
 20
0.254291
 10
-0.281027
 20
0.160056
 10
-0.286877
 20
0.065824
 10
-0.292512
 20
-0.028402
  0
LWPOLYLINE
  5
A74
330
1E
100
AcDbEntity
  8
LAYER_1
  6
CONTINUOUS
 62
     7
100
AcDbPolyline
 90
        4
 70
     1
 43
0.0
 10
-0.292512
 20
-0.028402
 10
-0.297922
 20
-0.122634
 10
-0.303076
 20
-0.216862
 10
-0.307941
 20
-0.311094
  0
LWPOLYLINE
  5
A7A
330
1E
100
AcDbEntity
  8
LAYER_1
  6
CONTINUOUS
 62
     7
100
AcDbPolyline
 90
        4
 70
     1
 43
0.0
 10
-0.307941
 20
-0.311094
 10
-0.312491
 20
-0.405321
 10
-0.316717
 20
-0.499508
 10
-0.32061
 20
-0.593622
  0
LWPOLYLINE
  5
A80
330
1E
100
AcDbEntity
  8
LAYER_1
  6
CONTINUOUS
 62
     7
100
AcDbPolyline
 90
        4
 70
     1
 43
0.0
 10
-0.32061
 20
-0.593622
 10
-0.324193
 20
-0.687649
 10
-0.327443
 20
-0.7816380000000001
 10
-0.330358
 20
-0.8756649999999998
  0
LWPOLYLINE
  5
A86
330
1E
100
AcDbEntity
  8
LAYER_1
  6
CONTINUOUS
 62
     7
100
AcDbPolyline
 90
        4
 70
     0
 43
0.0
 10
-0.330358
 20
-0.8756649999999998
 10
-0.33296
 20
-0.9697700000000001
 10
-0.335239
 20
-1.063876999999999
 10
-0.337193
 20
-1.157874
  0
LWPOLYLINE
  5
A8C
330
1E
100
AcDbEntity
  8
LAYER_1
  6
CONTINUOUS
 62
     7
100
AcDbPolyline
 90
        4
 70
     0
 43
0.0
 10
-0.337193
 20
-1.157874
 10
-0.338811
 20
-1.251687999999999
 10
-0.34011
 20
-1.34535
 10
-0.341083
 20
-1.438940999999999
  0
LWPOLYLINE
  5
A92
330
1E
100
AcDbEntity
  8
LAYER_1
  6
CONTINUOUS
 62
     7
100
AcDbPolyline
 90
        4
 70
     0
 43
0.0
 10
-0.341083
 20
-1.438940999999999
 10
-0.34173
 20
-1.53252
 10
-0.342013
 20
-1.626060999999999
 10
-0.341902
 20
-1.719527999999999
  0
LWPOLYLINE
  5
A98
330
1E
100
AcDbEntity
  8
LAYER_1
  6
CONTINUOUS
 62
     7
100
AcDbPolyline
 90
        4
 70
     0
 43
0.0
 10
-0.341902
 20
-1.719527999999999
 10
-0.341354
 20
-1.812893999999999
 10
-0.340377
 20
-1.90619
 10
-0.338969
 20
-1.999456999999999
  0
LWPOLYLINE
  5
A9E
330
1E
100
AcDbEntity
  8
LAYER_1
  6
CONTINUOUS
 62
     7
100
AcDbPolyline
 90
        4
 70
     0
 43
0.0
 10
-0.338969
 20
-1.999456999999999
 10
-0.337122
 20
-2.092690999999999
 10
-0.334805
 20
-2.185820999999999
 10
-0.331984
 20
-2.278731999999999
  0
LWPOLYLINE
  5
AA4
330
1E
100
AcDbEntity
  8
LAYER_1
  6
CONTINUOUS
 62
     7
100
AcDbPolyline
 90
        4
 70
     1
 43
0.0
 10
-0.331984
 20
-2.278731999999999
 10
-0.328628
 20
-2.371358
 10
-0.324729
 20
-2.463768999999999
 10
-0.320291
 20
-2.556066999999999
  0
LWPOLYLINE
  5
AAA
330
1E
100
AcDbEntity
  8
LAYER_1
  6
CONTINUOUS
 62
     7
100
AcDbPolyline
 90
        4
 70
     1
 43
0.0
 10
-0.320291
 20
-2.556066999999999
 10
-0.315304
 20
-2.648331
 10
-0.309737
 20
-2.74049
 10
-0.303555
 20
-2.832429
  0
LWPOLYLINE
  5
AB0
330
1E
100
AcDbEntity
  8
LAYER_1
  6
CONTINUOUS
 62
     7
100
AcDbPolyline
 90
        4
 70
     1
 43
0.0
 10
-0.303555
 20
-2.832429
 10
-0.2967309999999999
 20
-2.924059
 10
-0.289259
 20
-3.015365
 10
-0.281138
 20
-3.106345999999999
  0
LWPOLYLINE
  5
AB6
330
1E
100
AcDbEntity
  8
LAYER_1
  6
CONTINUOUS
 62
     7
100
AcDbPolyline
 90
        4
 70
     1
 43
0.0
 10
-0.281138
 20
-3.106345999999999
 10
-0.272353
 20
-3.196991
 10
-0.262844
 20
-3.287237999999999
 10
-0.252539
 20
-3.377012
  0
LWPOLYLINE
  5
ABC
330
1E
100
AcDbEntity
  8
LAYER_1
  6
CONTINUOUS
 62
     7
100
AcDbPolyline
 90
        4
 70
     1
 43
0.0
 10
-0.252539
 20
-3.377012
 10
-0.241372
 20
-3.466261
 10
-0.229265
 20
-3.55493
 10
-0.21615
 20
-3.642983999999999
  0
LWPOLYLINE
  5
AC2
330
1E
100
AcDbEntity
  8
LAYER_1
  6
CONTINUOUS
 62
     7
100
AcDbPolyline
 90
        4
 70
     1
 43
0.0
 10
-0.21615
 20
-3.642983999999999
 10
-0.201958
 20
-3.730361
 10
-0.186687
 20
-3.816951999999999
 10
-0.170331
 20
-3.902609999999999
  0
LWPOLYLINE
  5
AC8
330
1E
100
AcDbEntity
  8
LAYER_1
  6
CONTINUOUS
 62
     7
100
AcDbPolyline
 90
        4
 70
     1
 43
0.0
 10
-0.170331
 20
-3.902609999999999
 10
-0.152878
 20
-3.987159999999999
 10
-0.134232
 20
-4.070415
 10
-0.114291
 20
-4.152154
  0
LWPOLYLINE
  5
ACE
330
1E
100
AcDbEntity
  8
LAYER_1
  6
CONTINUOUS
 62
     7
100
AcDbPolyline
 90
        4
 70
     1
 43
0.0
 10
-0.114291
 20
-4.152154
 10
-0.092978
 20
-4.23208
 10
-0.07044
 20
-4.309587999999999
 10
-0.046858
 20
-4.383992
  0
LWPOLYLINE
  5
AD4
330
1E
100
AcDbEntity
  8
LAYER_1
  6
CONTINUOUS
 62
     7
100
AcDbPolyline
 90
        4
 70
     1
 43
0.0
 10
-0.046858
 20
-4.383992
 10
-0.022456
 20
-4.454545999999999
 10
0.002382
 20
-4.520259999999999
 10
0.02722
 20
-4.580087
  0
LWPOLYLINE
  5
ADA
330
1E
100
AcDbEntity
  8
LAYER_1
  6
CONTINUOUS
 62
     7
100
AcDbPolyline
 90
        4
 70
     1
 43
0.0
 10
0.02722
 20
-4.580087
 10
0.051622
 20
-4.63318
 10
0.075122
 20
-4.679446999999999
 10
0.097248
 20
-4.719
  0
LWPOLYLINE
  5
AE0
330
1E
100
AcDbEntity
  8
LAYER_1
  6
CONTINUOUS
 62
     7
100
AcDbPolyline
 90
        4
 70
     1
 43
0.0
 10
0.097248
 20
-4.719
 10
0.117633
 20
-4.752070999999999
 10
0.136323
 20
-4.779401999999999
 10
0.153457
 20
-4.801858
  0
LWPOLYLINE
  5
AE6
330
1E
100
AcDbEntity
  8
LAYER_1
  6
CONTINUOUS
 62
     7
100
AcDbPolyline
 90
        4
 70
     1
 43
0.0
 10
0.153457
 20
-4.801858
 10
0.169196
 20
-4.820257999999999
 10
0.183704
 20
-4.835228999999999
 10
0.197165
 20
-4.847349999999999
  0
LWPOLYLINE
  5
AEC
330
1E
100
AcDbEntity
  8
LAYER_1
  6
CONTINUOUS
 62
     7
100
AcDbPolyline
 90
        4
 70
     1
 43
0.0
 10
0.197165
 20
-4.847349999999999
 10
0.209754
 20
-4.857133
 10
0.221621
 20
-4.864859
 10
0.232913
 20
-4.870744
  0
LWPOLYLINE
  5
AF2
330
1E
100
AcDbEntity
  8
LAYER_1
  6
CONTINUOUS
 62
     7
100
AcDbPolyline
 90
        4
 70
     1
 43
0.0
 10
0.232913
 20
-4.870744
 10
0.24376
 20
-4.874943
 10
0.254282
 20
-4.877373999999999
 10
0.264583
 20
-4.877894
  0
LWPOLYLINE
  5
AF8
330
1E
100
AcDbEntity
  8
LAYER_1
  6
CONTINUOUS
 62
     7
100
AcDbPolyline
 90
        4
 70
     1
 43
0.0
 10
0.264583
 20
-4.877894
 10
0.274745
 20
-4.876370999999999
 10
0.284692
 20
-4.872754
 10
0.294319
 20
-4.867008
  0
LWPOLYLINE
  5
AFE
330
1E
100
AcDbEntity
  8
LAYER_1
  6
CONTINUOUS
 62
     7
100
AcDbPolyline
 90
        4
 70
     1
 43
0.0
 10
0.294319
 20
-4.867008
 10
0.303544
 20
-4.859087
 10
0.312484
 20
-4.84893
 10
0.321276
 20
-4.836460999999999
  0
LWPOLYLINE
  5
B04
330
1E
100
AcDbEntity
  8
LAYER_1
  6
CONTINUOUS
 62
     7
100
AcDbPolyline
 90
        4
 70
     1
 43
0.0
 10
0.321276
 20
-4.836460999999999
 10
0.330072
 20
-4.821524
 10
0.338972
 20
-4.803587
 10
0.348083
 20
-4.782034999999999
  0
LWPOLYLINE
  5
B0A
330
1E
100
AcDbEntity
  8
LAYER_1
  6
CONTINUOUS
 62
     7
100
AcDbPolyline
 90
        4
 70
     1
 43
0.0
 10
0.348083
 20
-4.782034999999999
 10
0.35752
 20
-4.756178
 10
0.367356
 20
-4.724979
 10
0.377665
 20
-4.687319
  0
LWPOLYLINE
  5
B10
330
1E
100
AcDbEntity
  8
LAYER_1
  6
CONTINUOUS
 62
     7
100
AcDbPolyline
 90
        4
 70
     1
 43
0.0
 10
0.377665
 20
-4.687319
 10
0.388421
 20
-4.642250999999999
 10
0.399288
 20
-4.589526
 10
0.4098310000000001
 20
-4.529074999999999
  0
LWPOLYLINE
  5
B16
330
1E
100
AcDbEntity
  8
LAYER_1
  6
CONTINUOUS
 62
     7
100
AcDbPolyline
 90
        4
 70
     1
 43
0.0
 10
0.4098310000000001
 20
-4.529074999999999
 10
0.41967
 20
-4.461073999999999
 10
0.428641
 20
-4.386680999999999
 10
0.4366380000000001
 20
-4.307306999999999
  0
LWPOLYLINE
  5
B1C
330
1E
100
AcDbEntity
  8
LAYER_1
  6
CONTINUOUS
 62
     7
100
AcDbPolyline
 90
        4
 70
     1
 43
0.0
 10
0.4366380000000001
 20
-4.307306999999999
 10
0.443575
 20
-4.224248999999999
 10
0.449465
 20
-4.138374999999999
 10
0.4543460000000001
 20
-4.050441
  0
LWPOLYLINE
  5
B22
330
1E
100
AcDbEntity
  8
LAYER_1
  6
CONTINUOUS
 62
     7
100
AcDbPolyline
 90
        4
 70
     1
 43
0.0
 10
0.4543460000000001
 20
-4.050441
 10
0.4582620000000001
 20
-3.961120999999999
 10
0.4613120000000001
 20
-3.870720999999999
 10
0.46361
 20
-3.779456999999999
  0
LWPOLYLINE
  5
B28
330
1E
100
AcDbEntity
  8
LAYER_1
  6
CONTINUOUS
 62
     7
100
AcDbPolyline
 90
        4
 70
     1
 43
0.0
 10
0.46361
 20
-3.779456999999999
 10
0.465243
 20
-3.687512
 10
0.466301
 20
-3.59503
 10
0.4668580000000001
 20
-3.502121999999999
  0
LWPOLYLINE
  5
B2E
330
1E
100
AcDbEntity
  8
LAYER_1
  6
CONTINUOUS
 62
     7
100
AcDbPolyline
 90
        4
 70
     1
 43
0.0
 10
0.4668580000000001
 20
-3.502121999999999
 10
0.46697
 20
-3.408863999999999
 10
0.466686
 20
-3.31528
 10
0.4660390000000001
 20
-3.221373999999999
  0
LWPOLYLINE
  5
B34
330
1E
100
AcDbEntity
  8
LAYER_1
  6
CONTINUOUS
 62
     7
100
AcDbPolyline
 90
        4
 70
     1
 43
0.0
 10
0.4660390000000001
 20
-3.221373999999999
 10
0.4650790000000001
 20
-3.127159999999999
 10
0.4638640000000001
 20
-3.032729999999999
 10
0.462469
 20
-2.938193
  0
LWPOLYLINE
  5
B3A
330
1E
100
AcDbEntity
  8
LAYER_1
  6
CONTINUOUS
 62
     7
100
AcDbPolyline
 90
        4
 70
     1
 43
0.0
 10
0.462469
 20
-2.938193
 10
0.460941
 20
-2.843626
 10
0.4592270000000001
 20
-2.748987
 10
0.4572640000000001
 20
-2.654205
  0
LWPOLYLINE
  5
B40
330
1E
100
AcDbEntity
  8
LAYER_1
  6
CONTINUOUS
 62
     7
100
AcDbPolyline
 90
        4
 70
     1
 43
0.0
 10
0.4572640000000001
 20
-2.654205
 10
0.4550010000000001
 20
-2.559222999999999
 10
0.4524910000000001
 20
-2.464097999999999
 10
0.449803
 20
-2.368901999999999
  0
LWPOLYLINE
  5
B46
330
1E
100
AcDbEntity
  8
LAYER_1
  6
CONTINUOUS
 62
     7
100
AcDbPolyline
 90
        4
 70
     1
 43
0.0
 10
0.449803
 20
-2.368901999999999
 10
0.446991
 20
-2.273700999999999
 10
0.4441080000000001
 20
-2.178497
 10
0.441193
 20
-2.083291
  0
LWPOLYLINE
  5
B4C
330
1E
100
AcDbEntity
  8
LAYER_1
  6
CONTINUOUS
 62
     7
100
AcDbPolyline
 90
        4
 70
     0
 43
0.0
 10
0.441193
 20
-2.083291
 10
0.438251
 20
-1.988084999999999
 10
0.435241
 20
-1.892878999999999
 10
0.4320940000000001
 20
-1.797665
  0
LWPOLYLINE
  5
B52
330
1E
100
AcDbEntity
  8
LAYER_1
  6
CONTINUOUS
 62
     7
100
AcDbPolyline
 90
        4
 70
     0
 43
0.0
 10
0.4320940000000001
 20
-1.797665
 10
0.428748
 20
-1.702459999999999
 10
0.4252550000000001
 20
-1.607212
 10
0.4216930000000001
 20
-1.511886
  0
LWPOLYLINE
  5
B58
330
1E
100
AcDbEntity
  8
LAYER_1
  6
CONTINUOUS
 62
     7
100
AcDbPolyline
 90
        4
 70
     0
 43
0.0
 10
0.4216930000000001
 20
-1.511886
 10
0.418108
 20
-1.41647
 10
0.4144910000000001
 20
-1.320937999999999
 10
0.410803
 20
-1.225290999999999
  0
LWPOLYLINE
  5
B5E
330
1E
100
AcDbEntity
  8
LAYER_1
  6
CONTINUOUS
 62
     7
100
AcDbPolyline
 90
        4
 70
     0
 43
0.0
 10
0.410803
 20
-1.225290999999999
 10
0.407018
 20
-1.129562999999999
 10
0.403159
 20
-1.033790999999999
 10
0.399264
 20
-0.9380549999999999
  0
LWPOLYLINE
  5
B64
330
1E
100
AcDbEntity
  8
LAYER_1
  6
CONTINUOUS
 62
     7
100
AcDbPolyline
 90
        4
 70
     1
 43
0.0
 10
0.399264
 20
-0.9380549999999999
 10
0.395369
 20
-0.842408
 10
0.391469
 20
-0.7468370000000001
 10
0.387567
 20
-0.651303
  0
LWPOLYLINE
  5
B6A
330
1E
100
AcDbEntity
  8
LAYER_1
  6
CONTINUOUS
 62
     7
100
AcDbPolyline
 90
        4
 70
     1
 43
0.0
 10
0.387567
 20
-0.651303
 10
0.383674
 20
-0.555769
 10
0.379775
 20
-0.4601939999999999
 10
0.375874
 20
-0.364539
  0
LWPOLYLINE
  5
B70
330
1E
100
AcDbEntity
  8
LAYER_1
  6
CONTINUOUS
 62
     7
100
AcDbPolyline
 90
        4
 70
     1
 43
0.0
 10
0.375874
 20
-0.364539
 10
0.371967
 20
-0.2688
 10
0.368029
 20
-0.172988
 10
0.364012
 20
-0.077138
  0
LWPOLYLINE
  5
B76
330
1E
100
AcDbEntity
  8
LAYER_1
  6
CONTINUOUS
 62
     7
100
AcDbPolyline
 90
        4
 70
     1
 43
0.0
 10
0.364012
 20
-0.077138
 10
0.359904
 20
0.018704
 10
0.355718
 20
0.114519
 10
0.3515
 20
0.210264
  0
LWPOLYLINE
  5
B7C
330
1E
100
AcDbEntity
  8
LAYER_1
  6
CONTINUOUS
 62
     7
100
AcDbPolyline
 90
        4
 70
     1
 43
0.0
 10
0.3515
 20
0.210264
 10
0.347283
 20
0.305914
 10
0.343104
 20
0.4015270000000001
 10
0.339
 20
0.4971770000000001
  0
LWPOLYLINE
  5
B82
330
1E
100
AcDbEntity
  8
LAYER_1
  6
CONTINUOUS
 62
     7
100
AcDbPolyline
 90
        4
 70
     1
 43
0.0
 10
0.339
 20
0.4971770000000001
 10
0.334973
 20
0.5929190000000001
 10
0.330987
 20
0.6887310000000002
 10
0.326969
 20
0.7845830000000001
  0
LWPOLYLINE
  5
B88
330
1E
100
AcDbEntity
  8
LAYER_1
  6
CONTINUOUS
 62
     7
100
AcDbPolyline
 90
        4
 70
     1
 43
0.0
 10
0.326969
 20
0.7845830000000001
 10
0.322866
 20
0.880433
 10
0.318724
 20
0.9762439999999999
 10
0.314622
 20
1.071984
  0
LWPOLYLINE
  5
B8E
330
1E
100
AcDbEntity
  8
LAYER_1
  6
CONTINUOUS
 62
     7
100
AcDbPolyline
 90
        4
 70
     1
 43
0.0
 10
0.314622
 20
1.071984
 10
0.310607
 20
1.167632
 10
0.306626
 20
1.263209999999999
 10
0.30261
 20
1.358748
  0
LWPOLYLINE
  5
B94
330
1E
100
AcDbEntity
  8
LAYER_1
  6
CONTINUOUS
 62
     7
100
AcDbPolyline
 90
        4
 70
     1
 43
0.0
 10
0.30261
 20
1.358748
 10
0.298501
 20
1.454282
 10
0.294358
 20
1.549853
 10
0.290248
 20
1.6455
  0
LWPOLYLINE
  5
B9A
330
1E
100
AcDbEntity
  8
LAYER_1
  6
CONTINUOUS
 62
     7
100
AcDbPolyline
 90
        4
 70
     1
 43
0.0
 10
0.290248
 20
1.6455
 10
0.286245
 20
1.741231
 10
0.282346
 20
1.836961999999999
 10
0.278555
 20
1.932583
  0
LWPOLYLINE
  5
BA0
330
1E
100
AcDbEntity
  8
LAYER_1
  6
CONTINUOUS
 62
     7
100
AcDbPolyline
 90
        4
 70
     1
 43
0.0
 10
0.278555
 20
1.932583
 10
0.27488
 20
2.027906999999999
 10
0.27135
 20
2.122438
 10
0.268
 20
2.215593999999999
  0
LWPOLYLINE
  5
BA6
330
1E
100
AcDbEntity
  8
LAYER_1
  6
CONTINUOUS
 62
     7
100
AcDbPolyline
 90
        4
 70
     1
 43
0.0
 10
0.268
 20
2.215593999999999
 10
0.264895
 20
2.307068999999999
 10
0.262226
 20
2.397606999999999
 10
0.260205
 20
2.48822
  0
LWPOLYLINE
  5
BAC
330
1E
100
AcDbEntity
  8
LAYER_1
  6
CONTINUOUS
 62
     7
100
AcDbPolyline
 90
        4
 70
     1
 43
0.0
 10
0.260205
 20
2.48822
 10
0.25897
 20
2.579731999999999
 10
0.258346
 20
2.672296999999999
 10
0.258083
 20
2.765874
  0
LWPOLYLINE
  5
BB2
330
1E
100
AcDbEntity
  8
LAYER_1
  6
CONTINUOUS
 62
     7
100
AcDbPolyline
 90
        4
 70
     1
 43
0.0
 10
0.258083
 20
2.765874
 10
0.257975
 20
2.860374
 10
0.257935
 20
2.955524
 10
0.257929
 20
3.051
  0
LWPOLYLINE
  5
BB8
330
1E
100
AcDbEntity
  8
LAYER_1
  6
CONTINUOUS
 62
     7
100
AcDbPolyline
 90
        4
 70
     1
 43
0.0
 10
0.257929
 20
3.051
 10
0.257929
 20
3.146536
 10
0.257929
 20
3.242065999999999
 10
0.257929
 20
3.337594
  0
LWPOLYLINE
  5
BBE
330
1E
100
AcDbEntity
  8
LAYER_1
  6
CONTINUOUS
 62
     7
100
AcDbPolyline
 90
        4
 70
     1
 43
0.0
 10
0.257929
 20
3.337594
 10
0.257935
 20
3.433126
 10
0.257975
 20
3.528661
 10
0.258083
 20
3.624192999999999
  0
LWPOLYLINE
  5
BC4
330
1E
100
AcDbEntity
  8
LAYER_1
  6
CONTINUOUS
 62
     7
100
AcDbPolyline
 90
        4
 70
     1
 43
0.0
 10
0.258083
 20
3.624192999999999
 10
0.258304
 20
3.719715
 10
0.258633
 20
3.815202999999999
 10
0.259067
 20
3.910622
  0
LWPOLYLINE
  5
BCA
330
1E
100
AcDbEntity
  8
LAYER_1
  6
CONTINUOUS
 62
     7
100
AcDbPolyline
 90
        4
 70
     1
 43
0.0
 10
0.259067
 20
3.910622
 10
0.259609
 20
4.005931999999999
 10
0.260257
 20
4.101137
 10
0.261012
 20
4.196232
  0
LWPOLYLINE
  5
BD0
330
1E
100
AcDbEntity
  8
LAYER_1
  6
CONTINUOUS
 62
     7
100
AcDbPolyline
 90
        4
 70
     1
 43
0.0
 10
0.261012
 20
4.196232
 10
0.261876
 20
4.291096999999999
 10
0.262809
 20
4.385097
 10
0.263776
 20
4.477469
  0
LWPOLYLINE
  5
BD6
330
1E
100
AcDbEntity
  8
LAYER_1
  6
CONTINUOUS
 62
     7
100
AcDbPolyline
 90
        4
 70
     1
 43
0.0
 10
0.263776
 20
4.477469
 10
0.264742
 20
4.566850999999999
 10
0.265675
 20
4.649446
 10
0.2665389999999999
 20
4.720845999999999
  0
LWPOLYLINE
  5
BDC
330
1E
100
AcDbEntity
  8
LAYER_1
  6
CONTINUOUS
 62
     7
100
AcDbPolyline
 90
        4
 70
     1
 43
0.0
 10
0.2665389999999999
 20
4.720845999999999
 10
0.267289
 20
4.77749
 10
0.267895
 20
4.819189999999999
 10
0.268319
 20
4.846594
  0
LWPOLYLINE
  5
BE2
330
1E
100
AcDbEntity
  8
LAYER_1
  6
CONTINUOUS
 62
     7
100
AcDbPolyline
 90
        4
 70
     1
 43
0.0
 10
0.268319
 20
4.846594
 10
0.268552
 20
4.861000999999999
 10
0.268637
 20
4.866308999999999
 10
0.26865
 20
4.867066999999999
  0
LWPOLYLINE
  5
BE8
330
1E
100
AcDbEntity
  8
LAYER_1
  6
CONTINUOUS
 62
     7
100
AcDbPolyline
 90
        4
 70
     1
 43
0.0
 10
-1.279912999999999
 20
4.114276
 10
-1.279998999999999
 20
4.113605999999999
 10
-1.280599999999999
 20
4.108918
 10
-1.282232
 20
4.096193
  0
LWPOLYLINE
  5
BEE
330
1E
100
AcDbEntity
  8
LAYER_1
  6
CONTINUOUS
 62
     7
100
AcDbPolyline
 90
        4
 70
     1
 43
0.0
 10
-1.282232
 20
4.096193
 10
-1.28536
 20
4.071994
 10
-1.290141999999999
 20
4.035191999999999
 10
-1.296677
 20
3.985231999999999
  0
LWPOLYLINE
  5
BF4
330
1E
100
AcDbEntity
  8
LAYER_1
  6
CONTINUOUS
 62
     7
100
AcDbPolyline
 90
        4
 70
     1
 43
0.0
 10
-1.296677
 20
3.985231999999999
 10
-1.304942999999999
 20
3.922312999999999
 10
-1.314508
 20
3.849536
 10
-1.324818999999999
 20
3.770763999999999
  0
LWPOLYLINE
  5
BFA
330
1E
100
AcDbEntity
  8
LAYER_1
  6
CONTINUOUS
 62
     7
100
AcDbPolyline
 90
        4
 70
     1
 43
0.0
 10
-1.324818999999999
 20
3.770763999999999
 10
-1.335412
 20
3.689319999999999
 10
-1.346195999999999
 20
3.606348
 10
-1.357177
 20
3.522469
  0
LWPOLYLINE
  5
C00
330
1E
100
AcDbEntity
  8
LAYER_1
  6
CONTINUOUS
 62
     7
100
AcDbPolyline
 90
        4
 70
     1
 43
0.0
 10
-1.357177
 20
3.522469
 10
-1.368343
 20
3.438219
 10
-1.379603
 20
3.353804
 10
-1.390857999999999
 20
3.269357999999999
  0
LWPOLYLINE
  5
C06
330
1E
100
AcDbEntity
  8
LAYER_1
  6
CONTINUOUS
 62
     7
100
AcDbPolyline
 90
        4
 70
     1
 43
0.0
 10
-1.390857999999999
 20
3.269357999999999
 10
-1.402036
 20
3.184978
 10
-1.413119
 20
3.100629
 10
-1.424109999999999
 20
3.016248
  0
LWPOLYLINE
  5
C0C
330
1E
100
AcDbEntity
  8
LAYER_1
  6
CONTINUOUS
 62
     7
100
AcDbPolyline
 90
        4
 70
     1
 43
0.0
 10
-1.424109999999999
 20
3.016248
 10
-1.434992999999999
 20
2.931788999999999
 10
-1.445779999999999
 20
2.847265999999999
 10
-1.456469
 20
2.762704999999999
  0
LWPOLYLINE
  5
C12
330
1E
100
AcDbEntity
  8
LAYER_1
  6
CONTINUOUS
 62
     7
100
AcDbPolyline
 90
        4
 70
     1
 43
0.0
 10
-1.456469
 20
2.762704999999999
 10
-1.467068
 20
2.678145999999999
 10
-1.477604999999999
 20
2.593618999999999
 10
-1.488109999999999
 20
2.509149999999999
  0
LWPOLYLINE
  5
C18
330
1E
100
AcDbEntity
  8
LAYER_1
  6
CONTINUOUS
 62
     7
100
AcDbPolyline
 90
        4
 70
     1
 43
0.0
 10
-1.488109999999999
 20
2.509149999999999
 10
-1.498595999999999
 20
2.424777
 10
-1.509017
 20
2.340470999999999
 10
-1.519319
 20
2.256193
  0
LWPOLYLINE
  5
C1E
330
1E
100
AcDbEntity
  8
LAYER_1
  6
CONTINUOUS
 62
     7
100
AcDbPolyline
 90
        4
 70
     1
 43
0.0
 10
-1.519319
 20
2.256193
 10
-1.529424999999999
 20
2.171924999999999
 10
-1.539376999999999
 20
2.08765
 10
-1.549204999999999
 20
2.003373999999999
  0
LWPOLYLINE
  5
C24
330
1E
100
AcDbEntity
  8
LAYER_1
  6
CONTINUOUS
 62
     7
100
AcDbPolyline
 90
        4
 70
     1
 43
0.0
 10
-1.549204999999999
 20
2.003373999999999
 10
-1.558917
 20
1.919104
 10
-1.568502999999999
 20
1.834872
 10
-1.577929
 20
1.750704999999999
  0
LWPOLYLINE
  5
C2A
330
1E
100
AcDbEntity
  8
LAYER_1
  6
CONTINUOUS
 62
     7
100
AcDbPolyline
 90
        4
 70
     1
 43
0.0
 10
-1.577929
 20
1.750704999999999
 10
-1.587154999999999
 20
1.666616999999999
 10
-1.596194
 20
1.582559
 10
-1.605038999999999
 20
1.498469
  0
LWPOLYLINE
  5
C30
330
1E
100
AcDbEntity
  8
LAYER_1
  6
CONTINUOUS
 62
     7
100
AcDbPolyline
 90
        4
 70
     1
 43
0.0
 10
-1.605038999999999
 20
1.498469
 10
-1.613697999999999
 20
1.414299999999999
 10
-1.622193
 20
1.330065999999999
 10
-1.630555
 20
1.245802999999999
  0
LWPOLYLINE
  5
C36
330
1E
100
AcDbEntity
  8
LAYER_1
  6
CONTINUOUS
 62
     7
100
AcDbPolyline
 90
        4
 70
     1
 43
0.0
 10
-1.630555
 20
1.245802999999999
 10
-1.638808
 20
1.161526999999999
 10
-1.646934999999999
 20
1.077253
 10
-1.654902
 20
0.992984
  0
LWPOLYLINE
  5
C3C
330
1E
100
AcDbEntity
  8
LAYER_1
  6
CONTINUOUS
 62
     7
100
AcDbPolyline
 90
        4
 70
     1
 43
0.0
 10
-1.654902
 20
0.992984
 10
-1.662677999999999
 20
0.9087059999999999
 10
-1.670260999999999
 20
0.8244329999999999
 10
-1.67765
 20
0.740165
  0
LWPOLYLINE
  5
C42
330
1E
100
AcDbEntity
  8
LAYER_1
  6
CONTINUOUS
 62
     7
100
AcDbPolyline
 90
        4
 70
     1
 43
0.0
 10
-1.67765
 20
0.740165
 10
-1.684843999999999
 20
0.6558850000000001
 10
-1.691843999999999
 20
0.571577
 10
-1.698649999999999
 20
0.487205
  0
LWPOLYLINE
  5
C48
330
1E
100
AcDbEntity
  8
LAYER_1
  6
CONTINUOUS
 62
     7
100
AcDbPolyline
 90
        4
 70
     1
 43
0.0
 10
-1.698649999999999
 20
0.487205
 10
-1.705263999999999
 20
0.402743
 10
-1.711713999999999
 20
0.318257
 10
-1.718038999999999
 20
0.233803
  0
LWPOLYLINE
  5
C4E
330
1E
100
AcDbEntity
  8
LAYER_1
  6
CONTINUOUS
 62
     7
100
AcDbPolyline
 90
        4
 70
     1
 43
0.0
 10
-1.718038999999999
 20
0.233803
 10
-1.724245999999999
 20
0.149423
 10
-1.730291999999999
 20
0.065113
 10
-1.736109999999999
 20
-0.019165
  0
LWPOLYLINE
  5
C54
330
1E
100
AcDbEntity
  8
LAYER_1
  6
CONTINUOUS
 62
     7
100
AcDbPolyline
 90
        4
 70
     1
 43
0.0
 10
-1.736109999999999
 20
-0.019165
 10
-1.741661999999999
 20
-0.103438
 10
-1.746950999999999
 20
-0.187709
 10
-1.752011999999999
 20
-0.271984
  0
LWPOLYLINE
  5
C5A
330
1E
100
AcDbEntity
  8
LAYER_1
  6
CONTINUOUS
 62
     7
100
AcDbPolyline
 90
        4
 70
     1
 43
0.0
 10
-1.752011999999999
 20
-0.271984
 10
-1.756872
 20
-0.3562530000000001
 10
-1.761535999999999
 20
-0.4405270000000001
 10
-1.766
 20
-0.524803
  0
LWPOLYLINE
  5
C60
330
1E
100
AcDbEntity
  8
LAYER_1
  6
CONTINUOUS
 62
     7
100
AcDbPolyline
 90
        4
 70
     1
 43
0.0
 10
-1.766
 20
-0.524803
 10
-1.770281999999999
 20
-0.609066
 10
-1.774361999999999
 20
-0.6933
 10
-1.778248
 20
-0.777469
  0
LWPOLYLINE
  5
C66
330
1E
100
AcDbEntity
  8
LAYER_1
  6
CONTINUOUS
 62
     7
100
AcDbPolyline
 90
        4
 70
     1
 43
0.0
 10
-1.778248
 20
-0.777469
 10
-1.781936999999999
 20
-0.8615540000000001
 10
-1.785400999999999
 20
-0.9455759999999999
 10
-1.788609999999999
 20
-1.029566999999999
  0
LWPOLYLINE
  5
C6C
330
1E
100
AcDbEntity
  8
LAYER_1
  6
CONTINUOUS
 62
     7
100
AcDbPolyline
 90
        4
 70
     0
 43
0.0
 10
-1.788609999999999
 20
-1.029566999999999
 10
-1.791522
 20
-1.113539999999999
 10
-1.794141999999999
 20
-1.197516
 10
-1.796468999999999
 20
-1.2815
  0
LWPOLYLINE
  5
C72
330
1E
100
AcDbEntity
  8
LAYER_1
  6
CONTINUOUS
 62
     7
100
AcDbPolyline
 90
        4
 70
     0
 43
0.0
 10
-1.796468999999999
 20
-1.2815
 10
-1.798510999999999
 20
-1.365475999999999
 10
-1.800225
 20
-1.449418999999999
 10
-1.801583
 20
-1.533303
  0
LWPOLYLINE
  5
C78
330
1E
100
AcDbEntity
  8
LAYER_1
  6
CONTINUOUS
 62
     7
100
AcDbPolyline
 90
        4
 70
     0
 43
0.0
 10
-1.801583
 20
-1.533303
 10
-1.802559
 20
-1.617087999999999
 10
-1.803176999999999
 20
-1.700775999999999
 10
-1.803468999999999
 20
-1.784374
  0
LWPOLYLINE
  5
C7E
330
1E
100
AcDbEntity
  8
LAYER_1
  6
CONTINUOUS
 62
     7
100
AcDbPolyline
 90
        4
 70
     0
 43
0.0
 10
-1.803468999999999
 20
-1.784374
 10
-1.803468999999999
 20
-1.867858999999999
 10
-1.803141999999999
 20
-1.951254
 10
-1.802457
 20
-2.034555
  0
LWPOLYLINE
  5
C84
330
1E
100
AcDbEntity
  8
LAYER_1
  6
CONTINUOUS
 62
     7
100
AcDbPolyline
 90
        4
 70
     1
 43
0.0
 10
-1.802457
 20
-2.034555
 10
-1.801382
 20
-2.117757
 10
-1.799886999999999
 20
-2.200864
 10
-1.797940999999999
 20
-2.283873999999999
  0
LWPOLYLINE
  5
C8A
330
1E
100
AcDbEntity
  8
LAYER_1
  6
CONTINUOUS
 62
     7
100
AcDbPolyline
 90
        4
 70
     1
 43
0.0
 10
-1.797940999999999
 20
-2.283873999999999
 10
-1.795506
 20
-2.366783999999999
 10
-1.792586
 20
-2.4496
 10
-1.789177
 20
-2.532318999999999
  0
LWPOLYLINE
  5
C90
330
1E
100
AcDbEntity
  8
LAYER_1
  6
CONTINUOUS
 62
     7
100
AcDbPolyline
 90
        4
 70
     1
 43
0.0
 10
-1.789177
 20
-2.532318999999999
 10
-1.785288999999999
 20
-2.614927
 10
-1.780877999999999
 20
-2.697375
 10
-1.775913
 20
-2.779593999999999
  0
LWPOLYLINE
  5
C96
330
1E
100
AcDbEntity
  8
LAYER_1
  6
CONTINUOUS
 62
     7
100
AcDbPolyline
 90
        4
 70
     1
 43
0.0
 10
-1.775913
 20
-2.779593999999999
 10
-1.770377
 20
-2.861539
 10
-1.764259999999999
 20
-2.943227999999999
 10
-1.757554999999999
 20
-3.024693
  0
LWPOLYLINE
  5
C9C
330
1E
100
AcDbEntity
  8
LAYER_1
  6
CONTINUOUS
 62
     7
100
AcDbPolyline
 90
        4
 70
     1
 43
0.0
 10
-1.757554999999999
 20
-3.024693
 10
-1.750252
 20
-3.105942999999999
 10
-1.742300999999999
 20
-3.186929999999999
 10
-1.733638
 20
-3.267593999999999
  0
LWPOLYLINE
  5
CA2
330
1E
100
AcDbEntity
  8
LAYER_1
  6
CONTINUOUS
 62
     7
100
AcDbPolyline
 90
        4
 70
     1
 43
0.0
 10
-1.733638
 20
-3.267593999999999
 10
-1.724200999999999
 20
-3.347859999999999
 10
-1.713956999999999
 20
-3.427644
 10
-1.702874
 20
-3.506845999999999
  0
LWPOLYLINE
  5
CA8
330
1E
100
AcDbEntity
  8
LAYER_1
  6
CONTINUOUS
 62
     7
100
AcDbPolyline
 90
        4
 70
     1
 43
0.0
 10
-1.702874
 20
-3.506845999999999
 10
-1.690914
 20
-3.585385
 10
-1.678045
 20
-3.663206999999999
 10
-1.664231999999999
 20
-3.740276
  0
LWPOLYLINE
  5
CAE
330
1E
100
AcDbEntity
  8
LAYER_1
  6
CONTINUOUS
 62
     7
100
AcDbPolyline
 90
        4
 70
     1
 43
0.0
 10
-1.664231999999999
 20
-3.740276
 10
-1.649434
 20
-3.816537
 10
-1.633537
 20
-3.891758999999999
 10
-1.616412999999999
 20
-3.965676999999999
  0
LWPOLYLINE
  5
CB4
330
1E
100
AcDbEntity
  8
LAYER_1
  6
CONTINUOUS
 62
     7
100
AcDbPolyline
 90
        4
 70
     1
 43
0.0
 10
-1.616412999999999
 20
-3.965676999999999
 10
-1.597963999999999
 20
-4.038008
 10
-1.578286999999999
 20
-4.108262999999999
 10
-1.557512
 20
-4.175925
  0
LWPOLYLINE
  5
CBA
330
1E
100
AcDbEntity
  8
LAYER_1
  6
CONTINUOUS
 62
     7
100
AcDbPolyline
 90
        4
 70
     1
 43
0.0
 10
-1.557512
 20
-4.175925
 10
-1.535803
 20
-4.240408999999999
 10
-1.513513999999999
 20
-4.300839999999999
 10
-1.491028
 20
-4.356279999999999
  0
LWPOLYLINE
  5
CC0
330
1E
100
AcDbEntity
  8
LAYER_1
  6
CONTINUOUS
 62
     7
100
AcDbPolyline
 90
        4
 70
     1
 43
0.0
 10
-1.491028
 20
-4.356279999999999
 10
-1.468750999999999
 20
-4.405918999999999
 10
-1.447116999999999
 20
-4.449433999999999
 10
-1.426582999999999
 20
-4.486629999999999
  0
LWPOLYLINE
  5
CC6
330
1E
100
AcDbEntity
  8
LAYER_1
  6
CONTINUOUS
 62
     7
100
AcDbPolyline
 90
        4
 70
     1
 43
0.0
 10
-1.426582999999999
 20
-4.486629999999999
 10
-1.407529999999999
 20
-4.517498999999999
 10
-1.390037
 20
-4.542797
 10
-1.374094
 20
-4.563464999999999
  0
LWPOLYLINE
  5
CCC
330
1E
100
AcDbEntity
  8
LAYER_1
  6
CONTINUOUS
 62
     7
100
AcDbPolyline
 90
        4
 70
     1
 43
0.0
 10
-1.374094
 20
-4.563464999999999
 10
-1.359658
 20
-4.580360999999999
 10
-1.346486
 20
-4.594051
 10
-1.334290999999999
 20
-4.605015999999999
  0
LWPOLYLINE
  5
CD2
330
1E
100
AcDbEntity
  8
LAYER_1
  6
CONTINUOUS
 62
     7
100
AcDbPolyline
 90
        4
 70
     1
 43
0.0
 10
-1.334290999999999
 20
-4.605015999999999
 10
-1.322812
 20
-4.613712
 10
-1.311949
 20
-4.62043
 10
-1.301637999999999
 20
-4.625433
  0
LWPOLYLINE
  5
CD8
330
1E
100
AcDbEntity
  8
LAYER_1
  6
CONTINUOUS
 62
     7
100
AcDbPolyline
 90
        4
 70
     1
 43
0.0
 10
-1.301637999999999
 20
-4.625433
 10
-1.291790999999999
 20
-4.628908
 10
-1.28231
 20
-4.630797
 10
-1.273066999999999
 20
-4.630971999999999
  0
LWPOLYLINE
  5
CDE
330
1E
100
AcDbEntity
  8
LAYER_1
  6
CONTINUOUS
 62
     7
100
AcDbPolyline
 90
        4
 70
     1
 43
0.0
 10
-1.273066999999999
 20
-4.630971999999999
 10
-1.263946
 20
-4.629304
 10
-1.255055999999999
 20
-4.625691
 10
-1.246528
 20
-4.620034999999999
  0
LWPOLYLINE
  5
CE4
330
1E
100
AcDbEntity
  8
LAYER_1
  6
CONTINUOUS
 62
     7
100
AcDbPolyline
 90
        4
 70
     1
 43
0.0
 10
-1.246528
 20
-4.620034999999999
 10
-1.238426
 20
-4.612248
 10
-1.230612
 20
-4.602258999999999
 10
-1.222901999999999
 20
-4.589999999999999
  0
LWPOLYLINE
  5
CEA
330
1E
100
AcDbEntity
  8
LAYER_1
  6
CONTINUOUS
 62
     7
100
AcDbPolyline
 90
        4
 70
     1
 43
0.0
 10
-1.222901999999999
 20
-4.589999999999999
 10
-1.215111
 20
-4.575296999999999
 10
-1.207125
 20
-4.557516
 10
-1.198845999999999
 20
-4.535908999999999
  0
LWPOLYLINE
  5
CF0
330
1E
100
AcDbEntity
  8
LAYER_1
  6
CONTINUOUS
 62
     7
100
AcDbPolyline
 90
        4
 70
     1
 43
0.0
 10
-1.198845999999999
 20
-4.535908999999999
 10
-1.190204
 20
-4.509675999999999
 10
-1.181241999999999
 20
-4.477771999999999
 10
-1.172028
 20
-4.439098
  0
LWPOLYLINE
  5
CF6
330
1E
100
AcDbEntity
  8
LAYER_1
  6
CONTINUOUS
 62
     7
100
AcDbPolyline
 90
        4
 70
     1
 43
0.0
 10
-1.172028
 20
-4.439098
 10
-1.162649999999999
 20
-4.392831
 10
-1.153402999999999
 20
-4.339272
 10
-1.14461
 20
-4.279008
  0
LWPOLYLINE
  5
CFC
330
1E
100
AcDbEntity
  8
LAYER_1
  6
CONTINUOUS
 62
     7
100
AcDbPolyline
 90
        4
 70
     1
 43
0.0
 10
-1.14461
 20
-4.279008
 10
-1.136549999999999
 20
-4.212744999999999
 10
-1.129334
 20
-4.141687999999999
 10
-1.123028
 20
-4.067165
  0
LWPOLYLINE
  5
D02
330
1E
100
AcDbEntity
  8
LAYER_1
  6
CONTINUOUS
 62
     7
100
AcDbPolyline
 90
        4
 70
     1
 43
0.0
 10
-1.123028
 20
-4.067165
 10
-1.117674999999999
 20
-3.990341999999999
 10
-1.113264
 20
-3.911772
 10
-1.109763999999999
 20
-3.831846
  0
LWPOLYLINE
  5
D08
330
1E
100
AcDbEntity
  8
LAYER_1
  6
CONTINUOUS
 62
     7
100
AcDbPolyline
 90
        4
 70
     1
 43
0.0
 10
-1.109763999999999
 20
-3.831846
 10
-1.107115
 20
-3.750905999999999
 10
-1.105177999999999
 20
-3.669191
 10
-1.103790999999999
 20
-3.586901999999999
  0
LWPOLYLINE
  5
D0E
330
1E
100
AcDbEntity
  8
LAYER_1
  6
CONTINUOUS
 62
     7
100
AcDbPolyline
 90
        4
 70
     1
 43
0.0
 10
-1.103790999999999
 20
-3.586901999999999
 10
-1.102822999999999
 20
-3.504191
 10
-1.102274999999999
 20
-3.421158999999999
 10
-1.102176999999999
 20
-3.337873999999999
  0
LWPOLYLINE
  5
D14
330
1E
100
AcDbEntity
  8
LAYER_1
  6
CONTINUOUS
 62
     7
100
AcDbPolyline
 90
        4
 70
     1
 43
0.0
 10
-1.102176999999999
 20
-3.337873999999999
 10
-1.102554999999999
 20
-3.254372999999999
 10
-1.103319
 20
-3.170681999999999
 10
-1.104373999999999
 20
-3.086802999999999
  0
LWPOLYLINE
  5
D1A
330
1E
100
AcDbEntity
  8
LAYER_1
  6
CONTINUOUS
 62
     7
100
AcDbPolyline
 90
        4
 70
     1
 43
0.0
 10
-1.104373999999999
 20
-3.086802999999999
 10
-1.105636999999999
 20
-3.002724999999999
 10
-1.107094
 20
-2.918454
 10
-1.108748
 20
-2.833984
  0
LWPOLYLINE
  5
D20
330
1E
100
AcDbEntity
  8
LAYER_1
  6
CONTINUOUS
 62
     7
100
AcDbPolyline
 90
        4
 70
     1
 43
0.0
 10
-1.108748
 20
-2.833984
 10
-1.110581
 20
-2.749331
 10
-1.112583
 20
-2.664552
 10
-1.11472
 20
-2.579705
  0
LWPOLYLINE
  5
D26
330
1E
100
AcDbEntity
  8
LAYER_1
  6
CONTINUOUS
 62
     7
100
AcDbPolyline
 90
        4
 70
     1
 43
0.0
 10
-1.11472
 20
-2.579705
 10
-1.116965999999999
 20
-2.494842999999999
 10
-1.119334999999999
 20
-2.409952
 10
-1.121858
 20
-2.324996
  0
LWPOLYLINE
  5
D2C
330
1E
100
AcDbEntity
  8
LAYER_1
  6
CONTINUOUS
 62
     7
100
AcDbPolyline
 90
        4
 70
     1
 43
0.0
 10
-1.121858
 20
-2.324996
 10
-1.124570999999999
 20
-2.239952999999999
 10
-1.127412
 20
-2.154840999999999
 10
-1.130319
 20
-2.069693
  0
LWPOLYLINE
  5
D32
330
1E
100
AcDbEntity
  8
LAYER_1
  6
CONTINUOUS
 62
     7
100
AcDbPolyline
 90
        4
 70
     0
 43
0.0
 10
-1.130319
 20
-2.069693
 10
-1.133238999999999
 20
-1.984550999999999
 10
-1.136190999999999
 20
-1.899406
 10
-1.139205
 20
-1.814263999999999
  0
LWPOLYLINE
  5
D38
330
1E
100
AcDbEntity
  8
LAYER_1
  6
CONTINUOUS
 62
     7
100
AcDbPolyline
 90
        4
 70
     0
 43
0.0
 10
-1.139205
 20
-1.814263999999999
 10
-1.142321999999999
 20
-1.729104999999999
 10
-1.145529999999999
 20
-1.643915999999999
 10
-1.148830999999999
 20
-1.558664999999999
  0
LWPOLYLINE
  5
D3E
330
1E
100
AcDbEntity
  8
LAYER_1
  6
CONTINUOUS
 62
     7
100
AcDbPolyline
 90
        4
 70
     0
 43
0.0
 10
-1.148830999999999
 20
-1.558664999999999
 10
-1.152228
 20
-1.473331999999999
 10
-1.155653
 20
-1.387933
 10
-1.159038999999999
 20
-1.302499999999999
  0
LWPOLYLINE
  5
D44
330
1E
100
AcDbEntity
  8
LAYER_1
  6
CONTINUOUS
 62
     7
100
AcDbPolyline
 90
        4
 70
     0
 43
0.0
 10
-1.159038999999999
 20
-1.302499999999999
 10
-1.162360999999999
 20
-1.217057999999999
 10
-1.165645
 20
-1.131619
 10
-1.168957
 20
-1.046177
  0
LWPOLYLINE
  5
D4A
330
1E
100
AcDbEntity
  8
LAYER_1
  6
CONTINUOUS
 62
     7
100
AcDbPolyline
 90
        4
 70
     1
 43
0.0
 10
-1.168957
 20
-1.046177
 10
-1.17236
 20
-0.9607359999999999
 10
-1.175823999999999
 20
-0.8752989999999998
 10
-1.179319
 20
-0.7898579999999999
  0
LWPOLYLINE
  5
D50
330
1E
100
AcDbEntity
  8
LAYER_1
  6
CONTINUOUS
 62
     7
100
AcDbPolyline
 90
        4
 70
     1
 43
0.0
 10
-1.179319
 20
-0.7898579999999999
 10
-1.182814
 20
-0.70443
 10
-1.186348999999999
 20
-0.6190290000000001
 10
-1.189956999999999
 20
-0.5336930000000001
  0
LWPOLYLINE
  5
D56
330
1E
100
AcDbEntity
  8
LAYER_1
  6
CONTINUOUS
 62
     7
100
AcDbPolyline
 90
        4
 70
     1
 43
0.0
 10
-1.189956999999999
 20
-0.5336930000000001
 10
-1.193635
 20
-0.4484320000000001
 10
-1.197351
 20
-0.363171
 10
-1.201038999999999
 20
-0.277819
  0
LWPOLYLINE
  5
D5C
330
1E
100
AcDbEntity
  8
LAYER_1
  6
CONTINUOUS
 62
     7
100
AcDbPolyline
 90
        4
 70
     1
 43
0.0
 10
-1.201038999999999
 20
-0.277819
 10
-1.204636
 20
-0.192296
 10
-1.208172
 20
-0.106678
 10
-1.211677
 20
-0.021055
  0
LWPOLYLINE
  5
D62
330
1E
100
AcDbEntity
  8
LAYER_1
  6
CONTINUOUS
 62
     7
100
AcDbPolyline
 90
        4
 70
     1
 43
0.0
 10
-1.211677
 20
-0.021055
 10
-1.215176999999999
 20
0.064483
 10
-1.218677
 20
0.149956
 10
-1.222177
 20
0.235402
  0
LWPOLYLINE
  5
D68
330
1E
100
AcDbEntity
  8
LAYER_1
  6
CONTINUOUS
 62
     7
100
AcDbPolyline
 90
        4
 70
     1
 43
0.0
 10
-1.222177
 20
0.235402
 10
-1.225677
 20
0.320842
 10
-1.229176999999999
 20
0.4062800000000001
 10
-1.232677
 20
0.4917200000000001
  0
LWPOLYLINE
  5
D6E
330
1E
100
AcDbEntity
  8
LAYER_1
  6
CONTINUOUS
 62
     7
100
AcDbPolyline
 90
        4
 70
     1
 43
0.0
 10
-1.232677
 20
0.4917200000000001
 10
-1.236177
 20
0.577154
 10
-1.239673999999999
 20
0.662595
 10
-1.243164999999999
 20
0.748039
  0
LWPOLYLINE
  5
D74
330
1E
100
AcDbEntity
  8
LAYER_1
  6
CONTINUOUS
 62
     7
100
AcDbPolyline
 90
        4
 70
     1
 43
0.0
 10
-1.243164999999999
 20
0.748039
 10
-1.24666
 20
0.8334669999999999
 10
-1.250124999999999
 20
0.9188679999999999
 10
-1.253527999999999
 20
1.004205
  0
LWPOLYLINE
  5
D7A
330
1E
100
AcDbEntity
  8
LAYER_1
  6
CONTINUOUS
 62
     7
100
AcDbPolyline
 90
        4
 70
     1
 43
0.0
 10
-1.253527999999999
 20
1.004205
 10
-1.256833
 20
1.08946
 10
-1.260078
 20
1.174684999999999
 10
-1.263290999999999
 20
1.259940999999999
  0
LWPOLYLINE
  5
D80
330
1E
100
AcDbEntity
  8
LAYER_1
  6
CONTINUOUS
 62
     7
100
AcDbPolyline
 90
        4
 70
     1
 43
0.0
 10
-1.263290999999999
 20
1.259940999999999
 10
-1.266499
 20
1.345250999999999
 10
-1.269706
 20
1.430464999999999
 10
-1.272912999999999
 20
1.515386
  0
LWPOLYLINE
  5
D86
330
1E
100
AcDbEntity
  8
LAYER_1
  6
CONTINUOUS
 62
     7
100
AcDbPolyline
 90
        4
 70
     1
 43
0.0
 10
-1.272912999999999
 20
1.515386
 10
-1.276092
 20
1.599690999999999
 10
-1.279145999999999
 20
1.682535999999999
 10
-1.281940999999999
 20
1.762941
  0
LWPOLYLINE
  5
D8C
330
1E
100
AcDbEntity
  8
LAYER_1
  6
CONTINUOUS
 62
     7
100
AcDbPolyline
 90
        4
 70
     1
 43
0.0
 10
-1.281940999999999
 20
1.762941
 10
-1.284356999999999
 20
1.840452999999999
 10
-1.286287999999999
 20
1.916533
 10
-1.287637999999999
 20
1.993165
  0
LWPOLYLINE
  5
D92
330
1E
100
AcDbEntity
  8
LAYER_1
  6
CONTINUOUS
 62
     7
100
AcDbPolyline
 90
        4
 70
     1
 43
0.0
 10
-1.287637999999999
 20
1.993165
 10
-1.288345
 20
2.071927
 10
-1.288570999999999
 20
2.152795
 10
-1.288512
 20
2.235345999999999
  0
LWPOLYLINE
  5
D98
330
1E
100
AcDbEntity
  8
LAYER_1
  6
CONTINUOUS
 62
     7
100
AcDbPolyline
 90
        4
 70
     1
 43
0.0
 10
-1.288512
 20
2.235345999999999
 10
-1.288316999999999
 20
2.319158999999999
 10
-1.288062
 20
2.403814
 10
-1.287776
 20
2.488885999999999
  0
LWPOLYLINE
  5
D9E
330
1E
100
AcDbEntity
  8
LAYER_1
  6
CONTINUOUS
 62
     7
100
AcDbPolyline
 90
        4
 70
     1
 43
0.0
 10
-1.287776
 20
2.488885999999999
 10
-1.287479
 20
2.574040999999999
 10
-1.287152
 20
2.659227
 10
-1.286764
 20
2.744483999999999
  0
LWPOLYLINE
  5
DA4
330
1E
100
AcDbEntity
  8
LAYER_1
  6
CONTINUOUS
 62
     7
100
AcDbPolyline
 90
        4
 70
     1
 43
0.0
 10
-1.286764
 20
2.744483999999999
 10
-1.286271999999999
 20
2.829810999999999
 10
-1.285687
 20
2.91517
 10
-1.285012
 20
3.0005
  0
LWPOLYLINE
  5
DAA
330
1E
100
AcDbEntity
  8
LAYER_1
  6
CONTINUOUS
 62
     7
100
AcDbPolyline
 90
        4
 70
     1
 43
0.0
 10
-1.285012
 20
3.0005
 10
-1.284235
 20
3.085749
 10
-1.283395999999999
 20
3.170936999999999
 10
-1.282528
 20
3.256094
  0
LWPOLYLINE
  5
DB0
330
1E
100
AcDbEntity
  8
LAYER_1
  6
CONTINUOUS
 62
     7
100
AcDbPolyline
 90
        4
 70
     1
 43
0.0
 10
-1.282528
 20
3.256094
 10
-1.281645999999999
 20
3.341230999999999
 10
-1.280734999999999
 20
3.426341
 10
-1.279763999999999
 20
3.511385999999999
  0
LWPOLYLINE
  5
DB6
330
1E
100
AcDbEntity
  8
LAYER_1
  6
CONTINUOUS
 62
     7
100
AcDbPolyline
 90
        4
 70
     1
 43
0.0
 10
-1.279763999999999
 20
3.511385999999999
 10
-1.278704
 20
3.596236
 10
-1.277576
 20
3.680373999999999
 10
-1.276413
 20
3.763176999999999
  0
LWPOLYLINE
  5
DBC
330
1E
100
AcDbEntity
  8
LAYER_1
  6
CONTINUOUS
 62
     7
100
AcDbPolyline
 90
        4
 70
     1
 43
0.0
 10
-1.276413
 20
3.763176999999999
 10
-1.275258999999999
 20
3.84348
 10
-1.274167999999999
 20
3.917819
 10
-1.273204999999999
 20
3.982176999999999
  0
LWPOLYLINE
  5
DC2
330
1E
100
AcDbEntity
  8
LAYER_1
  6
CONTINUOUS
 62
     7
100
AcDbPolyline
 90
        4
 70
     1
 43
0.0
 10
-1.273204999999999
 20
3.982176999999999
 10
-1.272428
 20
4.033297
 10
-1.271845
 20
4.070973999999999
 10
-1.271457
 20
4.095763999999999
  0
LWPOLYLINE
  5
DC8
330
1E
100
AcDbEntity
  8
LAYER_1
  6
CONTINUOUS
 62
     7
100
AcDbPolyline
 90
        4
 70
     1
 43
0.0
 10
-1.271457
 20
4.095763999999999
 10
-1.271252
 20
4.108791
 10
-1.271176
 20
4.11359
 10
-1.271164999999999
 20
4.114276
  0
LWPOLYLINE
  5
DCE
330
1E
100
AcDbEntity
  8
LAYER_1
  6
CONTINUOUS
 62
     7
100
AcDbPolyline
 90
        4
 70
     0
 43
0.003
 10
0.010346
 20
-1.242831
 10
0.01032
 20
-1.242063999999999
 10
0.010132
 20
-1.236695
 10
0.009622
 20
-1.222121999999999
  0
LWPOLYLINE
  5
DD4
330
1E
100
AcDbEntity
  8
LAYER_1
  6
CONTINUOUS
 62
     7
100
AcDbPolyline
 90
        4
 70
     0
 43
0.003
 10
0.009622
 20
-1.222121999999999
 10
0.008683
 20
-1.195249999999999
 10
0.007419
 20
-1.159175
 10
0.006
 20
-1.1185
  0
LWPOLYLINE
  5
DDA
330
1E
100
AcDbEntity
  8
LAYER_1
  6
CONTINUOUS
 62
     7
100
AcDbPolyline
 90
        4
 70
     1
 43
0.0
 10
0.006
 20
-1.1185
 10
0.005349
 20
-1.077795999999999
 10
0.009464
 20
-1.041536
 10
0.02311
 20
-1.014164999999999
  0
LWPOLYLINE
  5
DE0
330
1E
100
AcDbEntity
  8
LAYER_1
  6
CONTINUOUS
 62
     7
100
AcDbPolyline
 90
        4
 70
     1
 43
0.0
 10
0.02311
 20
-1.014164999999999
 10
0.048724
 20
-0.9994309999999998
 10
0.079423
 20
-0.9983579999999999
 10
0.106
 20
-1.011263999999999
  0
LWPOLYLINE
  5
DE6
330
1E
100
AcDbEntity
  8
LAYER_1
  6
CONTINUOUS
 62
     7
100
AcDbPolyline
 90
        4
 70
     1
 43
0.0
 10
0.106
 20
-1.011263999999999
 10
0.121517
 20
-1.037625999999999
 10
0.12815
 20
-1.073513999999999
 10
0.130346
 20
-1.114165
  0
LWPOLYLINE
  5
DEC
330
1E
100
AcDbEntity
  8
LAYER_1
  6
CONTINUOUS
 62
     7
100
AcDbPolyline
 90
        4
 70
     0
 43
0.003
 10
0.130346
 20
-1.114165
 10
0.131764
 20
-1.154843
 10
0.13302
 20
-1.190914999999999
 10
0.133957
 20
-1.217775999999999
  0
LWPOLYLINE
  5
DF2
330
1E
100
AcDbEntity
  8
LAYER_1
  6
CONTINUOUS
 62
     7
100
AcDbPolyline
 90
        4
 70
     0
 43
0.003
 10
0.133957
 20
-1.217775999999999
 10
0.134464
 20
-1.232356999999999
 10
0.13465
 20
-1.237729
 10
0.134677
 20
-1.238495999999999
  0
SOLID
  5
DF8
330
1E
100
AcDbEntity
  8
LAYER_1
  6
CONTINUOUS
 62
   253
100
AcDbTrace
 10
-0.261469
 20
-1.260512
 30
0.0
 11
0.371165
 21
-1.236554999999999
 31
0.0
 12
-0.254929
 22
-2.010038999999999
 32
0.0
 13
0.399205
 23
-1.985885999999999
 33
0.0
  0
LWPOLYLINE
  5
DF9
330
1E
100
AcDbEntity
  8
LAYER_1
  6
CONTINUOUS
 62
   253
100
AcDbPolyline
 90
        4
 70
     1
 43
0.003
 10
-0.261469
 20
-1.260512
 10
0.371165
 20
-1.236554999999999
 10
0.399205
 20
-1.985885999999999
 10
-0.254929
 20
-2.010038999999999
  0
LWPOLYLINE
  5
DFF
330
1E
100
AcDbEntity
  8
LAYER_1
  6
CONTINUOUS
 62
     7
100
AcDbPolyline
 90
        4
 70
     1
 43
0.003
 10
-0.261469
 20
-1.260512
 10
0.371165
 20
-1.236554999999999
 10
0.399205
 20
-1.985885999999999
 10
-0.254929
 20
-2.010038999999999
  0
SOLID
  5
E05
330
1E
100
AcDbEntity
  8
LAYER_1
  6
CONTINUOUS
 62
   153
100
AcDbTrace
 10
-1.741413
 20
-1.771386
 30
0.0
 11
-1.758011999999999
 21
-1.296412999999999
 31
0.0
 12
-1.178028
 22
-1.751704999999999
 32
0.0
 13
-1.194609999999999
 23
-1.276731999999999
 33
0.0
  0
LWPOLYLINE
  5
E06
330
1E
100
AcDbEntity
  8
LAYER_1
  6
CONTINUOUS
 62
   153
100
AcDbPolyline
 90
        4
 70
     1
 43
0.003
 10
-1.741413
 20
-1.771386
 10
-1.758011999999999
 20
-1.296412999999999
 10
-1.194609999999999
 20
-1.276731999999999
 10
-1.178028
 20
-1.751704999999999
  0
LWPOLYLINE
  5
E0C
330
1E
100
AcDbEntity
  8
LAYER_1
  6
CONTINUOUS
 62
     7
100
AcDbPolyline
 90
        4
 70
     1
 43
0.003
 10
-1.741413
 20
-1.771386
 10
-1.758011999999999
 20
-1.296412999999999
 10
-1.194609999999999
 20
-1.276731999999999
 10
-1.178028
 20
-1.751704999999999
  0
SOLID
  5
E12
330
1E
100
AcDbEntity
  8
LAYER_1
  6
CONTINUOUS
 62
     7
100
AcDbTrace
 10
-1.200054999999999
 20
-1.751109999999999
 30
0.0
 11
-1.216539
 21
-1.278764
 31
0.0
 12
-1.157831
 22
-1.749638
 32
0.0
 13
-1.174319
 23
-1.277290999999999
 33
0.0
  0
LWPOLYLINE
  5
E13
330
1E
100
AcDbEntity
  8
LAYER_1
  6
CONTINUOUS
 62
     7
100
AcDbPolyline
 90
        4
 70
     1
 43
0.003
 10
-1.200054999999999
 20
-1.751109999999999
 10
-1.216539
 20
-1.278764
 10
-1.174319
 20
-1.277290999999999
 10
-1.157831
 20
-1.749638
  0
LWPOLYLINE
  5
E19
330
1E
100
AcDbEntity
  8
LAYER_1
  6
CONTINUOUS
 62
     7
100
AcDbPolyline
 90
        4
 70
     1
 43
0.0
 10
-1.200054999999999
 20
-1.751109999999999
 10
-1.216539
 20
-1.278764
 10
-1.174319
 20
-1.277290999999999
 10
-1.157831
 20
-1.749638
  0
LWPOLYLINE
  5
E1F
330
1E
100
AcDbEntity
  8
LAYER_1
  6
CONTINUOUS
 62
   137
100
AcDbPolyline
 90
       16
 70
     1
 43
0.003
 10
-1.364940999999999
 20
-1.518302999999999
 10
-1.382787999999999
 20
-1.434906999999999
 10
-1.426428
 20
-1.367935
 10
-1.489411
 20
-1.324084
 10
-1.565291
 20
-1.310054999999999
 10
-1.640111
 20
-1.329938999999999
 10
-1.700195999999999
 20
-1.378576
 10
-1.739536
 20
-1.448778
 10
-1.752122
 20
-1.533357999999999
 10
-1.734275
 20
-1.616755999999999
 10
-1.690636
 20
-1.683729999999999
 10
-1.627653
 20
-1.727580999999999
 10
-1.551776
 20
-1.741609999999999
 10
-1.476951999999999
 20
-1.721716999999999
 10
-1.416863
 20
-1.673079999999999
 10
-1.377521999999999
 20
-1.602881
  0
LWPOLYLINE
  5
E31
330
1E
100
AcDbEntity
  8
LAYER_1
  6
CONTINUOUS
 62
     7
100
AcDbPolyline
 90
        5
 70
     0
 43
0.003
 10
-1.364940999999999
 20
-1.518302999999999
 10
-1.382787999999999
 20
-1.434906999999999
 10
-1.426428
 20
-1.367935
 10
-1.489411
 20
-1.324084
 10
-1.565291
 20
-1.310054999999999
  0
LWPOLYLINE
  5
E38
330
1E
100
AcDbEntity
  8
LAYER_1
  6
CONTINUOUS
 62
     7
100
AcDbPolyline
 90
        5
 70
     0
 43
0.003
 10
-1.565291
 20
-1.310054999999999
 10
-1.640111
 20
-1.329938999999999
 10
-1.700195999999999
 20
-1.378576
 10
-1.739536
 20
-1.448778
 10
-1.752122
 20
-1.533357999999999
  0
LWPOLYLINE
  5
E3F
330
1E
100
AcDbEntity
  8
LAYER_1
  6
CONTINUOUS
 62
     7
100
AcDbPolyline
 90
        5
 70
     0
 43
0.003
 10
-1.752122
 20
-1.533357999999999
 10
-1.734275
 20
-1.616755999999999
 10
-1.690636
 20
-1.683729999999999
 10
-1.627653
 20
-1.727580999999999
 10
-1.551776
 20
-1.741609999999999
  0
LWPOLYLINE
  5
E46
330
1E
100
AcDbEntity
  8
LAYER_1
  6
CONTINUOUS
 62
     7
100
AcDbPolyline
 90
        5
 70
     0
 43
0.003
 10
-1.551776
 20
-1.741609999999999
 10
-1.476951999999999
 20
-1.721716999999999
 10
-1.416863
 20
-1.673079999999999
 10
-1.377521999999999
 20
-1.602881
 10
-1.364940999999999
 20
-1.518302999999999
  0
LWPOLYLINE
  5
E4D
330
1E
100
AcDbEntity
  8
LAYER_1
  6
CONTINUOUS
 62
     7
100
AcDbPolyline
 90
       12
 70
     1
 43
0.003
 10
-1.390093999999999
 20
-1.519290999999999
 10
-1.416063999999999
 20
-1.425420999999999
 10
-1.478603999999999
 20
-1.360416
 10
-1.564412999999999
 20
-1.338094
 10
-1.648625999999999
 20
-1.367030999999999
 10
-1.706947
 20
-1.436735999999999
 10
-1.726984
 20
-1.532385999999999
 10
-1.701013999999999
 20
-1.626255999999999
 10
-1.63847
 20
-1.691263
 10
-1.55265
 20
-1.713593999999999
 10
-1.468447999999999
 20
-1.684647
 10
-1.410130999999999
 20
-1.614938999999999
  0
LWPOLYLINE
  5
E5B
330
1E
100
AcDbEntity
  8
LAYER_1
  6
CONTINUOUS
 62
     7
100
AcDbPolyline
 90
        4
 70
     0
 43
0.003
 10
-1.390093999999999
 20
-1.519290999999999
 10
-1.416063999999999
 20
-1.425420999999999
 10
-1.478603999999999
 20
-1.360416
 10
-1.564412999999999
 20
-1.338094
  0
LWPOLYLINE
  5
E61
330
1E
100
AcDbEntity
  8
LAYER_1
  6
CONTINUOUS
 62
     7
100
AcDbPolyline
 90
        4
 70
     0
 43
0.003
 10
-1.564412999999999
 20
-1.338094
 10
-1.648625999999999
 20
-1.367030999999999
 10
-1.706947
 20
-1.436735999999999
 10
-1.726984
 20
-1.532385999999999
  0
LWPOLYLINE
  5
E67
330
1E
100
AcDbEntity
  8
LAYER_1
  6
CONTINUOUS
 62
     7
100
AcDbPolyline
 90
        4
 70
     0
 43
0.003
 10
-1.726984
 20
-1.532385999999999
 10
-1.701013999999999
 20
-1.626255999999999
 10
-1.63847
 20
-1.691263
 10
-1.55265
 20
-1.713593999999999
  0
LWPOLYLINE
  5
E6D
330
1E
100
AcDbEntity
  8
LAYER_1
  6
CONTINUOUS
 62
     7
100
AcDbPolyline
 90
        4
 70
     0
 43
0.003
 10
-1.55265
 20
-1.713593999999999
 10
-1.468447999999999
 20
-1.684647
 10
-1.410130999999999
 20
-1.614938999999999
 10
-1.390093999999999
 20
-1.519290999999999
  0
SOLID
  5
E73
330
1E
100
AcDbEntity
  8
LAYER_1
  6
CONTINUOUS
 62
     7
100
AcDbTrace
 10
0.341083
 20
-1.988413
 30
0.0
 11
0.315555
 21
-1.242593999999999
 31
0.0
 12
0.423984
 22
-1.985483999999999
 32
0.0
 13
0.398457
 23
-1.239665
 33
0.0
  0
LWPOLYLINE
  5
E74
330
1E
100
AcDbEntity
  8
LAYER_1
  6
CONTINUOUS
 62
     7
100
AcDbPolyline
 90
        4
 70
     1
 43
0.003
 10
0.341083
 20
-1.988413
 10
0.315555
 20
-1.242593999999999
 10
0.398457
 20
-1.239665
 10
0.423984
 20
-1.985483999999999
  0
LWPOLYLINE
  5
E7A
330
1E
100
AcDbEntity
  8
LAYER_1
  6
CONTINUOUS
 62
     7
100
AcDbPolyline
 90
        4
 70
     1
 43
0.0
 10
0.341083
 20
-1.988413
 10
0.315555
 20
-1.242593999999999
 10
0.398457
 20
-1.239665
 10
0.423984
 20
-1.985483999999999
  0
SOLID
  5
E80
330
1E
100
AcDbEntity
  8
LAYER_1
  6
CONTINUOUS
 62
     7
100
AcDbTrace
 10
-0.29822
 20
-2.011638
 30
0.0
 11
-0.323748
 21
-1.265819
 31
0.0
 12
-0.215331
 22
-2.008704999999999
 32
0.0
 13
-0.240846
 23
-1.262901999999999
 33
0.0
  0
LWPOLYLINE
  5
E81
330
1E
100
AcDbEntity
  8
LAYER_1
  6
CONTINUOUS
 62
     7
100
AcDbPolyline
 90
        4
 70
     1
 43
0.003
 10
-0.29822
 20
-2.011638
 10
-0.323748
 20
-1.265819
 10
-0.240846
 20
-1.262901999999999
 10
-0.215331
 20
-2.008704999999999
  0
LWPOLYLINE
  5
E87
330
1E
100
AcDbEntity
  8
LAYER_1
  6
CONTINUOUS
 62
     7
100
AcDbPolyline
 90
        4
 70
     1
 43
0.0
 10
-0.29822
 20
-2.011638
 10
-0.323748
 20
-1.265819
 10
-0.240846
 20
-1.262901999999999
 10
-0.215331
 20
-2.008704999999999
  0
SOLID
  5
E8D
330
1E
100
AcDbEntity
  8
LAYER_1
  6
CONTINUOUS
 62
     7
100
AcDbTrace
 10
-0.307386
 20
-2.012290999999999
 30
0.0
 11
-0.329193
 21
-1.387528
 31
0.0
 12
-0.299402
 22
-2.012011999999999
 32
0.0
 13
-0.32122
 23
-1.387248
 33
0.0
  0
LWPOLYLINE
  5
E8E
330
1E
100
AcDbEntity
  8
LAYER_1
  6
CONTINUOUS
 62
     7
100
AcDbPolyline
 90
        4
 70
     1
 43
0.003
 10
-0.307386
 20
-2.012290999999999
 10
-0.329193
 20
-1.387528
 10
-0.32122
 20
-1.387248
 10
-0.299402
 20
-2.012011999999999
  0
LWPOLYLINE
  5
E94
330
1E
100
AcDbEntity
  8
LAYER_1
  6
CONTINUOUS
 62
     7
100
AcDbPolyline
 90
        4
 70
     1
 43
0.003
 10
-0.307386
 20
-2.012290999999999
 10
-0.329193
 20
-1.387528
 10
-0.32122
 20
-1.387248
 10
-0.299402
 20
-2.012011999999999
  0
SOLID
  5
E9A
330
1E
100
AcDbEntity
  8
LAYER_1
  6
CONTINUOUS
 62
     7
100
AcDbTrace
 10
-0.31572
 20
-2.011609999999999
 30
0.0
 11
-0.330957
 21
-1.575083
 31
0.0
 12
-0.307732
 22
-2.011331
 32
0.0
 13
-0.322984
 23
-1.574803
 33
0.0
  0
LWPOLYLINE
  5
E9B
330
1E
100
AcDbEntity
  8
LAYER_1
  6
CONTINUOUS
 62
     7
100
AcDbPolyline
 90
        4
 70
     1
 43
0.003
 10
-0.31572
 20
-2.011609999999999
 10
-0.330957
 20
-1.575083
 10
-0.322984
 20
-1.574803
 10
-0.307732
 20
-2.011331
  0
LWPOLYLINE
  5
EA1
330
1E
100
AcDbEntity
  8
LAYER_1
  6
CONTINUOUS
 62
     7
100
AcDbPolyline
 90
        4
 70
     1
 43
0.003
 10
-0.31572
 20
-2.011609999999999
 10
-0.330957
 20
-1.575083
 10
-0.322984
 20
-1.574803
 10
-0.307732
 20
-2.011331
  0
SOLID
  5
EA7
330
1E
100
AcDbEntity
  8
LAYER_1
  6
CONTINUOUS
 62
     7
100
AcDbTrace
 10
-0.323913
 20
-2.012413
 30
0.0
 11
-0.332594
 21
-1.763732
 31
0.0
 12
-0.315941
 22
-2.012122
 32
0.0
 13
-0.324622
 23
-1.763457
 33
0.0
  0
LWPOLYLINE
  5
EA8
330
1E
100
AcDbEntity
  8
LAYER_1
  6
CONTINUOUS
 62
     7
100
AcDbPolyline
 90
        4
 70
     1
 43
0.003
 10
-0.323913
 20
-2.012413
 10
-0.332594
 20
-1.763732
 10
-0.324622
 20
-1.763457
 10
-0.315941
 20
-2.012122
  0
LWPOLYLINE
  5
EAE
330
1E
100
AcDbEntity
  8
LAYER_1
  6
CONTINUOUS
 62
     7
100
AcDbPolyline
 90
        4
 70
     1
 43
0.003
 10
-0.323913
 20
-2.012413
 10
-0.332594
 20
-1.763732
 10
-0.324622
 20
-1.763457
 10
-0.315941
 20
-2.012122
  0
SOLID
  5
EB4
330
1E
100
AcDbEntity
  8
LAYER_1
  6
CONTINUOUS
 62
     7
100
AcDbTrace
 10
-1.785704999999999
 20
-1.767374
 30
0.0
 11
-1.781583
 21
-1.294764
 31
0.0
 12
-1.743468999999999
 22
-1.767732
 32
0.0
 13
-1.739345999999999
 23
-1.295121999999999
 33
0.0
  0
LWPOLYLINE
  5
EB5
330
1E
100
AcDbEntity
  8
LAYER_1
  6
CONTINUOUS
 62
     7
100
AcDbPolyline
 90
        4
 70
     1
 43
0.003
 10
-1.785704999999999
 20
-1.767374
 10
-1.781583
 20
-1.294764
 10
-1.739345999999999
 20
-1.295121999999999
 10
-1.743468999999999
 20
-1.767732
  0
LWPOLYLINE
  5
EBB
330
1E
100
AcDbEntity
  8
LAYER_1
  6
CONTINUOUS
 62
     7
100
AcDbPolyline
 90
        4
 70
     1
 43
0.0
 10
-1.785704999999999
 20
-1.767374
 10
-1.781583
 20
-1.294764
 10
-1.739345999999999
 20
-1.295121999999999
 10
-1.743468999999999
 20
-1.767732
  0
LWPOLYLINE
  5
EC1
330
1E
100
AcDbEntity
  8
LAYER_1
  6
CONTINUOUS
 62
     7
100
AcDbPolyline
 90
        2
 70
     1
 43
0.0
 10
-1.792429
 20
-0.5049960000000001
 10
-1.933747999999999
 20
1.645374
  0
LWPOLYLINE
  5
EC5
330
1E
100
AcDbEntity
  8
LAYER_1
  6
CONTINUOUS
 62
     7
100
AcDbPolyline
 90
        2
 70
     1
 43
0.0
 10
-1.774011999999999
 20
-0.007346
 10
-1.958331
 20
2.130732
  0
LWPOLYLINE
  5
EC9
330
1E
100
AcDbEntity
  8
LAYER_1
  6
CONTINUOUS
 62
     7
100
AcDbPolyline
 90
        2
 70
     1
 43
0.0
 10
-0.284094
 20
0.9188459999999999
 10
-0.270276
 20
2.732845999999999
  0
LWPOLYLINE
  5
ECD
330
1E
100
AcDbEntity
  8
LAYER_1
  6
CONTINUOUS
 62
     7
100
AcDbPolyline
 90
        2
 70
     1
 43
0.0
 10
-0.297929
 20
0.301386
 10
-0.233413
 20
2.121528
  0
ENDSEC
  0
SECTION
  2
OBJECTS
  0
DICTIONARY
  5
C
330
0
100
AcDbDictionary
  3
ACAD_GROUP
350
D
  3
ACAD_LAYOUT
350
19
  3
ACAD_MLINESTYLE
350
16
  3
ACAD_PLOTSETTINGS
350
18
  3
ACAD_PLOTSTYLENAME
350
E
  3
ACDBHEADERROUNDTRIPXREC
350
ED4
  0
DICTIONARY
  5
EF6
330
1E
100
AcDbDictionary
280
     1
  3
ACAD_LAYOUTSELFREF
360
EF7
  0
DICTIONARY
  5
EF4
330
1A
100
AcDbDictionary
280
     1
  3
ACAD_LAYOUTSELFREF
360
EF5
  0
DICTIONARY
  5
D
102
{ACAD_REACTORS
330
C
102
}
330
C
100
AcDbDictionary
  0
DICTIONARY
  5
19
102
{ACAD_REACTORS
330
C
102
}
330
C
100
AcDbDictionary
  0
DICTIONARY
  5
16
102
{ACAD_REACTORS
330
C
102
}
330
C
100
AcDbDictionary
  3
STANDARD
350
17
  0
DICTIONARY
  5
18
102
{ACAD_REACTORS
330
C
102
}
330
C
100
AcDbDictionary
  0
ACDBDICTIONARYWDFLT
  5
E
102
{ACAD_REACTORS
330
C
102
}
330
C
100
AcDbDictionary
281
     1
  3
Normal
350
F
100
AcDbDictionaryWithDefault
340
F
  0
DICTIONARY
  5
ED4
102
{ACAD_REACTORS
330
C
102
}
330
C
100
AcDbDictionary
  3
CEPSNTYPE
350
EDE
  3
FINGERPRINTGUID
350
EDF
  3
HYPERLINKBASE
350
ED7
  3
INSUNITS
350
EDD
  3
LAYOUTDICT
350
ED9
  3
LWETCUNION
350
EDC
  3
PLOTSETDICT
350
EDA
  3
PLOTSTYLNAMDICT
350
EDB
  3
PSVPSCALE
350
EE1
  3
PUCSBASE
350
EE4
  3
PUCSORGBACK
350
EEA
  3
PUCSORGBOTTOM
350
EE6
  3
PUCSORGFRONT
350
EE9
  3
PUCSORGLEFT
350
EE7
  3
PUCSORGRIGHT
350
EE8
  3
PUCSORGTOP
350
EE5
  3
PUCSORTHOREF
350
EE2
  3
PUCSORTHOVIEW
350
EE3
  3
STYLESHEET
350
ED8
  3
TSTACKALIGN
350
ED5
  3
TSTACKSIZE
350
ED6
  3
UCSBASE
350
EED
  3
UCSORGBACK
350
EF3
  3
UCSORGBOTTOM
350
EEF
  3
UCSORGFRONT
350
EF2
  3
UCSORGLEFT
350
EF0
  3
UCSORGRIGHT
350
EF1
  3
UCSORGTOP
350
EEE
  3
UCSORTHOREF
350
EEB
  3
UCSORTHOVIEW
350
EEC
  3
VERSIONGUID
350
EE0
  0
XRECORD
  5
EF7
102
{ACAD_REACTORS
330
EF6
102
}
330
EF6
100
AcDbXrecord
340
1E
  0
XRECORD
  5
EF5
102
{ACAD_REACTORS
330
EF4
102
}
330
EF4
100
AcDbXrecord
340
1A
  0
MLINESTYLE
  5
17
102
{ACAD_REACTORS
330
16
102
}
330
16
100
AcDbMlineStyle
  2
STANDARD
 70
     0
  3

 62
   256
 51
90.0
 52
90.0
 71
     2
 49
0.5
 62
   256
  6
BYLAYER
 49
-0.5
 62
   256
  6
BYLAYER
  0
ACDBPLACEHOLDER
  5
F
102
{ACAD_REACTORS
330
E
102
}
330
E
100
AcDbPlaceHolder
280
     0
  0
XRECORD
  5
EDE
102
{ACAD_REACTORS
330
ED4
102
}
330
ED4
100
AcDbXrecord
 90
        0
  0
XRECORD
  5
EDF
102
{ACAD_REACTORS
330
ED4
102
}
330
ED4
100
AcDbXrecord
  1
{35F71FE8-63B5-43F5-9276-AD31965C5E1F}
  0
XRECORD
  5
ED7
102
{ACAD_REACTORS
330
ED4
102
}
330
ED4
100
AcDbXrecord
  1

  0
XRECORD
  5
EDD
102
{ACAD_REACTORS
330
ED4
102
}
330
ED4
100
AcDbXrecord
 90
        0
  0
XRECORD
  5
ED9
102
{ACAD_REACTORS
330
ED4
102
}
330
ED4
100
AcDbXrecord
340
19
  0
XRECORD
  5
EDC
102
{ACAD_REACTORS
330
ED4
102
}
330
ED4
100
AcDbXrecord
 90
    10781
  0
XRECORD
  5
EDA
102
{ACAD_REACTORS
330
ED4
102
}
330
ED4
100
AcDbXrecord
340
18
  0
XRECORD
  5
EDB
102
{ACAD_REACTORS
330
ED4
102
}
330
ED4
100
AcDbXrecord
340
E
  0
XRECORD
  5
EE1
102
{ACAD_REACTORS
330
ED4
102
}
330
ED4
100
AcDbXrecord
 40
0.0
  0
XRECORD
  5
EE4
102
{ACAD_REACTORS
330
ED4
102
}
330
ED4
100
AcDbXrecord
340
0
  0
XRECORD
  5
EEA
102
{ACAD_REACTORS
330
ED4
102
}
330
ED4
100
AcDbXrecord
 10
0.0
 20
0.0
 30
0.0
  0
XRECORD
  5
EE6
102
{ACAD_REACTORS
330
ED4
102
}
330
ED4
100
AcDbXrecord
 10
0.0
 20
0.0
 30
0.0
  0
XRECORD
  5
EE9
102
{ACAD_REACTORS
330
ED4
102
}
330
ED4
100
AcDbXrecord
 10
0.0
 20
0.0
 30
0.0
  0
XRECORD
  5
EE7
102
{ACAD_REACTORS
330
ED4
102
}
330
ED4
100
AcDbXrecord
 10
0.0
 20
0.0
 30
0.0
  0
XRECORD
  5
EE8
102
{ACAD_REACTORS
330
ED4
102
}
330
ED4
100
AcDbXrecord
 10
0.0
 20
0.0
 30
0.0
  0
XRECORD
  5
EE5
102
{ACAD_REACTORS
330
ED4
102
}
330
ED4
100
AcDbXrecord
 10
0.0
 20
0.0
 30
0.0
  0
XRECORD
  5
EE2
102
{ACAD_REACTORS
330
ED4
102
}
330
ED4
100
AcDbXrecord
340
0
  0
XRECORD
  5
EE3
102
{ACAD_REACTORS
330
ED4
102
}
330
ED4
100
AcDbXrecord
 70
     0
  0
XRECORD
  5
ED8
102
{ACAD_REACTORS
330
ED4
102
}
330
ED4
100
AcDbXrecord
  1

  0
XRECORD
  5
ED5
102
{ACAD_REACTORS
330
ED4
102
}
330
ED4
100
AcDbXrecord
 90
        1
  0
XRECORD
  5
ED6
102
{ACAD_REACTORS
330
ED4
102
}
330
ED4
100
AcDbXrecord
 90
       70
  0
XRECORD
  5
EED
102
{ACAD_REACTORS
330
ED4
102
}
330
ED4
100
AcDbXrecord
340
0
  0
XRECORD
  5
EF3
102
{ACAD_REACTORS
330
ED4
102
}
330
ED4
100
AcDbXrecord
 10
0.0
 20
0.0
 30
0.0
  0
XRECORD
  5
EEF
102
{ACAD_REACTORS
330
ED4
102
}
330
ED4
100
AcDbXrecord
 10
0.0
 20
0.0
 30
0.0
  0
XRECORD
  5
EF2
102
{ACAD_REACTORS
330
ED4
102
}
330
ED4
100
AcDbXrecord
 10
0.0
 20
0.0
 30
0.0
  0
XRECORD
  5
EF0
102
{ACAD_REACTORS
330
ED4
102
}
330
ED4
100
AcDbXrecord
 10
0.0
 20
0.0
 30
0.0
  0
XRECORD
  5
EF1
102
{ACAD_REACTORS
330
ED4
102
}
330
ED4
100
AcDbXrecord
 10
0.0
 20
0.0
 30
0.0
  0
XRECORD
  5
EEE
102
{ACAD_REACTORS
330
ED4
102
}
330
ED4
100
AcDbXrecord
 10
0.0
 20
0.0
 30
0.0
  0
XRECORD
  5
EEB
102
{ACAD_REACTORS
330
ED4
102
}
330
ED4
100
AcDbXrecord
340
0
  0
XRECORD
  5
EEC
102
{ACAD_REACTORS
330
ED4
102
}
330
ED4
100
AcDbXrecord
 70
     0
  0
XRECORD
  5
EE0
102
{ACAD_REACTORS
330
ED4
102
}
330
ED4
100
AcDbXrecord
  1
{C6E66124-F5AA-405B-8C51-E7991596FC60}
  0
ENDSEC
  0
EOF
