  0
SECTION
  2
HEADER
  9
$ACADVER
  1
AC1006
  9
$EXTMIN
 10
-3.837220
 20
-4.518276
  9
$EXTMAX
 10
4.000913
 20
10.212441
  9
$LTSCALE
 40
0.000394
  9
$PDMODE
 70
    35
  9
$PDSIZE
 40
0.000315
  0
ENDSEC
  0
SECTION
  2
TABLES
  0
TABLE
  2
LTYPE
 70
     9
  0
LTYPE
  2
CONTINUOUS
 70
    64
  3
Solid line
 72
    65
 73
     0
 40
0.000000
  0
LTYPE
  2
DASHED
 70
    64
  3
__ __ __ __ __ __ __ __ __ __ __ __ __ __ __
 72
    65
 73
     2
 40
0.000003
 49
0.000002
 49
-0.000001
  0
LTYPE
  2
HIDDEN
 70
    64
  3
 _ _ _ _ _ _ _ _ _ _ _ _ _ _ _ _ _ _ _ _ _ _
 72
    65
 73
     2
 40
0.000001
 49
0.000001
 49
-0.000000
  0
LTYPE
  2
CENTER
 70
    64
  3
____ _ ____ _ ____ _ ____ _ ____ _ ____ _ ____
 72
    65
 73
     4
 40
0.000008
 49
0.000005
 49
-0.000001
 49
0.000001
 49
-0.000001
  0
LTYPE
  2
PHANTOM
 70
    64
  3
_____ _ _ _____ _ _ _____ _ _ _____ _ _ ____
 72
    65
 73
     6
 40
0.000010
 49
0.000005
 49
-0.000001
 49
0.000001
 49
-0.000001
 49
0.000001
 49
-0.000001
  0
LTYPE
  2
DOT
 70
    64
  3
...............................................
 72
    65
 73
     2
 40
0.000001
 49
0.000000
 49
-0.000001
  0
LTYPE
  2
DASHDOT
 70
    64
  3
__ . __ . __ . __ . __ . __ . __ . __ . __ . __
 72
    65
 73
     4
 40
0.000004
 49
0.000002
 49
-0.000001
 49
0.000000
 49
-0.000001
  0
LTYPE
  2
BORDER
 70
    64
  3
__ __ . __ __ . __ __ . __ __ . __ __ . __ __
 72
    65
 73
     6
 40
0.000007
 49
0.000002
 49
-0.000001
 49
0.000002
 49
-0.000001
 49
0.000000
 49
-0.000001
  0
LTYPE
  2
DIVIDE
 70
    64
  3
__ . . __ . . __ . . __ . . __ . . __ . . __
 72
    65
 73
     6
 40
0.000005
 49
0.000002
 49
-0.000001
 49
0.000000
 49
-0.000001
 49
0.000000
 49
-0.000001
  0
LTYPE
  2
DOTDOT
 70
    64
  3
 . .  . .  . .  . .  . .  . . 
 72
    65
 73
     5
 40
0.000002
 49
-0.000001
 49
0.000000
 49
-0.000001
 49
0.000000
 49
-0.000001
  0
ENDTAB
  0
TABLE
  2
STYLE
 70
     2
  0
STYLE
 70
     0
  2
SN0
 40
0.000000
 41
0.000004
 50
0.000000
 71
     0
 42
0.000000
  3
ROMAND
  0
STYLE
 70
    68
  2
SV0
 40
0.000000
 41
0.000004
 50
0.000000
 71
     0
 42
0.000000
  3
ROMAND
  0
ENDTAB
  0
TABLE
  2
LAYER
 70
     3
  0
LAYER
  2
FOREGROUND
 70
    64
 62
     7
  6
CONTINUOUS
  0
LAYER
  2
BACKGROUND
 70
    65
 62
    -7
  6
CONTINUOUS
  0
LAYER
  2
LAYER_1
 70
    64
 62
     7
  6
CONTINUOUS
  0
ENDTAB
  0
ENDSEC
  0
SECTION
  2
ENTITIES
  0
POLYLINE
  8
LAYER_1
 62
     7
  6
CONTINUOUS
 66
     1
 40
0.011055
 41
0.011055
  0
VERTEX
  8
LAYER_1
 62
     7
  6
CONTINUOUS
 10
-0.132165
 20
-0.910567
  0
VERTEX
  8
LAYER_1
 62
     7
  6
CONTINUOUS
 10
0.293732
 20
-0.656150
  0
SEQEND
  8
0
  0
POLYLINE
  8
LAYER_1
 62
     7
  6
CONTINUOUS
 66
     1
 40
0.011055
 41
0.011055
  0
VERTEX
  8
LAYER_1
 62
     7
  6
CONTINUOUS
 10
2.961083
 20
-0.304929
  0
VERTEX
  8
LAYER_1
 62
     7
  6
CONTINUOUS
 10
2.325012
 20
-2.583720
  0
SEQEND
  8
0
  0
POLYLINE
  8
LAYER_1
 62
     7
  6
CONTINUOUS
 66
     1
 40
0.011055
 41
0.011055
  0
VERTEX
  8
LAYER_1
 62
     7
  6
CONTINUOUS
 10
2.959693
 20
-0.302705
  0
VERTEX
  8
LAYER_1
 62
     7
  6
CONTINUOUS
 10
1.151039
 20
9.788693
  0
SEQEND
  8
0
  0
POLYLINE
  8
LAYER_1
 62
     7
  6
DASHED
 66
     1
 40
0.022126
 41
0.022126
  0
VERTEX
  8
LAYER_1
 62
     7
  6
DASHED
 10
-0.710319
 20
-0.137512
  0
VERTEX
  8
LAYER_1
 62
     7
  6
DASHED
 10
-3.398650
 20
-0.125677
  0
SEQEND
  8
0
  0
POLYLINE
  8
LAYER_1
 62
     7
  6
DASHED
 66
     1
 40
0.022126
 41
0.022126
  0
VERTEX
  8
LAYER_1
 62
     7
  6
DASHED
 10
-0.710319
 20
-0.477638
  0
VERTEX
  8
LAYER_1
 62
     7
  6
DASHED
 10
-3.398650
 20
-0.489469
  0
SEQEND
  8
0
  0
POLYLINE
  8
LAYER_1
 62
     7
  6
CONTINUOUS
 66
     1
 40
0.003000
 41
0.003000
 70
     1
  0
VERTEX
  8
LAYER_1
 62
     7
  6
CONTINUOUS
 10
-3.461496
 20
-0.315276
  0
VERTEX
  8
LAYER_1
 62
     7
  6
CONTINUOUS
 10
-3.487054
 20
-0.220858
  0
VERTEX
  8
LAYER_1
 62
     7
  6
CONTINUOUS
 10
-3.554192
 20
-0.153722
  0
VERTEX
  8
LAYER_1
 62
     7
  6
CONTINUOUS
 10
-3.648610
 20
-0.128165
  0
VERTEX
  8
LAYER_1
 62
     7
  6
CONTINUOUS
 10
-3.743028
 20
-0.153722
  0
VERTEX
  8
LAYER_1
 62
     7
  6
CONTINUOUS
 10
-3.810164
 20
-0.220858
  0
VERTEX
  8
LAYER_1
 62
     7
  6
CONTINUOUS
 10
-3.835720
 20
-0.315276
  0
VERTEX
  8
LAYER_1
 62
     7
  6
CONTINUOUS
 10
-3.810164
 20
-0.409693
  0
VERTEX
  8
LAYER_1
 62
     7
  6
CONTINUOUS
 10
-3.743028
 20
-0.476829
  0
VERTEX
  8
LAYER_1
 62
     7
  6
CONTINUOUS
 10
-3.648610
 20
-0.502386
  0
VERTEX
  8
LAYER_1
 62
     7
  6
CONTINUOUS
 10
-3.554192
 20
-0.476829
  0
VERTEX
  8
LAYER_1
 62
     7
  6
CONTINUOUS
 10
-3.487054
 20
-0.409693
  0
SEQEND
  8
0
  0
POLYLINE
  8
LAYER_1
 62
     7
  6
CONTINUOUS
 66
     1
 40
0.003000
 41
0.003000
  0
VERTEX
  8
LAYER_1
 62
     7
  6
CONTINUOUS
 10
-3.461496
 20
-0.315276
  0
VERTEX
  8
LAYER_1
 62
     7
  6
CONTINUOUS
 10
-3.487054
 20
-0.220858
  0
VERTEX
  8
LAYER_1
 62
     7
  6
CONTINUOUS
 10
-3.554192
 20
-0.153722
  0
VERTEX
  8
LAYER_1
 62
     7
  6
CONTINUOUS
 10
-3.648610
 20
-0.128165
  0
SEQEND
  8
0
  0
POLYLINE
  8
LAYER_1
 62
     7
  6
CONTINUOUS
 66
     1
 40
0.003000
 41
0.003000
  0
VERTEX
  8
LAYER_1
 62
     7
  6
CONTINUOUS
 10
-3.648610
 20
-0.128165
  0
VERTEX
  8
LAYER_1
 62
     7
  6
CONTINUOUS
 10
-3.743028
 20
-0.153722
  0
VERTEX
  8
LAYER_1
 62
     7
  6
CONTINUOUS
 10
-3.810164
 20
-0.220858
  0
VERTEX
  8
LAYER_1
 62
     7
  6
CONTINUOUS
 10
-3.835720
 20
-0.315276
  0
SEQEND
  8
0
  0
POLYLINE
  8
LAYER_1
 62
     7
  6
CONTINUOUS
 66
     1
 40
0.003000
 41
0.003000
  0
VERTEX
  8
LAYER_1
 62
     7
  6
CONTINUOUS
 10
-3.835720
 20
-0.315276
  0
VERTEX
  8
LAYER_1
 62
     7
  6
CONTINUOUS
 10
-3.810164
 20
-0.409693
  0
VERTEX
  8
LAYER_1
 62
     7
  6
CONTINUOUS
 10
-3.743028
 20
-0.476829
  0
VERTEX
  8
LAYER_1
 62
     7
  6
CONTINUOUS
 10
-3.648610
 20
-0.502386
  0
SEQEND
  8
0
  0
POLYLINE
  8
LAYER_1
 62
     7
  6
CONTINUOUS
 66
     1
 40
0.003000
 41
0.003000
  0
VERTEX
  8
LAYER_1
 62
     7
  6
CONTINUOUS
 10
-3.648610
 20
-0.502386
  0
VERTEX
  8
LAYER_1
 62
     7
  6
CONTINUOUS
 10
-3.554192
 20
-0.476829
  0
VERTEX
  8
LAYER_1
 62
     7
  6
CONTINUOUS
 10
-3.487054
 20
-0.409693
  0
VERTEX
  8
LAYER_1
 62
     7
  6
CONTINUOUS
 10
-3.461496
 20
-0.315276
  0
SEQEND
  8
0
  0
POLYLINE
  8
LAYER_1
  6
CONTINUOUS
 66
     1
 40
0.003000
 41
0.003000
 70
     1
  0
VERTEX
  8
LAYER_1
  6
CONTINUOUS
 10
-3.484346
 20
-0.315276
  0
VERTEX
  8
LAYER_1
  6
CONTINUOUS
 10
-3.506896
 20
-0.231967
  0
VERTEX
  8
LAYER_1
  6
CONTINUOUS
 10
-3.566133
 20
-0.172728
  0
VERTEX
  8
LAYER_1
  6
CONTINUOUS
 10
-3.649441
 20
-0.150177
  0
VERTEX
  8
LAYER_1
  6
CONTINUOUS
 10
-3.732752
 20
-0.172728
  0
VERTEX
  8
LAYER_1
  6
CONTINUOUS
 10
-3.791990
 20
-0.231967
  0
VERTEX
  8
LAYER_1
  6
CONTINUOUS
 10
-3.814539
 20
-0.315276
  0
VERTEX
  8
LAYER_1
  6
CONTINUOUS
 10
-3.791990
 20
-0.398585
  0
VERTEX
  8
LAYER_1
  6
CONTINUOUS
 10
-3.732752
 20
-0.457824
  0
VERTEX
  8
LAYER_1
  6
CONTINUOUS
 10
-3.649441
 20
-0.480374
  0
VERTEX
  8
LAYER_1
  6
CONTINUOUS
 10
-3.566133
 20
-0.457824
  0
VERTEX
  8
LAYER_1
  6
CONTINUOUS
 10
-3.506896
 20
-0.398585
  0
SEQEND
  8
0
  0
POLYLINE
  8
LAYER_1
 62
     7
  6
CONTINUOUS
 66
     1
 40
0.003000
 41
0.003000
  0
VERTEX
  8
LAYER_1
 62
     7
  6
CONTINUOUS
 10
-3.484346
 20
-0.315276
  0
VERTEX
  8
LAYER_1
 62
     7
  6
CONTINUOUS
 10
-3.506896
 20
-0.231967
  0
VERTEX
  8
LAYER_1
 62
     7
  6
CONTINUOUS
 10
-3.566133
 20
-0.172728
  0
VERTEX
  8
LAYER_1
 62
     7
  6
CONTINUOUS
 10
-3.649441
 20
-0.150177
  0
SEQEND
  8
0
  0
POLYLINE
  8
LAYER_1
 62
     7
  6
CONTINUOUS
 66
     1
 40
0.003000
 41
0.003000
  0
VERTEX
  8
LAYER_1
 62
     7
  6
CONTINUOUS
 10
-3.649441
 20
-0.150177
  0
VERTEX
  8
LAYER_1
 62
     7
  6
CONTINUOUS
 10
-3.732752
 20
-0.172728
  0
VERTEX
  8
LAYER_1
 62
     7
  6
CONTINUOUS
 10
-3.791990
 20
-0.231967
  0
VERTEX
  8
LAYER_1
 62
     7
  6
CONTINUOUS
 10
-3.814539
 20
-0.315276
  0
SEQEND
  8
0
  0
POLYLINE
  8
LAYER_1
 62
     7
  6
CONTINUOUS
 66
     1
 40
0.003000
 41
0.003000
  0
VERTEX
  8
LAYER_1
 62
     7
  6
CONTINUOUS
 10
-3.814539
 20
-0.315276
  0
VERTEX
  8
LAYER_1
 62
     7
  6
CONTINUOUS
 10
-3.791990
 20
-0.398585
  0
VERTEX
  8
LAYER_1
 62
     7
  6
CONTINUOUS
 10
-3.732752
 20
-0.457824
  0
VERTEX
  8
LAYER_1
 62
     7
  6
CONTINUOUS
 10
-3.649441
 20
-0.480374
  0
SEQEND
  8
0
  0
POLYLINE
  8
LAYER_1
 62
     7
  6
CONTINUOUS
 66
     1
 40
0.003000
 41
0.003000
  0
VERTEX
  8
LAYER_1
 62
     7
  6
CONTINUOUS
 10
-3.649441
 20
-0.480374
  0
VERTEX
  8
LAYER_1
 62
     7
  6
CONTINUOUS
 10
-3.566133
 20
-0.457824
  0
VERTEX
  8
LAYER_1
 62
     7
  6
CONTINUOUS
 10
-3.506896
 20
-0.398585
  0
VERTEX
  8
LAYER_1
 62
     7
  6
CONTINUOUS
 10
-3.484346
 20
-0.315276
  0
SEQEND
  8
0
  0
POLYLINE
  8
LAYER_1
 62
     7
  6
CONTINUOUS
 66
     1
 40
0.011055
 41
0.011055
  0
VERTEX
  8
LAYER_1
 62
     7
  6
CONTINUOUS
 10
-0.231331
 20
-3.492610
  0
VERTEX
  8
LAYER_1
 62
     7
  6
CONTINUOUS
 10
-0.480913
 20
-3.793500
  0
SEQEND
  8
0
  0
POLYLINE
  8
LAYER_1
 62
     7
  6
CONTINUOUS
 66
     1
 40
0.011055
 41
0.011055
  0
VERTEX
  8
LAYER_1
 62
     7
  6
CONTINUOUS
 10
2.920496
 20
-3.155665
  0
VERTEX
  8
LAYER_1
 62
     7
  6
CONTINUOUS
 10
3.866165
 20
-0.304791
  0
VERTEX
  8
LAYER_1
 62
     7
  6
CONTINUOUS
 10
1.500610
 20
10.211232
  0
SEQEND
  8
0
  0
POLYLINE
  8
LAYER_1
 62
     7
  6
CONTINUOUS
 66
     1
 40
0.011055
 41
0.011055
  0
VERTEX
  8
LAYER_1
 62
     7
  6
CONTINUOUS
 10
-0.511331
 20
10.205748
  0
VERTEX
  8
LAYER_1
 62
     7
  6
CONTINUOUS
 10
-0.511331
 20
-3.794764
  0
SEQEND
  8
0
  0
POLYLINE
  8
LAYER_1
 62
     7
  6
CONTINUOUS
 66
     1
 40
0.011055
 41
0.011055
  0
VERTEX
  8
LAYER_1
 62
     7
  6
CONTINUOUS
 10
-0.482220
 20
10.208528
  0
VERTEX
  8
LAYER_1
 62
     7
  6
CONTINUOUS
 10
-0.482220
 20
-3.794764
  0
SEQEND
  8
0
  0
POLYLINE
  8
LAYER_1
 62
     7
  6
CONTINUOUS
 66
     1
 40
0.011055
 41
0.011055
  0
VERTEX
  8
LAYER_1
 62
     7
  6
CONTINUOUS
 10
-3.768039
 20
-3.608067
  0
VERTEX
  8
LAYER_1
 62
     7
  6
CONTINUOUS
 10
-3.768027
 20
-3.608713
  0
VERTEX
  8
LAYER_1
 62
     7
  6
CONTINUOUS
 10
-3.767940
 20
-3.613236
  0
VERTEX
  8
LAYER_1
 62
     7
  6
CONTINUOUS
 10
-3.767705
 20
-3.625512
  0
SEQEND
  8
0
  0
POLYLINE
  8
LAYER_1
 62
     7
  6
CONTINUOUS
 66
     1
 40
0.011055
 41
0.011055
  0
VERTEX
  8
LAYER_1
 62
     7
  6
CONTINUOUS
 10
-3.767705
 20
-3.625512
  0
VERTEX
  8
LAYER_1
 62
     7
  6
CONTINUOUS
 10
-3.767055
 20
-3.647984
  0
VERTEX
  8
LAYER_1
 62
     7
  6
CONTINUOUS
 10
-3.764865
 20
-3.677306
  0
VERTEX
  8
LAYER_1
 62
     7
  6
CONTINUOUS
 10
-3.759819
 20
-3.708705
  0
SEQEND
  8
0
  0
POLYLINE
  8
LAYER_1
 62
     7
  6
CONTINUOUS
 66
     1
 40
0.011055
 41
0.011055
  0
VERTEX
  8
LAYER_1
 62
     7
  6
CONTINUOUS
 10
-3.759819
 20
-3.708705
  0
VERTEX
  8
LAYER_1
 62
     7
  6
CONTINUOUS
 10
-3.750867
 20
-3.737890
  0
VERTEX
  8
LAYER_1
 62
     7
  6
CONTINUOUS
 10
-3.738022
 20
-3.762424
  0
VERTEX
  8
LAYER_1
 62
     7
  6
CONTINUOUS
 10
-3.721583
 20
-3.780358
  0
SEQEND
  8
0
  0
POLYLINE
  8
LAYER_1
 62
     7
  6
CONTINUOUS
 66
     1
 40
0.011055
 41
0.011055
  0
VERTEX
  8
LAYER_1
 62
     7
  6
CONTINUOUS
 10
-3.721583
 20
-3.780358
  0
VERTEX
  8
LAYER_1
 62
     7
  6
CONTINUOUS
 10
-3.701952
 20
-3.790518
  0
VERTEX
  8
LAYER_1
 62
     7
  6
CONTINUOUS
 10
-3.680091
 20
-3.794878
  0
VERTEX
  8
LAYER_1
 62
     7
  6
CONTINUOUS
 10
-3.657083
 20
-3.796177
  0
SEQEND
  8
0
  0
POLYLINE
  8
LAYER_1
 62
     7
  6
CONTINUOUS
 66
     1
 40
0.011055
 41
0.011055
  0
VERTEX
  8
LAYER_1
 62
     7
  6
CONTINUOUS
 10
-3.657083
 20
-3.796177
  0
VERTEX
  8
LAYER_1
 62
     7
  6
CONTINUOUS
 10
-3.633933
 20
-3.796249
  0
VERTEX
  8
LAYER_1
 62
     7
  6
CONTINUOUS
 10
-3.611434
 20
-3.793188
  0
VERTEX
  8
LAYER_1
 62
     7
  6
CONTINUOUS
 10
-3.590303
 20
-3.784165
  0
SEQEND
  8
0
  0
POLYLINE
  8
LAYER_1
 62
     7
  6
CONTINUOUS
 66
     1
 40
0.011055
 41
0.011055
  0
VERTEX
  8
LAYER_1
 62
     7
  6
CONTINUOUS
 10
-3.590303
 20
-3.784165
  0
VERTEX
  8
LAYER_1
 62
     7
  6
CONTINUOUS
 10
-3.571339
 20
-3.767076
  0
VERTEX
  8
LAYER_1
 62
     7
  6
CONTINUOUS
 10
-3.555587
 20
-3.742671
  0
VERTEX
  8
LAYER_1
 62
     7
  6
CONTINUOUS
 10
-3.544177
 20
-3.712413
  0
SEQEND
  8
0
  0
POLYLINE
  8
LAYER_1
 62
     7
  6
CONTINUOUS
 66
     1
 40
0.011055
 41
0.011055
  0
VERTEX
  8
LAYER_1
 62
     7
  6
CONTINUOUS
 10
-3.544177
 20
-3.712413
  0
VERTEX
  8
LAYER_1
 62
     7
  6
CONTINUOUS
 10
-3.537762
 20
-3.678486
  0
VERTEX
  8
LAYER_1
 62
     7
  6
CONTINUOUS
 10
-3.535068
 20
-3.646000
  0
VERTEX
  8
LAYER_1
 62
     7
  6
CONTINUOUS
 10
-3.534346
 20
-3.620776
  0
SEQEND
  8
0
  0
POLYLINE
  8
LAYER_1
 62
     7
  6
CONTINUOUS
 66
     1
 40
0.011055
 41
0.011055
  0
VERTEX
  8
LAYER_1
 62
     7
  6
CONTINUOUS
 10
-3.534346
 20
-3.620776
  0
VERTEX
  8
LAYER_1
 62
     7
  6
CONTINUOUS
 10
-3.534122
 20
-3.606956
  0
VERTEX
  8
LAYER_1
 62
     7
  6
CONTINUOUS
 10
-3.534039
 20
-3.601865
  0
VERTEX
  8
LAYER_1
 62
     7
  6
CONTINUOUS
 10
-3.534028
 20
-3.601138
  0
SEQEND
  8
0
  0
POLYLINE
  8
LAYER_1
 62
     7
  6
CONTINUOUS
 66
     1
 40
0.011055
 41
0.011055
  0
VERTEX
  8
LAYER_1
 62
     7
  6
CONTINUOUS
 10
-3.816650
 20
-0.372055
  0
VERTEX
  8
LAYER_1
 62
     7
  6
CONTINUOUS
 10
-3.768693
 20
-3.605610
  0
SEQEND
  8
0
  0
POLYLINE
  8
LAYER_1
 62
     7
  6
CONTINUOUS
 66
     1
 40
0.011055
 41
0.011055
  0
VERTEX
  8
LAYER_1
 62
     7
  6
CONTINUOUS
 10
-3.486055
 20
-0.355413
  0
VERTEX
  8
LAYER_1
 62
     7
  6
CONTINUOUS
 10
-3.534028
 20
-3.600055
  0
SEQEND
  8
0
  0
POLYLINE
  8
LAYER_1
 62
     7
  6
CONTINUOUS
 66
     1
 40
0.011055
 41
0.011055
  0
VERTEX
  8
LAYER_1
 62
     7
  6
CONTINUOUS
 10
-3.486055
 20
-0.245831
  0
VERTEX
  8
LAYER_1
 62
     7
  6
CONTINUOUS
 10
-3.579402
 20
9.922122
  0
SEQEND
  8
0
  0
POLYLINE
  8
LAYER_1
 62
     7
  6
CONTINUOUS
 66
     1
 40
0.011055
 41
0.011055
  0
VERTEX
  8
LAYER_1
 62
     7
  6
CONTINUOUS
 10
-3.817957
 20
-0.247220
  0
VERTEX
  8
LAYER_1
 62
     7
  6
CONTINUOUS
 10
-3.724610
 20
9.927665
  0
SEQEND
  8
0
  0
TEXT
  8
LAYER_1
 62
     7
 10
3.208303
 20
-1.322862
 40
0.099927
  1
1/8" sheet
 50
76.572922
 41
1.000000
  7
SN0
 71
     0
 72
     5
 11
3.334870
 21
-0.792725
  0
POLYLINE
  8
LAYER_1
 62
     7
  6
CONTINUOUS
 66
     1
 40
0.003000
 41
0.003000
  0
VERTEX
  8
LAYER_1
 62
     7
  6
CONTINUOUS
 10
3.740957
 20
2.504846
  0
VERTEX
  8
LAYER_1
 62
     7
  6
CONTINUOUS
 10
3.740957
 20
8.500512
  0
SEQEND
  8
0
  0
POLYLINE
  8
LAYER_1
 62
     7
  6
CONTINUOUS
 66
     1
 40
0.003000
 41
0.003000
  0
VERTEX
  8
LAYER_1
 62
     7
  6
CONTINUOUS
 10
3.716067
 20
2.515913
  0
VERTEX
  8
LAYER_1
 62
     7
  6
CONTINUOUS
 10
3.765846
 20
2.515913
  0
SEQEND
  8
0
  0
POLYLINE
  8
LAYER_1
 62
     7
  6
CONTINUOUS
 66
     1
 40
0.003000
 41
0.003000
  0
VERTEX
  8
LAYER_1
 62
     7
  6
CONTINUOUS
 10
3.716067
 20
3.511496
  0
VERTEX
  8
LAYER_1
 62
     7
  6
CONTINUOUS
 10
3.765846
 20
3.511496
  0
SEQEND
  8
0
  0
POLYLINE
  8
LAYER_1
 62
     7
  6
CONTINUOUS
 66
     1
 40
0.003000
 41
0.003000
  0
VERTEX
  8
LAYER_1
 62
     7
  6
CONTINUOUS
 10
3.716067
 20
4.507094
  0
VERTEX
  8
LAYER_1
 62
     7
  6
CONTINUOUS
 10
3.765846
 20
4.507094
  0
SEQEND
  8
0
  0
POLYLINE
  8
LAYER_1
 62
     7
  6
CONTINUOUS
 66
     1
 40
0.003000
 41
0.003000
  0
VERTEX
  8
LAYER_1
 62
     7
  6
CONTINUOUS
 10
3.716067
 20
5.502677
  0
VERTEX
  8
LAYER_1
 62
     7
  6
CONTINUOUS
 10
3.765846
 20
5.502677
  0
SEQEND
  8
0
  0
POLYLINE
  8
LAYER_1
 62
     7
  6
CONTINUOUS
 66
     1
 40
0.003000
 41
0.003000
  0
VERTEX
  8
LAYER_1
 62
     7
  6
CONTINUOUS
 10
-3.252496
 20
-4.461512
  0
VERTEX
  8
LAYER_1
 62
     7
  6
CONTINUOUS
 10
-3.252496
 20
-4.511291
  0
SEQEND
  8
0
  0
POLYLINE
  8
LAYER_1
 62
     7
  6
CONTINUOUS
 66
     1
 40
0.003000
 41
0.003000
  0
VERTEX
  8
LAYER_1
 62
     7
  6
CONTINUOUS
 10
-2.256902
 20
-4.461512
  0
VERTEX
  8
LAYER_1
 62
     7
  6
CONTINUOUS
 10
-2.256902
 20
-4.511291
  0
SEQEND
  8
0
  0
POLYLINE
  8
LAYER_1
 62
     7
  6
CONTINUOUS
 66
     1
 40
0.003000
 41
0.003000
  0
VERTEX
  8
LAYER_1
 62
     7
  6
CONTINUOUS
 10
-1.261319
 20
-4.461512
  0
VERTEX
  8
LAYER_1
 62
     7
  6
CONTINUOUS
 10
-1.261319
 20
-4.511291
  0
SEQEND
  8
0
  0
POLYLINE
  8
LAYER_1
 62
     7
  6
CONTINUOUS
 66
     1
 40
0.003000
 41
0.003000
  0
VERTEX
  8
LAYER_1
 62
     7
  6
CONTINUOUS
 10
-0.265720
 20
-4.461512
  0
VERTEX
  8
LAYER_1
 62
     7
  6
CONTINUOUS
 10
-0.265720
 20
-4.511291
  0
SEQEND
  8
0
  0
POLYLINE
  8
LAYER_1
 62
     7
  6
CONTINUOUS
 66
     1
 40
0.003000
 41
0.003000
  0
VERTEX
  8
LAYER_1
 62
     7
  6
CONTINUOUS
 10
0.729858
 20
-4.461512
  0
VERTEX
  8
LAYER_1
 62
     7
  6
CONTINUOUS
 10
0.729858
 20
-4.511291
  0
SEQEND
  8
0
  0
POLYLINE
  8
LAYER_1
 62
     7
  6
CONTINUOUS
 66
     1
 40
0.003000
 41
0.003000
  0
VERTEX
  8
LAYER_1
 62
     7
  6
CONTINUOUS
 10
1.747583
 20
-4.461512
  0
VERTEX
  8
LAYER_1
 62
     7
  6
CONTINUOUS
 10
1.747583
 20
-4.511291
  0
SEQEND
  8
0
  0
POLYLINE
  8
LAYER_1
 62
     7
  6
CONTINUOUS
 66
     1
 40
0.003000
 41
0.003000
  0
VERTEX
  8
LAYER_1
 62
     7
  6
CONTINUOUS
 10
2.743165
 20
-4.461512
  0
VERTEX
  8
LAYER_1
 62
     7
  6
CONTINUOUS
 10
2.743165
 20
-4.511291
  0
SEQEND
  8
0
  0
POLYLINE
  8
LAYER_1
 62
     7
  6
CONTINUOUS
 66
     1
 40
0.003000
 41
0.003000
  0
VERTEX
  8
LAYER_1
 62
     7
  6
CONTINUOUS
 10
-3.264122
 20
-4.486402
  0
VERTEX
  8
LAYER_1
 62
     7
  6
CONTINUOUS
 10
3.743720
 20
-4.491929
  0
SEQEND
  8
0
  0
POLYLINE
  8
LAYER_1
 62
     7
  6
CONTINUOUS
 66
     1
 40
0.003000
 41
0.003000
  0
VERTEX
  8
LAYER_1
 62
     7
  6
CONTINUOUS
 10
3.743720
 20
-4.468358
  0
VERTEX
  8
LAYER_1
 62
     7
  6
CONTINUOUS
 10
3.743720
 20
-4.518276
  0
SEQEND
  8
0
  0
POLYLINE
  8
LAYER_1
 62
     7
  6
CONTINUOUS
 66
     1
 40
0.011055
 41
0.011055
  0
VERTEX
  8
LAYER_1
 62
     7
  6
CONTINUOUS
 10
3.865413
 20
-0.305484
  0
VERTEX
  8
LAYER_1
 62
     7
  6
CONTINUOUS
 10
2.959693
 20
-0.305484
  0
SEQEND
  8
0
  0
TEXT
  8
LAYER_1
 62
     7
 10
0.896362
 20
-3.350697
 40
0.099927
  1
1/4" sheet
 50
16.473363
 41
1.000000
  7
SN0
 71
     0
 72
     5
 11
1.419026
 21
-3.196142
  0
TEXT
  8
LAYER_1
 62
     7
 10
0.660161
 20
5.012496
 40
0.099927
  1
3/16" sheet
 41
1.000000
  7
SN0
 71
     0
 72
     5
 11
1.272959
 21
5.012496
  0
POLYLINE
  8
LAYER_1
 62
     7
  6
CONTINUOUS
 66
     1
 40
0.011055
 41
0.011055
  0
VERTEX
  8
LAYER_1
 62
     7
  6
CONTINUOUS
 10
-0.109484
 20
0.300165
  0
VERTEX
  8
LAYER_1
 62
     7
  6
CONTINUOUS
 10
0.305346
 20
0.040193
  0
SEQEND
  8
0
  0
TEXT
  8
LAYER_1
 62
     7
 10
1.177870
 20
0.081559
 40
0.099927
  1
1/4" mediumhard sheet
 41
1.000000
  7
SN0
 71
     0
 72
     5
 11
2.432927
 21
0.081559
  0
POLYLINE
  8
LAYER_1
 62
     7
  6
CONTINUOUS
 66
     1
 40
0.011055
 41
0.011055
  0
VERTEX
  8
LAYER_1
 62
     7
  6
CONTINUOUS
 10
-3.138291
 20
-0.490776
  0
VERTEX
  8
LAYER_1
 62
     7
  6
CONTINUOUS
 10
-3.136772
 20
-0.496683
  0
VERTEX
  8
LAYER_1
 62
     7
  6
CONTINUOUS
 10
-3.126135
 20
-0.538031
  0
VERTEX
  8
LAYER_1
 62
     7
  6
CONTINUOUS
 10
-3.097264
 20
-0.650264
  0
SEQEND
  8
0
  0
POLYLINE
  8
LAYER_1
 62
     7
  6
CONTINUOUS
 66
     1
 40
0.011055
 41
0.011055
  0
VERTEX
  8
LAYER_1
 62
     7
  6
CONTINUOUS
 10
-3.097264
 20
-0.650264
  0
VERTEX
  8
LAYER_1
 62
     7
  6
CONTINUOUS
 10
-3.085052
 20
-0.697766
  0
VERTEX
  8
LAYER_1
 62
     7
  6
CONTINUOUS
 10
-3.070759
 20
-0.753514
  0
VERTEX
  8
LAYER_1
 62
     7
  6
CONTINUOUS
 10
-3.054338
 20
-0.817846
  0
VERTEX
  8
LAYER_1
 62
     7
  6
CONTINUOUS
 10
-3.035742
 20
-0.891100
  0
VERTEX
  8
LAYER_1
 62
     7
  6
CONTINUOUS
 10
-3.014925
 20
-0.973612
  0
VERTEX
  8
LAYER_1
 62
     7
  6
CONTINUOUS
 10
-2.991840
 20
-1.065721
  0
VERTEX
  8
LAYER_1
 62
     7
  6
CONTINUOUS
 10
-2.966440
 20
-1.167764
  0
VERTEX
  8
LAYER_1
 62
     7
  6
CONTINUOUS
 10
-2.938679
 20
-1.280079
  0
VERTEX
  8
LAYER_1
 62
     7
  6
CONTINUOUS
 10
-2.908510
 20
-1.403002
  0
VERTEX
  8
LAYER_1
 62
     7
  6
CONTINUOUS
 10
-2.875888
 20
-1.536873
  0
VERTEX
  8
LAYER_1
 62
     7
  6
CONTINUOUS
 10
-2.840764
 20
-1.682028
  0
SEQEND
  8
0
  0
POLYLINE
  8
LAYER_1
 62
     7
  6
CONTINUOUS
 66
     1
 40
0.011055
 41
0.011055
  0
VERTEX
  8
LAYER_1
 62
     7
  6
CONTINUOUS
 10
-2.840764
 20
-1.682028
  0
VERTEX
  8
LAYER_1
 62
     7
  6
CONTINUOUS
 10
-2.822236
 20
-1.758875
  0
VERTEX
  8
LAYER_1
 62
     7
  6
CONTINUOUS
 10
-2.802987
 20
-1.838274
  0
VERTEX
  8
LAYER_1
 62
     7
  6
CONTINUOUS
 10
-2.782934
 20
-1.919867
  0
VERTEX
  8
LAYER_1
 62
     7
  6
CONTINUOUS
 10
-2.761993
 20
-2.003301
  0
VERTEX
  8
LAYER_1
 62
     7
  6
CONTINUOUS
 10
-2.740080
 20
-2.088220
  0
VERTEX
  8
LAYER_1
 62
     7
  6
CONTINUOUS
 10
-2.717112
 20
-2.174269
  0
VERTEX
  8
LAYER_1
 62
     7
  6
CONTINUOUS
 10
-2.693005
 20
-2.261092
  0
VERTEX
  8
LAYER_1
 62
     7
  6
CONTINUOUS
 10
-2.667675
 20
-2.348334
  0
VERTEX
  8
LAYER_1
 62
     7
  6
CONTINUOUS
 10
-2.641039
 20
-2.435641
  0
VERTEX
  8
LAYER_1
 62
     7
  6
CONTINUOUS
 10
-2.613013
 20
-2.522657
  0
VERTEX
  8
LAYER_1
 62
     7
  6
CONTINUOUS
 10
-2.583514
 20
-2.609026
  0
VERTEX
  8
LAYER_1
 62
     7
  6
CONTINUOUS
 10
-2.552458
 20
-2.694394
  0
VERTEX
  8
LAYER_1
 62
     7
  6
CONTINUOUS
 10
-2.519761
 20
-2.778406
  0
VERTEX
  8
LAYER_1
 62
     7
  6
CONTINUOUS
 10
-2.485340
 20
-2.860706
  0
VERTEX
  8
LAYER_1
 62
     7
  6
CONTINUOUS
 10
-2.449111
 20
-2.940938
  0
VERTEX
  8
LAYER_1
 62
     7
  6
CONTINUOUS
 10
-2.410990
 20
-3.018749
  0
VERTEX
  8
LAYER_1
 62
     7
  6
CONTINUOUS
 10
-2.370894
 20
-3.093783
  0
VERTEX
  8
LAYER_1
 62
     7
  6
CONTINUOUS
 10
-2.328739
 20
-3.165684
  0
VERTEX
  8
LAYER_1
 62
     7
  6
CONTINUOUS
 10
-2.284442
 20
-3.234097
  0
VERTEX
  8
LAYER_1
 62
     7
  6
CONTINUOUS
 10
-2.237918
 20
-3.298667
  0
VERTEX
  8
LAYER_1
 62
     7
  6
CONTINUOUS
 10
-2.189085
 20
-3.359039
  0
VERTEX
  8
LAYER_1
 62
     7
  6
CONTINUOUS
 10
-2.137858
 20
-3.414858
  0
SEQEND
  8
0
  0
POLYLINE
  8
LAYER_1
 62
     7
  6
CONTINUOUS
 66
     1
 40
0.011055
 41
0.011055
  0
VERTEX
  8
LAYER_1
 62
     7
  6
CONTINUOUS
 10
-2.137858
 20
-3.414858
  0
VERTEX
  8
LAYER_1
 62
     7
  6
CONTINUOUS
 10
-2.063502
 20
-3.483776
  0
VERTEX
  8
LAYER_1
 62
     7
  6
CONTINUOUS
 10
-1.985095
 20
-3.543998
  0
VERTEX
  8
LAYER_1
 62
     7
  6
CONTINUOUS
 10
-1.903268
 20
-3.596105
  0
VERTEX
  8
LAYER_1
 62
     7
  6
CONTINUOUS
 10
-1.818653
 20
-3.640682
  0
VERTEX
  8
LAYER_1
 62
     7
  6
CONTINUOUS
 10
-1.731882
 20
-3.678311
  0
VERTEX
  8
LAYER_1
 62
     7
  6
CONTINUOUS
 10
-1.643585
 20
-3.709575
  0
VERTEX
  8
LAYER_1
 62
     7
  6
CONTINUOUS
 10
-1.554395
 20
-3.735058
  0
VERTEX
  8
LAYER_1
 62
     7
  6
CONTINUOUS
 10
-1.464944
 20
-3.755342
  0
VERTEX
  8
LAYER_1
 62
     7
  6
CONTINUOUS
 10
-1.375862
 20
-3.771011
  0
VERTEX
  8
LAYER_1
 62
     7
  6
CONTINUOUS
 10
-1.287782
 20
-3.782647
  0
VERTEX
  8
LAYER_1
 62
     7
  6
CONTINUOUS
 10
-1.201335
 20
-3.790833
  0
VERTEX
  8
LAYER_1
 62
     7
  6
CONTINUOUS
 10
-1.117153
 20
-3.796153
  0
VERTEX
  8
LAYER_1
 62
     7
  6
CONTINUOUS
 10
-1.035868
 20
-3.799190
  0
VERTEX
  8
LAYER_1
 62
     7
  6
CONTINUOUS
 10
-0.958110
 20
-3.800526
  0
VERTEX
  8
LAYER_1
 62
     7
  6
CONTINUOUS
 10
-0.884512
 20
-3.800745
  0
VERTEX
  8
LAYER_1
 62
     7
  6
CONTINUOUS
 10
-0.815705
 20
-3.800429
  0
SEQEND
  8
0
  0
POLYLINE
  8
LAYER_1
 62
     7
  6
CONTINUOUS
 66
     1
 40
0.011055
 41
0.011055
  0
VERTEX
  8
LAYER_1
 62
     7
  6
CONTINUOUS
 10
-0.815705
 20
-3.800429
  0
VERTEX
  8
LAYER_1
 62
     7
  6
CONTINUOUS
 10
-0.693399
 20
-3.799684
  0
VERTEX
  8
LAYER_1
 62
     7
  6
CONTINUOUS
 10
-0.588272
 20
-3.798764
  0
VERTEX
  8
LAYER_1
 62
     7
  6
CONTINUOUS
 10
-0.495812
 20
-3.797299
  0
VERTEX
  8
LAYER_1
 62
     7
  6
CONTINUOUS
 10
-0.411505
 20
-3.794919
  0
VERTEX
  8
LAYER_1
 62
     7
  6
CONTINUOUS
 10
-0.330839
 20
-3.791254
  0
VERTEX
  8
LAYER_1
 62
     7
  6
CONTINUOUS
 10
-0.249301
 20
-3.785934
  0
VERTEX
  8
LAYER_1
 62
     7
  6
CONTINUOUS
 10
-0.162377
 20
-3.778588
  0
VERTEX
  8
LAYER_1
 62
     7
  6
CONTINUOUS
 10
-0.065555
 20
-3.768846
  0
SEQEND
  8
0
  0
POLYLINE
  8
LAYER_1
 62
     7
  6
CONTINUOUS
 66
     1
 40
0.011055
 41
0.011055
  0
VERTEX
  8
LAYER_1
 62
     7
  6
CONTINUOUS
 10
-0.065555
 20
-3.768846
  0
VERTEX
  8
LAYER_1
 62
     7
  6
CONTINUOUS
 10
0.000701
 20
-3.761507
  0
VERTEX
  8
LAYER_1
 62
     7
  6
CONTINUOUS
 10
0.072251
 20
-3.753069
  0
VERTEX
  8
LAYER_1
 62
     7
  6
CONTINUOUS
 10
0.148934
 20
-3.743483
  0
VERTEX
  8
LAYER_1
 62
     7
  6
CONTINUOUS
 10
0.230587
 20
-3.732696
  0
VERTEX
  8
LAYER_1
 62
     7
  6
CONTINUOUS
 10
0.317048
 20
-3.720658
  0
VERTEX
  8
LAYER_1
 62
     7
  6
CONTINUOUS
 10
0.408154
 20
-3.707318
  0
VERTEX
  8
LAYER_1
 62
     7
  6
CONTINUOUS
 10
0.503743
 20
-3.692625
  0
VERTEX
  8
LAYER_1
 62
     7
  6
CONTINUOUS
 10
0.603653
 20
-3.676528
  0
VERTEX
  8
LAYER_1
 62
     7
  6
CONTINUOUS
 10
0.707721
 20
-3.658976
  0
VERTEX
  8
LAYER_1
 62
     7
  6
CONTINUOUS
 10
0.815785
 20
-3.639917
  0
VERTEX
  8
LAYER_1
 62
     7
  6
CONTINUOUS
 10
0.927683
 20
-3.619301
  0
VERTEX
  8
LAYER_1
 62
     7
  6
CONTINUOUS
 10
1.043252
 20
-3.597077
  0
VERTEX
  8
LAYER_1
 62
     7
  6
CONTINUOUS
 10
1.162331
 20
-3.573193
  0
SEQEND
  8
0
  0
POLYLINE
  8
LAYER_1
 62
     7
  6
CONTINUOUS
 66
     1
 40
0.011055
 41
0.011055
  0
VERTEX
  8
LAYER_1
 62
     7
  6
CONTINUOUS
 10
1.162331
 20
-3.573193
  0
VERTEX
  8
LAYER_1
 62
     7
  6
CONTINUOUS
 10
1.261470
 20
-3.552566
  0
VERTEX
  8
LAYER_1
 62
     7
  6
CONTINUOUS
 10
1.362227
 20
-3.530994
  0
VERTEX
  8
LAYER_1
 62
     7
  6
CONTINUOUS
 10
1.464014
 20
-3.508662
  0
VERTEX
  8
LAYER_1
 62
     7
  6
CONTINUOUS
 10
1.566238
 20
-3.485753
  0
VERTEX
  8
LAYER_1
 62
     7
  6
CONTINUOUS
 10
1.668310
 20
-3.462454
  0
VERTEX
  8
LAYER_1
 62
     7
  6
CONTINUOUS
 10
1.769639
 20
-3.438946
  0
VERTEX
  8
LAYER_1
 62
     7
  6
CONTINUOUS
 10
1.869634
 20
-3.415416
  0
VERTEX
  8
LAYER_1
 62
     7
  6
CONTINUOUS
 10
1.967706
 20
-3.392048
  0
VERTEX
  8
LAYER_1
 62
     7
  6
CONTINUOUS
 10
2.063264
 20
-3.369025
  0
VERTEX
  8
LAYER_1
 62
     7
  6
CONTINUOUS
 10
2.155716
 20
-3.346532
  0
VERTEX
  8
LAYER_1
 62
     7
  6
CONTINUOUS
 10
2.244474
 20
-3.324753
  0
VERTEX
  8
LAYER_1
 62
     7
  6
CONTINUOUS
 10
2.328945
 20
-3.303873
  0
VERTEX
  8
LAYER_1
 62
     7
  6
CONTINUOUS
 10
2.408541
 20
-3.284077
  0
VERTEX
  8
LAYER_1
 62
     7
  6
CONTINUOUS
 10
2.482669
 20
-3.265547
  0
VERTEX
  8
LAYER_1
 62
     7
  6
CONTINUOUS
 10
2.550741
 20
-3.248469
  0
VERTEX
  8
LAYER_1
 62
     7
  6
CONTINUOUS
 10
2.612165
 20
-3.233028
  0
SEQEND
  8
0
  0
POLYLINE
  8
LAYER_1
 62
     7
  6
CONTINUOUS
 66
     1
 40
0.011055
 41
0.011055
  0
VERTEX
  8
LAYER_1
 62
     7
  6
CONTINUOUS
 10
2.612165
 20
-3.233028
  0
VERTEX
  8
LAYER_1
 62
     7
  6
CONTINUOUS
 10
2.829482
 20
-3.178371
  0
VERTEX
  8
LAYER_1
 62
     7
  6
CONTINUOUS
 10
2.909547
 20
-3.158235
  0
VERTEX
  8
LAYER_1
 62
     7
  6
CONTINUOUS
 10
2.920984
 20
-3.155358
  0
SEQEND
  8
0
  0
POLYLINE
  8
LAYER_1
 62
     7
  6
CONTINUOUS
 66
     1
 40
0.011055
 41
0.011055
  0
VERTEX
  8
LAYER_1
 62
     7
  6
CONTINUOUS
 10
-0.867791
 20
-0.496303
  0
VERTEX
  8
LAYER_1
 62
     7
  6
CONTINUOUS
 10
-0.759929
 20
-3.494138
  0
SEQEND
  8
0
  0
POLYLINE
  8
LAYER_1
 62
     7
  6
CONTINUOUS
 66
     1
 40
0.011055
 41
0.011055
  0
VERTEX
  8
LAYER_1
 62
     7
  6
CONTINUOUS
 10
-0.762693
 20
-3.491374
  0
VERTEX
  8
LAYER_1
 62
     7
  6
CONTINUOUS
 10
-0.513803
 20
-3.795583
  0
SEQEND
  8
0
  0
POLYLINE
  8
LAYER_1
 62
     7
  6
CONTINUOUS
 66
     1
 40
0.011055
 41
0.011055
  0
VERTEX
  8
LAYER_1
 62
     7
  6
CONTINUOUS
 10
-1.935276
 20
-2.974220
  0
VERTEX
  8
LAYER_1
 62
     7
  6
CONTINUOUS
 10
-1.492803
 20
-3.438831
  0
SEQEND
  8
0
  0
POLYLINE
  8
LAYER_1
 62
     7
  6
CONTINUOUS
 66
     1
 40
0.011055
 41
0.011055
  0
VERTEX
  8
LAYER_1
 62
     7
  6
CONTINUOUS
 10
-3.107858
 20
-0.490776
  0
VERTEX
  8
LAYER_1
 62
     7
  6
CONTINUOUS
 10
-3.104342
 20
-0.503545
  0
VERTEX
  8
LAYER_1
 62
     7
  6
CONTINUOUS
 10
-3.079726
 20
-0.592928
  0
VERTEX
  8
LAYER_1
 62
     7
  6
CONTINUOUS
 10
-3.012913
 20
-0.835539
  0
SEQEND
  8
0
  0
POLYLINE
  8
LAYER_1
 62
     7
  6
CONTINUOUS
 66
     1
 40
0.011055
 41
0.011055
  0
VERTEX
  8
LAYER_1
 62
     7
  6
CONTINUOUS
 10
-3.012913
 20
-0.835539
  0
VERTEX
  8
LAYER_1
 62
     7
  6
CONTINUOUS
 10
-2.995203
 20
-0.899840
  0
VERTEX
  8
LAYER_1
 62
     7
  6
CONTINUOUS
 10
-2.975702
 20
-0.970565
  0
VERTEX
  8
LAYER_1
 62
     7
  6
CONTINUOUS
 10
-2.954593
 20
-1.046985
  0
VERTEX
  8
LAYER_1
 62
     7
  6
CONTINUOUS
 10
-2.932056
 20
-1.128367
  0
VERTEX
  8
LAYER_1
 62
     7
  6
CONTINUOUS
 10
-2.908272
 20
-1.213980
  0
VERTEX
  8
LAYER_1
 62
     7
  6
CONTINUOUS
 10
-2.883424
 20
-1.303091
  0
VERTEX
  8
LAYER_1
 62
     7
  6
CONTINUOUS
 10
-2.857691
 20
-1.394969
  0
VERTEX
  8
LAYER_1
 62
     7
  6
CONTINUOUS
 10
-2.831256
 20
-1.488883
  0
VERTEX
  8
LAYER_1
 62
     7
  6
CONTINUOUS
 10
-2.804300
 20
-1.584100
  0
VERTEX
  8
LAYER_1
 62
     7
  6
CONTINUOUS
 10
-2.777004
 20
-1.679889
  0
VERTEX
  8
LAYER_1
 62
     7
  6
CONTINUOUS
 10
-2.749549
 20
-1.775518
  0
VERTEX
  8
LAYER_1
 62
     7
  6
CONTINUOUS
 10
-2.722117
 20
-1.870255
  0
VERTEX
  8
LAYER_1
 62
     7
  6
CONTINUOUS
 10
-2.694888
 20
-1.963369
  0
VERTEX
  8
LAYER_1
 62
     7
  6
CONTINUOUS
 10
-2.668045
 20
-2.054128
  0
VERTEX
  8
LAYER_1
 62
     7
  6
CONTINUOUS
 10
-2.641768
 20
-2.141800
  0
VERTEX
  8
LAYER_1
 62
     7
  6
CONTINUOUS
 10
-2.616238
 20
-2.225653
  0
VERTEX
  8
LAYER_1
 62
     7
  6
CONTINUOUS
 10
-2.591638
 20
-2.304957
  0
SEQEND
  8
0
  0
POLYLINE
  8
LAYER_1
 62
     7
  6
CONTINUOUS
 66
     1
 40
0.011055
 41
0.011055
  0
VERTEX
  8
LAYER_1
 62
     7
  6
CONTINUOUS
 10
-2.591638
 20
-2.304957
  0
VERTEX
  8
LAYER_1
 62
     7
  6
CONTINUOUS
 10
-2.542895
 20
-2.456600
  0
VERTEX
  8
LAYER_1
 62
     7
  6
CONTINUOUS
 10
-2.498646
 20
-2.586810
  0
VERTEX
  8
LAYER_1
 62
     7
  6
CONTINUOUS
 10
-2.458372
 20
-2.698008
  0
VERTEX
  8
LAYER_1
 62
     7
  6
CONTINUOUS
 10
-2.421554
 20
-2.792613
  0
VERTEX
  8
LAYER_1
 62
     7
  6
CONTINUOUS
 10
-2.387675
 20
-2.873044
  0
VERTEX
  8
LAYER_1
 62
     7
  6
CONTINUOUS
 10
-2.356216
 20
-2.941723
  0
VERTEX
  8
LAYER_1
 62
     7
  6
CONTINUOUS
 10
-2.326659
 20
-3.001068
  0
VERTEX
  8
LAYER_1
 62
     7
  6
CONTINUOUS
 10
-2.298484
 20
-3.053500
  0
SEQEND
  8
0
  0
POLYLINE
  8
LAYER_1
 62
     7
  6
CONTINUOUS
 66
     1
 40
0.011055
 41
0.011055
  0
VERTEX
  8
LAYER_1
 62
     7
  6
CONTINUOUS
 10
-2.298484
 20
-3.053500
  0
VERTEX
  8
LAYER_1
 62
     7
  6
CONTINUOUS
 10
-2.227295
 20
-3.171668
  0
VERTEX
  8
LAYER_1
 62
     7
  6
CONTINUOUS
 10
-2.159180
 20
-3.266275
  0
VERTEX
  8
LAYER_1
 62
     7
  6
CONTINUOUS
 10
-2.091067
 20
-3.345720
  0
SEQEND
  8
0
  0
POLYLINE
  8
LAYER_1
 62
     7
  6
CONTINUOUS
 66
     1
 40
0.011055
 41
0.011055
  0
VERTEX
  8
LAYER_1
 62
     7
  6
CONTINUOUS
 10
-2.091067
 20
-3.345720
  0
VERTEX
  8
LAYER_1
 62
     7
  6
CONTINUOUS
 10
-2.019781
 20
-3.416973
  0
VERTEX
  8
LAYER_1
 62
     7
  6
CONTINUOUS
 10
-1.941734
 20
-3.481262
  0
VERTEX
  8
LAYER_1
 62
     7
  6
CONTINUOUS
 10
-1.853232
 20
-3.538386
  0
SEQEND
  8
0
  0
POLYLINE
  8
LAYER_1
 62
     7
  6
CONTINUOUS
 66
     1
 40
0.011055
 41
0.011055
  0
VERTEX
  8
LAYER_1
 62
     7
  6
CONTINUOUS
 10
-1.853232
 20
-3.538386
  0
VERTEX
  8
LAYER_1
 62
     7
  6
CONTINUOUS
 10
-1.751528
 20
-3.588169
  0
VERTEX
  8
LAYER_1
 62
     7
  6
CONTINUOUS
 10
-1.637529
 20
-3.630572
  0
VERTEX
  8
LAYER_1
 62
     7
  6
CONTINUOUS
 10
-1.513083
 20
-3.665594
  0
SEQEND
  8
0
  0
POLYLINE
  8
LAYER_1
 62
     7
  6
CONTINUOUS
 66
     1
 40
0.011055
 41
0.011055
  0
VERTEX
  8
LAYER_1
 62
     7
  6
CONTINUOUS
 10
-1.513083
 20
-3.665594
  0
VERTEX
  8
LAYER_1
 62
     7
  6
CONTINUOUS
 10
-1.413682
 20
-3.687188
  0
VERTEX
  8
LAYER_1
 62
     7
  6
CONTINUOUS
 10
-1.308317
 20
-3.705583
  0
VERTEX
  8
LAYER_1
 62
     7
  6
CONTINUOUS
 10
-1.195865
 20
-3.721730
  0
VERTEX
  8
LAYER_1
 62
     7
  6
CONTINUOUS
 10
-1.075205
 20
-3.736583
  0
SEQEND
  8
0
  0
POLYLINE
  8
LAYER_1
 62
     7
  6
CONTINUOUS
 66
     1
 40
0.011055
 41
0.011055
  0
VERTEX
  8
LAYER_1
 62
     7
  6
CONTINUOUS
 10
-1.075205
 20
-3.736583
  0
VERTEX
  8
LAYER_1
 62
     7
  6
CONTINUOUS
 10
-0.947283
 20
-3.750798
  0
VERTEX
  8
LAYER_1
 62
     7
  6
CONTINUOUS
 10
-0.821351
 20
-3.763890
  0
VERTEX
  8
LAYER_1
 62
     7
  6
CONTINUOUS
 10
-0.708728
 20
-3.775081
  0
VERTEX
  8
LAYER_1
 62
     7
  6
CONTINUOUS
 10
-0.620732
 20
-3.783594
  0
SEQEND
  8
0
  0
POLYLINE
  8
LAYER_1
 62
     7
  6
CONTINUOUS
 66
     1
 40
0.011055
 41
0.011055
  0
VERTEX
  8
LAYER_1
 62
     7
  6
CONTINUOUS
 10
-0.620732
 20
-3.783594
  0
VERTEX
  8
LAYER_1
 62
     7
  6
CONTINUOUS
 10
-0.553265
 20
-3.790086
  0
VERTEX
  8
LAYER_1
 62
     7
  6
CONTINUOUS
 10
-0.528409
 20
-3.792477
  0
VERTEX
  8
LAYER_1
 62
     7
  6
CONTINUOUS
 10
-0.524858
 20
-3.792819
  0
SEQEND
  8
0
  0
POLYLINE
  8
LAYER_1
 62
     7
  6
CONTINUOUS
 66
     1
 40
0.011055
 41
0.011055
  0
VERTEX
  8
LAYER_1
 62
     7
  6
CONTINUOUS
 10
-2.958528
 20
-1.193220
  0
VERTEX
  8
LAYER_1
 62
     7
  6
CONTINUOUS
 10
-2.956138
 20
-1.201824
  0
VERTEX
  8
LAYER_1
 62
     7
  6
CONTINUOUS
 10
-2.939407
 20
-1.262052
  0
VERTEX
  8
LAYER_1
 62
     7
  6
CONTINUOUS
 10
-2.893996
 20
-1.425528
  0
SEQEND
  8
0
  0
POLYLINE
  8
LAYER_1
 62
     7
  6
CONTINUOUS
 66
     1
 40
0.011055
 41
0.011055
  0
VERTEX
  8
LAYER_1
 62
     7
  6
CONTINUOUS
 10
-2.893996
 20
-1.425528
  0
VERTEX
  8
LAYER_1
 62
     7
  6
CONTINUOUS
 10
-2.874864
 20
-1.494361
  0
VERTEX
  8
LAYER_1
 62
     7
  6
CONTINUOUS
 10
-2.852926
 20
-1.573027
  0
VERTEX
  8
LAYER_1
 62
     7
  6
CONTINUOUS
 10
-2.828578
 20
-1.659839
  0
VERTEX
  8
LAYER_1
 62
     7
  6
CONTINUOUS
 10
-2.802215
 20
-1.753107
  0
VERTEX
  8
LAYER_1
 62
     7
  6
CONTINUOUS
 10
-2.774232
 20
-1.851147
  0
VERTEX
  8
LAYER_1
 62
     7
  6
CONTINUOUS
 10
-2.745022
 20
-1.952270
  0
VERTEX
  8
LAYER_1
 62
     7
  6
CONTINUOUS
 10
-2.714981
 20
-2.054789
  0
VERTEX
  8
LAYER_1
 62
     7
  6
CONTINUOUS
 10
-2.684504
 20
-2.157017
  0
VERTEX
  8
LAYER_1
 62
     7
  6
CONTINUOUS
 10
-2.653985
 20
-2.257266
  0
VERTEX
  8
LAYER_1
 62
     7
  6
CONTINUOUS
 10
-2.623819
 20
-2.353851
  0
VERTEX
  8
LAYER_1
 62
     7
  6
CONTINUOUS
 10
-2.594402
 20
-2.445083
  0
SEQEND
  8
0
  0
POLYLINE
  8
LAYER_1
 62
     7
  6
CONTINUOUS
 66
     1
 40
0.011055
 41
0.011055
  0
VERTEX
  8
LAYER_1
 62
     7
  6
CONTINUOUS
 10
-2.594402
 20
-2.445083
  0
VERTEX
  8
LAYER_1
 62
     7
  6
CONTINUOUS
 10
-2.550338
 20
-2.574939
  0
VERTEX
  8
LAYER_1
 62
     7
  6
CONTINUOUS
 10
-2.508855
 20
-2.689057
  0
VERTEX
  8
LAYER_1
 62
     7
  6
CONTINUOUS
 10
-2.469711
 20
-2.789083
  0
VERTEX
  8
LAYER_1
 62
     7
  6
CONTINUOUS
 10
-2.432664
 20
-2.876660
  0
VERTEX
  8
LAYER_1
 62
     7
  6
CONTINUOUS
 10
-2.397470
 20
-2.953434
  0
VERTEX
  8
LAYER_1
 62
     7
  6
CONTINUOUS
 10
-2.363889
 20
-3.021049
  0
VERTEX
  8
LAYER_1
 62
     7
  6
CONTINUOUS
 10
-2.331677
 20
-3.081150
  0
SEQEND
  8
0
  0
POLYLINE
  8
LAYER_1
 62
     7
  6
CONTINUOUS
 66
     1
 40
0.011055
 41
0.011055
  0
VERTEX
  8
LAYER_1
 62
     7
  6
CONTINUOUS
 10
-2.331677
 20
-3.081150
  0
VERTEX
  8
LAYER_1
 62
     7
  6
CONTINUOUS
 10
-2.260490
 20
-3.199319
  0
VERTEX
  8
LAYER_1
 62
     7
  6
CONTINUOUS
 10
-2.192377
 20
-3.293926
  0
VERTEX
  8
LAYER_1
 62
     7
  6
CONTINUOUS
 10
-2.124264
 20
-3.373374
  0
SEQEND
  8
0
  0
POLYLINE
  8
LAYER_1
 62
     7
  6
CONTINUOUS
 66
     1
 40
0.011055
 41
0.011055
  0
VERTEX
  8
LAYER_1
 62
     7
  6
CONTINUOUS
 10
-2.124264
 20
-3.373374
  0
VERTEX
  8
LAYER_1
 62
     7
  6
CONTINUOUS
 10
-2.052972
 20
-3.444630
  0
VERTEX
  8
LAYER_1
 62
     7
  6
CONTINUOUS
 10
-1.974923
 20
-3.508923
  0
VERTEX
  8
LAYER_1
 62
     7
  6
CONTINUOUS
 10
-1.886429
 20
-3.566039
  0
SEQEND
  8
0
  0
POLYLINE
  8
LAYER_1
 62
     7
  6
CONTINUOUS
 66
     1
 40
0.011055
 41
0.011055
  0
VERTEX
  8
LAYER_1
 62
     7
  6
CONTINUOUS
 10
-1.886429
 20
-3.566039
  0
VERTEX
  8
LAYER_1
 62
     7
  6
CONTINUOUS
 10
-1.784747
 20
-3.615856
  0
VERTEX
  8
LAYER_1
 62
     7
  6
CONTINUOUS
 10
-1.670986
 20
-3.658500
  0
VERTEX
  8
LAYER_1
 62
     7
  6
CONTINUOUS
 10
-1.547193
 20
-3.694177
  0
SEQEND
  8
0
  0
POLYLINE
  8
LAYER_1
 62
     7
  6
CONTINUOUS
 66
     1
 40
0.011055
 41
0.011055
  0
VERTEX
  8
LAYER_1
 62
     7
  6
CONTINUOUS
 10
-1.547193
 20
-3.694177
  0
VERTEX
  8
LAYER_1
 62
     7
  6
CONTINUOUS
 10
-1.416596
 20
-3.723164
  0
VERTEX
  8
LAYER_1
 62
     7
  6
CONTINUOUS
 10
-1.287226
 20
-3.746007
  0
VERTEX
  8
LAYER_1
 62
     7
  6
CONTINUOUS
 10
-1.168303
 20
-3.763319
  0
SEQEND
  8
0
  0
POLYLINE
  8
LAYER_1
 62
     7
  6
CONTINUOUS
 66
     1
 40
0.011055
 41
0.011055
  0
VERTEX
  8
LAYER_1
 62
     7
  6
CONTINUOUS
 10
-1.168303
 20
-3.763319
  0
VERTEX
  8
LAYER_1
 62
     7
  6
CONTINUOUS
 10
-1.067931
 20
-3.775745
  0
VERTEX
  8
LAYER_1
 62
     7
  6
CONTINUOUS
 10
-0.989676
 20
-3.784074
  0
VERTEX
  8
LAYER_1
 62
     7
  6
CONTINUOUS
 10
-0.936000
 20
-3.789122
  0
SEQEND
  8
0
  0
POLYLINE
  8
LAYER_1
 62
     7
  6
CONTINUOUS
 66
     1
 40
0.011055
 41
0.011055
  0
VERTEX
  8
LAYER_1
 62
     7
  6
CONTINUOUS
 10
-0.936000
 20
-3.789122
  0
VERTEX
  8
LAYER_1
 62
     7
  6
CONTINUOUS
 10
-0.907458
 20
-3.791724
  0
VERTEX
  8
LAYER_1
 62
     7
  6
CONTINUOUS
 10
-0.896943
 20
-3.792682
  0
VERTEX
  8
LAYER_1
 62
     7
  6
CONTINUOUS
 10
-0.895441
 20
-3.792819
  0
SEQEND
  8
0
  0
POLYLINE
  8
LAYER_1
 62
     7
  6
CONTINUOUS
 66
     1
 40
0.011055
 41
0.011055
  0
VERTEX
  8
LAYER_1
 62
     7
  6
CONTINUOUS
 10
-0.237248
 20
-3.488594
  0
VERTEX
  8
LAYER_1
 62
     7
  6
CONTINUOUS
 10
-0.107264
 20
-0.297177
  0
VERTEX
  8
LAYER_1
 62
     7
  6
CONTINUOUS
 10
-0.292555
 20
9.968457
  0
SEQEND
  8
0
  0
POLYLINE
  8
LAYER_1
 62
     7
  6
CONTINUOUS
 66
     1
 40
0.011055
 41
0.011055
  0
VERTEX
  8
LAYER_1
 62
     7
  6
CONTINUOUS
 10
-1.090413
 20
-3.470638
  0
VERTEX
  8
LAYER_1
 62
     7
  6
CONTINUOUS
 10
-0.775138
 20
-3.155358
  0
SEQEND
  8
0
  0
POLYLINE
  8
LAYER_1
 62
     7
  6
CONTINUOUS
 66
     1
 40
0.011055
 41
0.011055
  0
VERTEX
  8
LAYER_1
 62
     7
  6
CONTINUOUS
 10
-0.222039
 20
-3.144303
  0
VERTEX
  8
LAYER_1
 62
     7
  6
CONTINUOUS
 10
0.057276
 20
-3.373846
  0
SEQEND
  8
0
  0
POLYLINE
  8
LAYER_1
 62
     7
  6
CONTINUOUS
 66
     1
 40
0.011055
 41
0.011055
  0
VERTEX
  8
LAYER_1
 62
     7
  6
CONTINUOUS
 10
-1.873055
 20
-3.404264
  0
VERTEX
  8
LAYER_1
 62
     7
  6
CONTINUOUS
 10
-0.761319
 20
-3.498291
  0
SEQEND
  8
0
  0
POLYLINE
  8
LAYER_1
 62
     7
  6
CONTINUOUS
 66
     1
 40
0.011055
 41
0.011055
  0
VERTEX
  8
LAYER_1
 62
     7
  6
CONTINUOUS
 10
-2.257469
 20
-0.472803
  0
VERTEX
  8
LAYER_1
 62
     7
  6
CONTINUOUS
 10
-1.881358
 20
-3.395969
  0
SEQEND
  8
0
  0
POLYLINE
  8
LAYER_1
 62
     7
  6
CONTINUOUS
 66
     1
 40
0.011055
 41
0.011055
  0
VERTEX
  8
LAYER_1
 62
     7
  6
CONTINUOUS
 10
-1.884122
 20
-3.401496
  0
VERTEX
  8
LAYER_1
 62
     7
  6
CONTINUOUS
 10
-1.933902
 20
-3.476165
  0
SEQEND
  8
0
  0
POLYLINE
  8
LAYER_1
  6
CONTINUOUS
 66
     1
 40
0.003000
 41
0.003000
 70
     1
  0
VERTEX
  8
LAYER_1
  6
CONTINUOUS
 10
-2.022402
 20
-4.062457
  0
VERTEX
  8
LAYER_1
  6
CONTINUOUS
 10
-2.023647
 20
-4.062525
  0
VERTEX
  8
LAYER_1
  6
CONTINUOUS
 10
-2.032368
 20
-4.063004
  0
VERTEX
  8
LAYER_1
  6
CONTINUOUS
 10
-2.056039
 20
-4.064303
  0
VERTEX
  8
LAYER_1
  6
CONTINUOUS
 10
-2.096314
 20
-4.065203
  0
VERTEX
  8
LAYER_1
  6
CONTINUOUS
 10
-2.131464
 20
-4.058015
  0
VERTEX
  8
LAYER_1
  6
CONTINUOUS
 10
-2.133941
 20
-4.033413
  0
VERTEX
  8
LAYER_1
  6
CONTINUOUS
 10
-2.086053
 20
-3.985152
  0
VERTEX
  8
LAYER_1
  6
CONTINUOUS
 10
-2.009594
 20
-3.919275
  0
VERTEX
  8
LAYER_1
  6
CONTINUOUS
 10
-1.936205
 20
-3.844902
  0
VERTEX
  8
LAYER_1
  6
CONTINUOUS
 10
-1.890503
 20
-3.770962
  0
VERTEX
  8
LAYER_1
  6
CONTINUOUS
 10
-1.868973
 20
-3.705733
  0
VERTEX
  8
LAYER_1
  6
CONTINUOUS
 10
-1.861067
 20
-3.657303
  0
VERTEX
  8
LAYER_1
  6
CONTINUOUS
 10
-1.857831
 20
-3.631031
  0
VERTEX
  8
LAYER_1
  6
CONTINUOUS
 10
-1.856639
 20
-3.621351
  0
VERTEX
  8
LAYER_1
  6
CONTINUOUS
 10
-1.856469
 20
-3.619969
  0
SEQEND
  8
0
  0
POLYLINE
  8
LAYER_1
 62
     7
  6
CONTINUOUS
 66
     1
 40
0.003000
 41
0.003000
  0
VERTEX
  8
LAYER_1
 62
     7
  6
CONTINUOUS
 10
-2.022402
 20
-4.062457
  0
VERTEX
  8
LAYER_1
 62
     7
  6
CONTINUOUS
 10
-2.023647
 20
-4.062525
  0
VERTEX
  8
LAYER_1
 62
     7
  6
CONTINUOUS
 10
-2.032368
 20
-4.063004
  0
VERTEX
  8
LAYER_1
 62
     7
  6
CONTINUOUS
 10
-2.056039
 20
-4.064303
  0
SEQEND
  8
0
  0
POLYLINE
  8
LAYER_1
 62
     7
  6
CONTINUOUS
 66
     1
 40
0.003000
 41
0.003000
  0
VERTEX
  8
LAYER_1
 62
     7
  6
CONTINUOUS
 10
-2.056039
 20
-4.064303
  0
VERTEX
  8
LAYER_1
 62
     7
  6
CONTINUOUS
 10
-2.096314
 20
-4.065203
  0
VERTEX
  8
LAYER_1
 62
     7
  6
CONTINUOUS
 10
-2.131464
 20
-4.058015
  0
VERTEX
  8
LAYER_1
 62
     7
  6
CONTINUOUS
 10
-2.133941
 20
-4.033413
  0
SEQEND
  8
0
  0
POLYLINE
  8
LAYER_1
 62
     7
  6
CONTINUOUS
 66
     1
 40
0.003000
 41
0.003000
  0
VERTEX
  8
LAYER_1
 62
     7
  6
CONTINUOUS
 10
-2.133941
 20
-4.033413
  0
VERTEX
  8
LAYER_1
 62
     7
  6
CONTINUOUS
 10
-2.086053
 20
-3.985152
  0
VERTEX
  8
LAYER_1
 62
     7
  6
CONTINUOUS
 10
-2.009594
 20
-3.919275
  0
VERTEX
  8
LAYER_1
 62
     7
  6
CONTINUOUS
 10
-1.936205
 20
-3.844902
  0
SEQEND
  8
0
  0
POLYLINE
  8
LAYER_1
 62
     7
  6
CONTINUOUS
 66
     1
 40
0.003000
 41
0.003000
  0
VERTEX
  8
LAYER_1
 62
     7
  6
CONTINUOUS
 10
-1.936205
 20
-3.844902
  0
VERTEX
  8
LAYER_1
 62
     7
  6
CONTINUOUS
 10
-1.890503
 20
-3.770962
  0
VERTEX
  8
LAYER_1
 62
     7
  6
CONTINUOUS
 10
-1.868973
 20
-3.705733
  0
VERTEX
  8
LAYER_1
 62
     7
  6
CONTINUOUS
 10
-1.861067
 20
-3.657303
  0
SEQEND
  8
0
  0
POLYLINE
  8
LAYER_1
 62
     7
  6
CONTINUOUS
 66
     1
 40
0.003000
 41
0.003000
  0
VERTEX
  8
LAYER_1
 62
     7
  6
CONTINUOUS
 10
-1.861067
 20
-3.657303
  0
VERTEX
  8
LAYER_1
 62
     7
  6
CONTINUOUS
 10
-1.857831
 20
-3.631031
  0
VERTEX
  8
LAYER_1
 62
     7
  6
CONTINUOUS
 10
-1.856639
 20
-3.621351
  0
VERTEX
  8
LAYER_1
 62
     7
  6
CONTINUOUS
 10
-1.856469
 20
-3.619969
  0
SEQEND
  8
0
  0
SOLID
  8
LAYER_1
  6
CONTINUOUS
 10
-2.083232
 20
1.677386
 11
-0.842902
 21
1.677386
 12
-2.102594
 22
1.490720
 13
-0.845665
 23
1.490720
  0
POLYLINE
  8
LAYER_1
  6
CONTINUOUS
 66
     1
 40
0.003000
 41
0.003000
 70
     1
  0
VERTEX
  8
LAYER_1
  6
CONTINUOUS
 10
-2.083232
 20
1.677386
  0
VERTEX
  8
LAYER_1
  6
CONTINUOUS
 10
-0.842902
 20
1.677386
  0
VERTEX
  8
LAYER_1
  6
CONTINUOUS
 10
-0.845665
 20
1.490720
  0
VERTEX
  8
LAYER_1
  6
CONTINUOUS
 10
-2.102594
 20
1.490720
  0
SEQEND
  8
0
  0
POLYLINE
  8
LAYER_1
 62
     7
  6
CONTINUOUS
 66
     1
 40
0.006268
 41
0.006268
 70
     1
  0
VERTEX
  8
LAYER_1
 62
     7
  6
CONTINUOUS
 10
-2.083232
 20
1.677386
  0
VERTEX
  8
LAYER_1
 62
     7
  6
CONTINUOUS
 10
-0.842902
 20
1.677386
  0
VERTEX
  8
LAYER_1
 62
     7
  6
CONTINUOUS
 10
-0.845665
 20
1.490720
  0
VERTEX
  8
LAYER_1
 62
     7
  6
CONTINUOUS
 10
-2.102594
 20
1.490720
  0
SEQEND
  8
0
  0
SOLID
  8
LAYER_1
  6
CONTINUOUS
 10
-1.929748
 20
3.289693
 11
-0.818012
 21
3.289693
 12
-1.943583
 22
3.098874
 13
-0.819386
 23
3.098874
  0
POLYLINE
  8
LAYER_1
  6
CONTINUOUS
 66
     1
 40
0.003000
 41
0.003000
 70
     1
  0
VERTEX
  8
LAYER_1
  6
CONTINUOUS
 10
-1.929748
 20
3.289693
  0
VERTEX
  8
LAYER_1
  6
CONTINUOUS
 10
-0.818012
 20
3.289693
  0
VERTEX
  8
LAYER_1
  6
CONTINUOUS
 10
-0.819386
 20
3.098874
  0
VERTEX
  8
LAYER_1
  6
CONTINUOUS
 10
-1.943583
 20
3.098874
  0
SEQEND
  8
0
  0
POLYLINE
  8
LAYER_1
 62
     7
  6
CONTINUOUS
 66
     1
 40
0.006268
 41
0.006268
 70
     1
  0
VERTEX
  8
LAYER_1
 62
     7
  6
CONTINUOUS
 10
-1.929748
 20
3.289693
  0
VERTEX
  8
LAYER_1
 62
     7
  6
CONTINUOUS
 10
-0.818012
 20
3.289693
  0
VERTEX
  8
LAYER_1
 62
     7
  6
CONTINUOUS
 10
-0.819386
 20
3.098874
  0
VERTEX
  8
LAYER_1
 62
     7
  6
CONTINUOUS
 10
-1.943583
 20
3.098874
  0
SEQEND
  8
0
  0
SOLID
  8
LAYER_1
  6
CONTINUOUS
 10
-1.773500
 20
4.884028
 11
-0.788969
 21
4.884028
 12
-1.785941
 22
4.756803
 13
-0.790358
 23
4.756803
  0
POLYLINE
  8
LAYER_1
  6
CONTINUOUS
 66
     1
 40
0.003000
 41
0.003000
 70
     1
  0
VERTEX
  8
LAYER_1
  6
CONTINUOUS
 10
-1.773500
 20
4.884028
  0
VERTEX
  8
LAYER_1
  6
CONTINUOUS
 10
-0.788969
 20
4.884028
  0
VERTEX
  8
LAYER_1
  6
CONTINUOUS
 10
-0.790358
 20
4.756803
  0
VERTEX
  8
LAYER_1
  6
CONTINUOUS
 10
-1.785941
 20
4.756803
  0
SEQEND
  8
0
  0
POLYLINE
  8
LAYER_1
 62
     7
  6
CONTINUOUS
 66
     1
 40
0.006268
 41
0.006268
 70
     1
  0
VERTEX
  8
LAYER_1
 62
     7
  6
CONTINUOUS
 10
-1.773500
 20
4.884028
  0
VERTEX
  8
LAYER_1
 62
     7
  6
CONTINUOUS
 10
-0.788969
 20
4.884028
  0
VERTEX
  8
LAYER_1
 62
     7
  6
CONTINUOUS
 10
-0.790358
 20
4.756803
  0
VERTEX
  8
LAYER_1
 62
     7
  6
CONTINUOUS
 10
-1.785941
 20
4.756803
  0
SEQEND
  8
0
  0
POLYLINE
  8
LAYER_1
 62
     7
  6
CONTINUOUS
 66
     1
 40
0.011055
 41
0.011055
 70
     1
  0
VERTEX
  8
LAYER_1
 62
     7
  6
CONTINUOUS
 10
-2.268528
 20
-0.340055
  0
VERTEX
  8
LAYER_1
 62
     7
  6
CONTINUOUS
 10
-0.871941
 20
-0.337291
  0
VERTEX
  8
LAYER_1
 62
     7
  6
CONTINUOUS
 10
-0.863638
 20
-0.588957
  0
VERTEX
  8
LAYER_1
 62
     7
  6
CONTINUOUS
 10
-2.243638
 20
-0.588957
  0
SEQEND
  8
0
  0
POLYLINE
  8
LAYER_1
 62
     7
  6
CONTINUOUS
 66
     1
 40
0.011055
 41
0.011055
 70
     1
  0
VERTEX
  8
LAYER_1
 62
     7
  6
CONTINUOUS
 10
-2.246402
 20
-0.024791
  0
VERTEX
  8
LAYER_1
 62
     7
  6
CONTINUOUS
 10
-0.869165
 20
-0.024791
  0
VERTEX
  8
LAYER_1
 62
     7
  6
CONTINUOUS
 10
-0.869165
 20
-0.273677
  0
VERTEX
  8
LAYER_1
 62
     7
  6
CONTINUOUS
 10
-2.268528
 20
-0.273677
  0
SEQEND
  8
0
  0
POLYLINE
  8
LAYER_1
 62
     7
  6
CONTINUOUS
 66
     1
 40
0.011055
 41
0.011055
  0
VERTEX
  8
LAYER_1
 62
     7
  6
CONTINUOUS
 10
-3.138291
 20
-0.489402
  0
VERTEX
  8
LAYER_1
 62
     7
  6
CONTINUOUS
 10
-3.138035
 20
-0.489333
  0
VERTEX
  8
LAYER_1
 62
     7
  6
CONTINUOUS
 10
-3.136242
 20
-0.488854
  0
VERTEX
  8
LAYER_1
 62
     7
  6
CONTINUOUS
 10
-3.131374
 20
-0.487555
  0
SEQEND
  8
0
  0
POLYLINE
  8
LAYER_1
 62
     7
  6
CONTINUOUS
 66
     1
 40
0.011055
 41
0.011055
  0
VERTEX
  8
LAYER_1
 62
     7
  6
CONTINUOUS
 10
-3.131374
 20
-0.487555
  0
VERTEX
  8
LAYER_1
 62
     7
  6
CONTINUOUS
 10
-3.121796
 20
-0.484975
  0
VERTEX
  8
LAYER_1
 62
     7
  6
CONTINUOUS
 10
-3.105459
 20
-0.480453
  0
VERTEX
  8
LAYER_1
 62
     7
  6
CONTINUOUS
 10
-3.080205
 20
-0.473264
  0
SEQEND
  8
0
  0
POLYLINE
  8
LAYER_1
 62
     7
  6
CONTINUOUS
 66
     1
 40
0.011055
 41
0.011055
  0
VERTEX
  8
LAYER_1
 62
     7
  6
CONTINUOUS
 10
-3.080205
 20
-0.473264
  0
VERTEX
  8
LAYER_1
 62
     7
  6
CONTINUOUS
 10
-3.044770
 20
-0.462870
  0
VERTEX
  8
LAYER_1
 62
     7
  6
CONTINUOUS
 10
-3.001342
 20
-0.449399
  0
VERTEX
  8
LAYER_1
 62
     7
  6
CONTINUOUS
 10
-2.952996
 20
-0.433165
  0
SEQEND
  8
0
  0
POLYLINE
  8
LAYER_1
 62
     7
  6
CONTINUOUS
 66
     1
 40
0.011055
 41
0.011055
  0
VERTEX
  8
LAYER_1
 62
     7
  6
CONTINUOUS
 10
-2.952996
 20
-0.433165
  0
VERTEX
  8
LAYER_1
 62
     7
  6
CONTINUOUS
 10
-2.901768
 20
-0.414812
  0
VERTEX
  8
LAYER_1
 62
     7
  6
CONTINUOUS
 10
-2.845518
 20
-0.396354
  0
VERTEX
  8
LAYER_1
 62
     7
  6
CONTINUOUS
 10
-2.781067
 20
-0.380150
  0
SEQEND
  8
0
  0
POLYLINE
  8
LAYER_1
 62
     7
  6
CONTINUOUS
 66
     1
 40
0.011055
 41
0.011055
  0
VERTEX
  8
LAYER_1
 62
     7
  6
CONTINUOUS
 10
-2.781067
 20
-0.380150
  0
VERTEX
  8
LAYER_1
 62
     7
  6
CONTINUOUS
 10
-2.706451
 20
-0.367995
  0
VERTEX
  8
LAYER_1
 62
     7
  6
CONTINUOUS
 10
-2.624462
 20
-0.359368
  0
VERTEX
  8
LAYER_1
 62
     7
  6
CONTINUOUS
 10
-2.539094
 20
-0.353193
  0
SEQEND
  8
0
  0
POLYLINE
  8
LAYER_1
 62
     7
  6
CONTINUOUS
 66
     1
 40
0.011055
 41
0.011055
  0
VERTEX
  8
LAYER_1
 62
     7
  6
CONTINUOUS
 10
-2.539094
 20
-0.353193
  0
VERTEX
  8
LAYER_1
 62
     7
  6
CONTINUOUS
 10
-2.455205
 20
-0.348564
  0
VERTEX
  8
LAYER_1
 62
     7
  6
CONTINUOUS
 10
-2.381148
 20
-0.345220
  0
VERTEX
  8
LAYER_1
 62
     7
  6
CONTINUOUS
 10
-2.326138
 20
-0.343055
  0
SEQEND
  8
0
  0
POLYLINE
  8
LAYER_1
 62
     7
  6
CONTINUOUS
 66
     1
 40
0.011055
 41
0.011055
  0
VERTEX
  8
LAYER_1
 62
     7
  6
CONTINUOUS
 10
-2.326138
 20
-0.343055
  0
VERTEX
  8
LAYER_1
 62
     7
  6
CONTINUOUS
 10
-2.296297
 20
-0.341919
  0
VERTEX
  8
LAYER_1
 62
     7
  6
CONTINUOUS
 10
-2.285303
 20
-0.341501
  0
VERTEX
  8
LAYER_1
 62
     7
  6
CONTINUOUS
 10
-2.283732
 20
-0.341441
  0
SEQEND
  8
0
  0
POLYLINE
  8
LAYER_1
 62
     7
  6
CONTINUOUS
 66
     1
 40
0.011055
 41
0.011055
  0
VERTEX
  8
LAYER_1
 62
     7
  6
CONTINUOUS
 10
-3.145205
 20
-0.124346
  0
VERTEX
  8
LAYER_1
 62
     7
  6
CONTINUOUS
 10
-3.144949
 20
-0.124415
  0
VERTEX
  8
LAYER_1
 62
     7
  6
CONTINUOUS
 10
-3.143156
 20
-0.124894
  0
VERTEX
  8
LAYER_1
 62
     7
  6
CONTINUOUS
 10
-3.138291
 20
-0.126193
  0
SEQEND
  8
0
  0
POLYLINE
  8
LAYER_1
 62
     7
  6
CONTINUOUS
 66
     1
 40
0.011055
 41
0.011055
  0
VERTEX
  8
LAYER_1
 62
     7
  6
CONTINUOUS
 10
-3.138291
 20
-0.126193
  0
VERTEX
  8
LAYER_1
 62
     7
  6
CONTINUOUS
 10
-3.128710
 20
-0.128771
  0
VERTEX
  8
LAYER_1
 62
     7
  6
CONTINUOUS
 10
-3.112370
 20
-0.133294
  0
VERTEX
  8
LAYER_1
 62
     7
  6
CONTINUOUS
 10
-3.087122
 20
-0.140484
  0
SEQEND
  8
0
  0
POLYLINE
  8
LAYER_1
 62
     7
  6
CONTINUOUS
 66
     1
 40
0.011055
 41
0.011055
  0
VERTEX
  8
LAYER_1
 62
     7
  6
CONTINUOUS
 10
-3.087122
 20
-0.140484
  0
VERTEX
  8
LAYER_1
 62
     7
  6
CONTINUOUS
 10
-3.051685
 20
-0.150876
  0
VERTEX
  8
LAYER_1
 62
     7
  6
CONTINUOUS
 10
-3.008258
 20
-0.164346
  0
VERTEX
  8
LAYER_1
 62
     7
  6
CONTINUOUS
 10
-2.959913
 20
-0.180583
  0
SEQEND
  8
0
  0
POLYLINE
  8
LAYER_1
 62
     7
  6
CONTINUOUS
 66
     1
 40
0.011055
 41
0.011055
  0
VERTEX
  8
LAYER_1
 62
     7
  6
CONTINUOUS
 10
-2.959913
 20
-0.180583
  0
VERTEX
  8
LAYER_1
 62
     7
  6
CONTINUOUS
 10
-2.908683
 20
-0.198931
  0
VERTEX
  8
LAYER_1
 62
     7
  6
CONTINUOUS
 10
-2.852430
 20
-0.217382
  0
VERTEX
  8
LAYER_1
 62
     7
  6
CONTINUOUS
 10
-2.787984
 20
-0.233583
  0
SEQEND
  8
0
  0
POLYLINE
  8
LAYER_1
 62
     7
  6
CONTINUOUS
 66
     1
 40
0.011055
 41
0.011055
  0
VERTEX
  8
LAYER_1
 62
     7
  6
CONTINUOUS
 10
-2.787984
 20
-0.233583
  0
VERTEX
  8
LAYER_1
 62
     7
  6
CONTINUOUS
 10
-2.713366
 20
-0.245748
  0
VERTEX
  8
LAYER_1
 62
     7
  6
CONTINUOUS
 10
-2.631372
 20
-0.254379
  0
VERTEX
  8
LAYER_1
 62
     7
  6
CONTINUOUS
 10
-2.545996
 20
-0.260555
  0
SEQEND
  8
0
  0
POLYLINE
  8
LAYER_1
 62
     7
  6
CONTINUOUS
 66
     1
 40
0.011055
 41
0.011055
  0
VERTEX
  8
LAYER_1
 62
     7
  6
CONTINUOUS
 10
-2.545996
 20
-0.260555
  0
VERTEX
  8
LAYER_1
 62
     7
  6
CONTINUOUS
 10
-2.462114
 20
-0.265177
  0
VERTEX
  8
LAYER_1
 62
     7
  6
CONTINUOUS
 10
-2.388058
 20
-0.268525
  0
VERTEX
  8
LAYER_1
 62
     7
  6
CONTINUOUS
 10
-2.333055
 20
-0.270693
  0
SEQEND
  8
0
  0
POLYLINE
  8
LAYER_1
 62
     7
  6
CONTINUOUS
 66
     1
 40
0.011055
 41
0.011055
  0
VERTEX
  8
LAYER_1
 62
     7
  6
CONTINUOUS
 10
-2.333055
 20
-0.270693
  0
VERTEX
  8
LAYER_1
 62
     7
  6
CONTINUOUS
 10
-2.303214
 20
-0.271826
  0
VERTEX
  8
LAYER_1
 62
     7
  6
CONTINUOUS
 10
-2.292220
 20
-0.272244
  0
VERTEX
  8
LAYER_1
 62
     7
  6
CONTINUOUS
 10
-2.290650
 20
-0.272303
  0
SEQEND
  8
0
  0
POLYLINE
  8
LAYER_1
 62
     7
  6
CONTINUOUS
 66
     1
 40
0.003000
 41
0.003000
  0
VERTEX
  8
LAYER_1
 62
     7
  6
CONTINUOUS
 10
-2.528484
 20
-1.211193
  0
VERTEX
  8
LAYER_1
 62
     7
  6
CONTINUOUS
 10
-2.529773
 20
-1.211168
  0
VERTEX
  8
LAYER_1
 62
     7
  6
CONTINUOUS
 10
-2.538797
 20
-1.210991
  0
VERTEX
  8
LAYER_1
 62
     7
  6
CONTINUOUS
 10
-2.563291
 20
-1.210512
  0
SEQEND
  8
0
  0
POLYLINE
  8
LAYER_1
 62
     7
  6
CONTINUOUS
 66
     1
 40
0.003000
 41
0.003000
  0
VERTEX
  8
LAYER_1
 62
     7
  6
CONTINUOUS
 10
-2.563291
 20
-1.210512
  0
VERTEX
  8
LAYER_1
 62
     7
  6
CONTINUOUS
 10
-2.605889
 20
-1.208657
  0
VERTEX
  8
LAYER_1
 62
     7
  6
CONTINUOUS
 10
-2.648901
 20
-1.200757
  0
VERTEX
  8
LAYER_1
 62
     7
  6
CONTINUOUS
 10
-2.669528
 20
-1.181232
  0
SEQEND
  8
0
  0
POLYLINE
  8
LAYER_1
 62
     7
  6
CONTINUOUS
 66
     1
 40
0.003000
 41
0.003000
  0
VERTEX
  8
LAYER_1
 62
     7
  6
CONTINUOUS
 10
-2.669528
 20
-1.181232
  0
VERTEX
  8
LAYER_1
 62
     7
  6
CONTINUOUS
 10
-2.652944
 20
-1.145957
  0
VERTEX
  8
LAYER_1
 62
     7
  6
CONTINUOUS
 10
-2.616129
 20
-1.096598
  0
VERTEX
  8
LAYER_1
 62
     7
  6
CONTINUOUS
 10
-2.584028
 20
-1.036276
  0
SEQEND
  8
0
  0
POLYLINE
  8
LAYER_1
 62
     7
  6
CONTINUOUS
 66
     1
 40
0.003000
 41
0.003000
  0
VERTEX
  8
LAYER_1
 62
     7
  6
CONTINUOUS
 10
-2.584028
 20
-1.036276
  0
VERTEX
  8
LAYER_1
 62
     7
  6
CONTINUOUS
 10
-2.575346
 20
-0.969458
  0
VERTEX
  8
LAYER_1
 62
     7
  6
CONTINUOUS
 10
-2.583873
 20
-0.905910
  0
VERTEX
  8
LAYER_1
 62
     7
  6
CONTINUOUS
 10
-2.597165
 20
-0.856748
  0
SEQEND
  8
0
  0
POLYLINE
  8
LAYER_1
 62
     7
  6
CONTINUOUS
 66
     1
 40
0.003000
 41
0.003000
  0
VERTEX
  8
LAYER_1
 62
     7
  6
CONTINUOUS
 10
-2.597165
 20
-0.856748
  0
VERTEX
  8
LAYER_1
 62
     7
  6
CONTINUOUS
 10
-2.605277
 20
-0.829833
  0
VERTEX
  8
LAYER_1
 62
     7
  6
CONTINUOUS
 10
-2.608266
 20
-0.819917
  0
VERTEX
  8
LAYER_1
 62
     7
  6
CONTINUOUS
 10
-2.608693
 20
-0.818500
  0
SEQEND
  8
0
  0
SOLID
  8
LAYER_1
  6
CONTINUOUS
 10
-2.603264
 20
-0.932386
 11
-2.608693
 21
-0.818500
 12
-2.603264
 22
-0.932386
 13
-2.550303
 23
-0.916441
  0
POLYLINE
  8
LAYER_1
  6
CONTINUOUS
 66
     1
 40
0.003000
 41
0.003000
 70
     1
  0
VERTEX
  8
LAYER_1
  6
CONTINUOUS
 10
-2.603264
 20
-0.932386
  0
VERTEX
  8
LAYER_1
  6
CONTINUOUS
 10
-2.608693
 20
-0.818500
  0
VERTEX
  8
LAYER_1
  6
CONTINUOUS
 10
-2.550303
 20
-0.916441
  0
SEQEND
  8
0
  0
POLYLINE
  8
LAYER_1
 62
     7
  6
CONTINUOUS
 66
     1
 40
0.003000
 41
0.003000
  0
VERTEX
  8
LAYER_1
 62
     7
  6
CONTINUOUS
 10
-2.603264
 20
-0.932386
  0
VERTEX
  8
LAYER_1
 62
     7
  6
CONTINUOUS
 10
-2.608693
 20
-0.818500
  0
VERTEX
  8
LAYER_1
 62
     7
  6
CONTINUOUS
 10
-2.550303
 20
-0.916441
  0
SEQEND
  8
0
  0
TEXT
  8
LAYER_1
 62
     7
 10
0.292646
 20
-1.755276
 40
0.094526
  1
horn anchored 
 41
1.000000
  7
SN0
 71
     0
 72
     5
 11
1.068954
 21
-1.755276
  0
TEXT
  8
LAYER_1
 62
     7
 10
0.292646
 20
-1.870874
 40
0.094526
  1
with light glass
 41
1.000000
  7
SN0
 71
     0
 72
     5
 11
1.043912
 21
-1.870874
  0
POLYLINE
  8
LAYER_1
 62
     7
  6
DASHED
 66
     1
 40
0.003000
 41
0.003000
  0
VERTEX
  8
LAYER_1
 62
     7
  6
DASHED
 10
-0.547441
 20
-0.577429
  0
VERTEX
  8
LAYER_1
 62
     7
  6
DASHED
 10
-0.535286
 20
-0.463073
  0
VERTEX
  8
LAYER_1
 62
     7
  6
DASHED
 10
-0.531773
 20
-0.341153
  0
VERTEX
  8
LAYER_1
 62
     7
  6
DASHED
 10
-0.536557
 20
-0.218798
  0
VERTEX
  8
LAYER_1
 62
     7
  6
DASHED
 10
-0.549291
 20
-0.103138
  0
SEQEND
  8
0
  0
POLYLINE
  8
LAYER_1
 62
     7
  6
DASHED
 66
     1
 40
0.003000
 41
0.003000
  0
VERTEX
  8
LAYER_1
 62
     7
  6
DASHED
 10
-0.549291
 20
-0.103138
  0
VERTEX
  8
LAYER_1
 62
     7
  6
DASHED
 10
-0.578089
 20
0.028765
  0
VERTEX
  8
LAYER_1
 62
     7
  6
DASHED
 10
-0.619898
 20
0.121851
  0
VERTEX
  8
LAYER_1
 62
     7
  6
DASHED
 10
-0.674205
 20
0.161886
  0
SEQEND
  8
0
  0
POLYLINE
  8
LAYER_1
 62
     7
  6
DASHED
 66
     1
 40
0.003000
 41
0.003000
  0
VERTEX
  8
LAYER_1
 62
     7
  6
DASHED
 10
-0.674205
 20
0.161886
  0
VERTEX
  8
LAYER_1
 62
     7
  6
DASHED
 10
-0.739910
 20
0.141107
  0
VERTEX
  8
LAYER_1
 62
     7
  6
DASHED
 10
-0.813605
 20
0.077723
  0
VERTEX
  8
LAYER_1
 62
     7
  6
DASHED
 10
-0.891291
 20
-0.003583
  0
SEQEND
  8
0
  0
POLYLINE
  8
LAYER_1
 62
     7
  6
DASHED
 66
     1
 40
0.003000
 41
0.003000
  0
VERTEX
  8
LAYER_1
 62
     7
  6
DASHED
 10
-0.891291
 20
-0.003583
  0
VERTEX
  8
LAYER_1
 62
     7
  6
DASHED
 10
-0.968234
 20
-0.082466
  0
VERTEX
  8
LAYER_1
 62
     7
  6
DASHED
 10
-1.036675
 20
-0.155925
  0
VERTEX
  8
LAYER_1
 62
     7
  6
DASHED
 10
-1.088110
 20
-0.225291
  0
SEQEND
  8
0
  0
POLYLINE
  8
LAYER_1
 62
     7
  6
DASHED
 66
     1
 40
0.003000
 41
0.003000
  0
VERTEX
  8
LAYER_1
 62
     7
  6
DASHED
 10
-1.088110
 20
-0.225291
  0
VERTEX
  8
LAYER_1
 62
     7
  6
DASHED
 10
-1.115353
 20
-0.291643
  0
VERTEX
  8
LAYER_1
 62
     7
  6
DASHED
 10
-1.116481
 20
-0.355130
  0
VERTEX
  8
LAYER_1
 62
     7
  6
DASHED
 10
-1.090874
 20
-0.415650
  0
SEQEND
  8
0
  0
POLYLINE
  8
LAYER_1
 62
     7
  6
DASHED
 66
     1
 40
0.003000
 41
0.003000
  0
VERTEX
  8
LAYER_1
 62
     7
  6
DASHED
 10
-1.090874
 20
-0.415650
  0
VERTEX
  8
LAYER_1
 62
     7
  6
DASHED
 10
-1.039609
 20
-0.474427
  0
VERTEX
  8
LAYER_1
 62
     7
  6
DASHED
 10
-0.970523
 20
-0.538016
  0
VERTEX
  8
LAYER_1
 62
     7
  6
DASHED
 10
-0.893138
 20
-0.614303
  0
SEQEND
  8
0
  0
POLYLINE
  8
LAYER_1
 62
     7
  6
DASHED
 66
     1
 40
0.003000
 41
0.003000
  0
VERTEX
  8
LAYER_1
 62
     7
  6
DASHED
 10
-0.893138
 20
-0.614303
  0
VERTEX
  8
LAYER_1
 62
     7
  6
DASHED
 10
-0.815890
 20
-0.704632
  0
VERTEX
  8
LAYER_1
 62
     7
  6
DASHED
 10
-0.742846
 20
-0.784100
  0
VERTEX
  8
LAYER_1
 62
     7
  6
DASHED
 10
-0.676969
 20
-0.821264
  0
SEQEND
  8
0
  0
POLYLINE
  8
LAYER_1
 62
     7
  6
DASHED
 66
     1
 40
0.003000
 41
0.003000
  0
VERTEX
  8
LAYER_1
 62
     7
  6
DASHED
 10
-0.676969
 20
-0.821264
  0
VERTEX
  8
LAYER_1
 62
     7
  6
DASHED
 10
-0.621058
 20
-0.792565
  0
VERTEX
  8
LAYER_1
 62
     7
  6
DASHED
 10
-0.577233
 20
-0.705996
  0
VERTEX
  8
LAYER_1
 62
     7
  6
DASHED
 10
-0.547441
 20
-0.577429
  0
SEQEND
  8
0
  0
POLYLINE
  8
LAYER_1
 62
     7
  6
DASHED
 66
     1
 40
0.003000
 41
0.003000
  0
VERTEX
  8
LAYER_1
 62
     7
  6
DASHED
 10
-2.839150
 20
0.138831
  0
VERTEX
  8
LAYER_1
 62
     7
  6
DASHED
 10
-2.923050
 20
0.126153
  0
VERTEX
  8
LAYER_1
 62
     7
  6
DASHED
 10
-2.987389
 20
0.104048
  0
VERTEX
  8
LAYER_1
 62
     7
  6
DASHED
 10
-3.035957
 20
0.070165
  0
SEQEND
  8
0
  0
POLYLINE
  8
LAYER_1
 62
     7
  6
DASHED
 66
     1
 40
0.003000
 41
0.003000
  0
VERTEX
  8
LAYER_1
 62
     7
  6
DASHED
 10
-3.035957
 20
0.070165
  0
VERTEX
  8
LAYER_1
 62
     7
  6
DASHED
 10
-3.072542
 20
0.023026
  0
VERTEX
  8
LAYER_1
 62
     7
  6
DASHED
 10
-3.100932
 20
-0.035273
  0
VERTEX
  8
LAYER_1
 62
     7
  6
DASHED
 10
-3.124913
 20
-0.101764
  0
SEQEND
  8
0
  0
POLYLINE
  8
LAYER_1
 62
     7
  6
DASHED
 66
     1
 40
0.003000
 41
0.003000
  0
VERTEX
  8
LAYER_1
 62
     7
  6
DASHED
 10
-3.124913
 20
-0.101764
  0
VERTEX
  8
LAYER_1
 62
     7
  6
DASHED
 10
-3.146754
 20
-0.173442
  0
VERTEX
  8
LAYER_1
 62
     7
  6
DASHED
 10
-3.162545
 20
-0.247171
  0
VERTEX
  8
LAYER_1
 62
     7
  6
DASHED
 10
-3.166858
 20
-0.319776
  0
SEQEND
  8
0
  0
POLYLINE
  8
LAYER_1
 62
     7
  6
DASHED
 66
     1
 40
0.003000
 41
0.003000
  0
VERTEX
  8
LAYER_1
 62
     7
  6
DASHED
 10
-3.166858
 20
-0.319776
  0
VERTEX
  8
LAYER_1
 62
     7
  6
DASHED
 10
-3.156226
 20
-0.389123
  0
VERTEX
  8
LAYER_1
 62
     7
  6
DASHED
 10
-3.134938
 20
-0.457237
  0
VERTEX
  8
LAYER_1
 62
     7
  6
DASHED
 10
-3.109248
 20
-0.527193
  0
SEQEND
  8
0
  0
POLYLINE
  8
LAYER_1
 62
     7
  6
DASHED
 66
     1
 40
0.003000
 41
0.003000
  0
VERTEX
  8
LAYER_1
 62
     7
  6
DASHED
 10
-3.109248
 20
-0.527193
  0
VERTEX
  8
LAYER_1
 62
     7
  6
DASHED
 10
-3.083284
 20
-0.600069
  0
VERTEX
  8
LAYER_1
 62
     7
  6
DASHED
 10
-3.052706
 20
-0.668951
  0
VERTEX
  8
LAYER_1
 62
     7
  6
DASHED
 10
-3.011067
 20
-0.724929
  0
SEQEND
  8
0
  0
POLYLINE
  8
LAYER_1
 62
     7
  6
DASHED
 66
     1
 40
0.003000
 41
0.003000
  0
VERTEX
  8
LAYER_1
 62
     7
  6
DASHED
 10
-3.011067
 20
-0.724929
  0
VERTEX
  8
LAYER_1
 62
     7
  6
DASHED
 10
-2.953010
 20
-0.761512
  0
VERTEX
  8
LAYER_1
 62
     7
  6
DASHED
 10
-2.877543
 20
-0.781910
  0
VERTEX
  8
LAYER_1
 62
     7
  6
DASHED
 10
-2.784764
 20
-0.791764
  0
SEQEND
  8
0
  0
POLYLINE
  8
LAYER_1
 62
     7
  6
DASHED
 66
     1
 40
0.003000
 41
0.003000
  0
VERTEX
  8
LAYER_1
 62
     7
  6
DASHED
 10
-2.784764
 20
-0.791764
  0
VERTEX
  8
LAYER_1
 62
     7
  6
DASHED
 10
-2.676973
 20
-0.795633
  0
VERTEX
  8
LAYER_1
 62
     7
  6
DASHED
 10
-2.565292
 20
-0.793874
  0
VERTEX
  8
LAYER_1
 62
     7
  6
DASHED
 10
-2.463039
 20
-0.785764
  0
SEQEND
  8
0
  0
POLYLINE
  8
LAYER_1
 62
     7
  6
DASHED
 66
     1
 40
0.003000
 41
0.003000
  0
VERTEX
  8
LAYER_1
 62
     7
  6
DASHED
 10
-2.463039
 20
-0.785764
  0
VERTEX
  8
LAYER_1
 62
     7
  6
DASHED
 10
-2.380036
 20
-0.769397
  0
VERTEX
  8
LAYER_1
 62
     7
  6
DASHED
 10
-2.312192
 20
-0.738071
  0
VERTEX
  8
LAYER_1
 62
     7
  6
DASHED
 10
-2.251929
 20
-0.683902
  0
SEQEND
  8
0
  0
POLYLINE
  8
LAYER_1
 62
     7
  6
DASHED
 66
     1
 40
0.003000
 41
0.003000
  0
VERTEX
  8
LAYER_1
 62
     7
  6
DASHED
 10
-2.251929
 20
-0.683902
  0
VERTEX
  8
LAYER_1
 62
     7
  6
DASHED
 10
-2.194081
 20
-0.603261
  0
VERTEX
  8
LAYER_1
 62
     7
  6
DASHED
 10
-2.143090
 20
-0.509506
  0
VERTEX
  8
LAYER_1
 62
     7
  6
DASHED
 10
-2.105819
 20
-0.420264
  0
SEQEND
  8
0
  0
POLYLINE
  8
LAYER_1
 62
     7
  6
DASHED
 66
     1
 40
0.003000
 41
0.003000
  0
VERTEX
  8
LAYER_1
 62
     7
  6
DASHED
 10
-2.105819
 20
-0.420264
  0
VERTEX
  8
LAYER_1
 62
     7
  6
DASHED
 10
-2.087981
 20
-0.347792
  0
VERTEX
  8
LAYER_1
 62
     7
  6
DASHED
 10
-2.090629
 20
-0.283002
  0
VERTEX
  8
LAYER_1
 62
     7
  6
DASHED
 10
-2.113665
 20
-0.211457
  0
SEQEND
  8
0
  0
POLYLINE
  8
LAYER_1
 62
     7
  6
DASHED
 66
     1
 40
0.003000
 41
0.003000
  0
VERTEX
  8
LAYER_1
 62
     7
  6
DASHED
 10
-2.113665
 20
-0.211457
  0
VERTEX
  8
LAYER_1
 62
     7
  6
DASHED
 10
-2.155982
 20
-0.124038
  0
VERTEX
  8
LAYER_1
 62
     7
  6
DASHED
 10
-2.212539
 20
-0.032931
  0
VERTEX
  8
LAYER_1
 62
     7
  6
DASHED
 10
-2.277291
 20
0.044346
  0
SEQEND
  8
0
  0
POLYLINE
  8
LAYER_1
 62
     7
  6
DASHED
 66
     1
 40
0.003000
 41
0.003000
  0
VERTEX
  8
LAYER_1
 62
     7
  6
DASHED
 10
-2.277291
 20
0.044346
  0
VERTEX
  8
LAYER_1
 62
     7
  6
DASHED
 10
-2.346187
 20
0.094653
  0
VERTEX
  8
LAYER_1
 62
     7
  6
DASHED
 10
-2.423174
 20
0.122324
  0
VERTEX
  8
LAYER_1
 62
     7
  6
DASHED
 10
-2.514193
 20
0.136067
  0
SEQEND
  8
0
  0
POLYLINE
  8
LAYER_1
 62
     7
  6
DASHED
 66
     1
 40
0.003000
 41
0.003000
  0
VERTEX
  8
LAYER_1
 62
     7
  6
DASHED
 10
-2.514193
 20
0.136067
  0
VERTEX
  8
LAYER_1
 62
     7
  6
DASHED
 10
-2.621796
 20
0.143034
  0
VERTEX
  8
LAYER_1
 62
     7
  6
DASHED
 10
-2.734927
 20
0.144161
  0
VERTEX
  8
LAYER_1
 62
     7
  6
DASHED
 10
-2.839150
 20
0.138831
  0
SEQEND
  8
0
  0
POLYLINE
  8
LAYER_1
 62
     7
  6
CONTINUOUS
 66
     1
 40
0.003000
 41
0.003000
  0
VERTEX
  8
LAYER_1
 62
     7
  6
CONTINUOUS
 10
-1.095941
 20
-1.205665
  0
VERTEX
  8
LAYER_1
 62
     7
  6
CONTINUOUS
 10
-1.094661
 20
-1.205631
  0
VERTEX
  8
LAYER_1
 62
     7
  6
CONTINUOUS
 10
-1.085699
 20
-1.205394
  0
VERTEX
  8
LAYER_1
 62
     7
  6
CONTINUOUS
 10
-1.061374
 20
-1.204748
  0
SEQEND
  8
0
  0
POLYLINE
  8
LAYER_1
 62
     7
  6
CONTINUOUS
 66
     1
 40
0.003000
 41
0.003000
  0
VERTEX
  8
LAYER_1
 62
     7
  6
CONTINUOUS
 10
-1.061374
 20
-1.204748
  0
VERTEX
  8
LAYER_1
 62
     7
  6
CONTINUOUS
 10
-1.019053
 20
-1.202611
  0
VERTEX
  8
LAYER_1
 62
     7
  6
CONTINUOUS
 10
-0.976323
 20
-1.194437
  0
VERTEX
  8
LAYER_1
 62
     7
  6
CONTINUOUS
 10
-0.955819
 20
-1.174791
  0
SEQEND
  8
0
  0
POLYLINE
  8
LAYER_1
 62
     7
  6
CONTINUOUS
 66
     1
 40
0.003000
 41
0.003000
  0
VERTEX
  8
LAYER_1
 62
     7
  6
CONTINUOUS
 10
-0.955819
 20
-1.174791
  0
VERTEX
  8
LAYER_1
 62
     7
  6
CONTINUOUS
 10
-0.971547
 20
-1.138648
  0
VERTEX
  8
LAYER_1
 62
     7
  6
CONTINUOUS
 10
-1.002942
 20
-1.082636
  0
VERTEX
  8
LAYER_1
 62
     7
  6
CONTINUOUS
 10
-1.020819
 20
-1.003791
  0
SEQEND
  8
0
  0
POLYLINE
  8
LAYER_1
 62
     7
  6
CONTINUOUS
 66
     1
 40
0.003000
 41
0.003000
  0
VERTEX
  8
LAYER_1
 62
     7
  6
CONTINUOUS
 10
-1.020819
 20
-1.003791
  0
VERTEX
  8
LAYER_1
 62
     7
  6
CONTINUOUS
 10
-1.004374
 20
-0.903461
  0
VERTEX
  8
LAYER_1
 62
     7
  6
CONTINUOUS
 10
-0.966424
 20
-0.800366
  0
VERTEX
  8
LAYER_1
 62
     7
  6
CONTINUOUS
 10
-0.928165
 20
-0.717555
  0
SEQEND
  8
0
  0
POLYLINE
  8
LAYER_1
 62
     7
  6
CONTINUOUS
 66
     1
 40
0.003000
 41
0.003000
  0
VERTEX
  8
LAYER_1
 62
     7
  6
CONTINUOUS
 10
-0.928165
 20
-0.717555
  0
VERTEX
  8
LAYER_1
 62
     7
  6
CONTINUOUS
 10
-0.906115
 20
-0.671823
  0
VERTEX
  8
LAYER_1
 62
     7
  6
CONTINUOUS
 10
-0.897991
 20
-0.654974
  0
VERTEX
  8
LAYER_1
 62
     7
  6
CONTINUOUS
 10
-0.896831
 20
-0.652567
  0
SEQEND
  8
0
  0
SOLID
  8
LAYER_1
  6
CONTINUOUS
 10
-0.969791
 20
-0.740193
 11
-0.896831
 21
-0.652567
 12
-0.969791
 22
-0.740193
 13
-0.919969
 23
-0.764220
  0
POLYLINE
  8
LAYER_1
  6
CONTINUOUS
 66
     1
 40
0.003000
 41
0.003000
 70
     1
  0
VERTEX
  8
LAYER_1
  6
CONTINUOUS
 10
-0.969791
 20
-0.740193
  0
VERTEX
  8
LAYER_1
  6
CONTINUOUS
 10
-0.896831
 20
-0.652567
  0
VERTEX
  8
LAYER_1
  6
CONTINUOUS
 10
-0.919969
 20
-0.764220
  0
SEQEND
  8
0
  0
POLYLINE
  8
LAYER_1
 62
     7
  6
CONTINUOUS
 66
     1
 40
0.003000
 41
0.003000
  0
VERTEX
  8
LAYER_1
 62
     7
  6
CONTINUOUS
 10
-0.969791
 20
-0.740193
  0
VERTEX
  8
LAYER_1
 62
     7
  6
CONTINUOUS
 10
-0.896831
 20
-0.652567
  0
VERTEX
  8
LAYER_1
 62
     7
  6
CONTINUOUS
 10
-0.919969
 20
-0.764220
  0
SEQEND
  8
0
  0
TEXT
  8
LAYER_1
 62
     7
 10
-2.485622
 20
-1.189228
 40
0.094526
  1
light glass fillets
 41
1.000000
  7
SN0
 71
     0
 72
     5
 11
-1.673960
 21
-1.189228
  0
TEXT
  8
LAYER_1
 62
     7
 10
-2.485622
 20
-1.304827
 40
0.094526
  1
around fin/boom joints
 41
1.000000
  7
SN0
 71
     0
 72
     5
 11
-1.348411
 21
-1.304827
  0
POLYLINE
  8
LAYER_1
 62
     7
  6
CONTINUOUS
 66
     1
 40
0.003000
 41
0.003000
  0
VERTEX
  8
LAYER_1
 62
     7
  6
CONTINUOUS
 10
0.191402
 20
-1.778138
  0
VERTEX
  8
LAYER_1
 62
     7
  6
CONTINUOUS
 10
0.189695
 20
-1.778069
  0
VERTEX
  8
LAYER_1
 62
     7
  6
CONTINUOUS
 10
0.177747
 20
-1.777591
  0
VERTEX
  8
LAYER_1
 62
     7
  6
CONTINUOUS
 10
0.145319
 20
-1.776291
  0
SEQEND
  8
0
  0
POLYLINE
  8
LAYER_1
 62
     7
  6
CONTINUOUS
 66
     1
 40
0.003000
 41
0.003000
  0
VERTEX
  8
LAYER_1
 62
     7
  6
CONTINUOUS
 10
0.145319
 20
-1.776291
  0
VERTEX
  8
LAYER_1
 62
     7
  6
CONTINUOUS
 10
0.089185
 20
-1.770894
  0
VERTEX
  8
LAYER_1
 62
     7
  6
CONTINUOUS
 10
0.034283
 20
-1.746653
  0
VERTEX
  8
LAYER_1
 62
     7
  6
CONTINUOUS
 10
0.012567
 20
-1.685941
  0
SEQEND
  8
0
  0
POLYLINE
  8
LAYER_1
 62
     7
  6
CONTINUOUS
 66
     1
 40
0.003000
 41
0.003000
  0
VERTEX
  8
LAYER_1
 62
     7
  6
CONTINUOUS
 10
0.012567
 20
-1.685941
  0
VERTEX
  8
LAYER_1
 62
     7
  6
CONTINUOUS
 10
0.032184
 20
-1.608250
  0
VERTEX
  8
LAYER_1
 62
     7
  6
CONTINUOUS
 10
0.071335
 20
-1.506878
  0
VERTEX
  8
LAYER_1
 62
     7
  6
CONTINUOUS
 10
0.112908
 20
-1.388566
  0
VERTEX
  8
LAYER_1
 62
     7
  6
CONTINUOUS
 10
0.139791
 20
-1.260055
  0
SEQEND
  8
0
  0
POLYLINE
  8
LAYER_1
 62
     7
  6
CONTINUOUS
 66
     1
 40
0.003000
 41
0.003000
  0
VERTEX
  8
LAYER_1
 62
     7
  6
CONTINUOUS
 10
0.139791
 20
-1.260055
  0
VERTEX
  8
LAYER_1
 62
     7
  6
CONTINUOUS
 10
0.139556
 20
-1.128548
  0
VERTEX
  8
LAYER_1
 62
     7
  6
CONTINUOUS
 10
0.118582
 20
-1.003092
  0
VERTEX
  8
LAYER_1
 62
     7
  6
CONTINUOUS
 10
0.087931
 20
-0.893194
  0
VERTEX
  8
LAYER_1
 62
     7
  6
CONTINUOUS
 10
0.058665
 20
-0.808358
  0
SEQEND
  8
0
  0
POLYLINE
  8
LAYER_1
 62
     7
  6
CONTINUOUS
 66
     1
 40
0.003000
 41
0.003000
  0
VERTEX
  8
LAYER_1
 62
     7
  6
CONTINUOUS
 10
0.058665
 20
-0.808358
  0
VERTEX
  8
LAYER_1
 62
     7
  6
CONTINUOUS
 10
0.035305
 20
-0.743482
  0
VERTEX
  8
LAYER_1
 62
     7
  6
CONTINUOUS
 10
0.026698
 20
-0.719580
  0
VERTEX
  8
LAYER_1
 62
     7
  6
CONTINUOUS
 10
0.025469
 20
-0.716165
  0
SEQEND
  8
0
  0
SOLID
  8
LAYER_1
  6
CONTINUOUS
 10
0.036929
 20
-0.829622
 11
0.025469
 21
-0.716165
 12
0.036929
 22
-0.829622
 13
0.088969
 23
-0.810886
  0
POLYLINE
  8
LAYER_1
  6
CONTINUOUS
 66
     1
 40
0.003000
 41
0.003000
 70
     1
  0
VERTEX
  8
LAYER_1
  6
CONTINUOUS
 10
0.036929
 20
-0.829622
  0
VERTEX
  8
LAYER_1
  6
CONTINUOUS
 10
0.025469
 20
-0.716165
  0
VERTEX
  8
LAYER_1
  6
CONTINUOUS
 10
0.088969
 20
-0.810886
  0
SEQEND
  8
0
  0
POLYLINE
  8
LAYER_1
 62
     7
  6
CONTINUOUS
 66
     1
 40
0.003000
 41
0.003000
  0
VERTEX
  8
LAYER_1
 62
     7
  6
CONTINUOUS
 10
0.036929
 20
-0.829622
  0
VERTEX
  8
LAYER_1
 62
     7
  6
CONTINUOUS
 10
0.025469
 20
-0.716165
  0
VERTEX
  8
LAYER_1
 62
     7
  6
CONTINUOUS
 10
0.088969
 20
-0.810886
  0
SEQEND
  8
0
  0
POLYLINE
  8
LAYER_1
  6
CONTINUOUS
 66
     1
 40
0.003000
 41
0.003000
 70
     1
  0
VERTEX
  8
LAYER_1
  6
CONTINUOUS
 10
0.290969
 20
-0.304110
  0
VERTEX
  8
LAYER_1
  6
CONTINUOUS
 10
0.440303
 20
-0.181039
  0
VERTEX
  8
LAYER_1
  6
CONTINUOUS
 10
2.937567
 20
-0.181039
  0
VERTEX
  8
LAYER_1
  6
CONTINUOUS
 10
3.121484
 20
-0.305484
  0
VERTEX
  8
LAYER_1
  6
CONTINUOUS
 10
2.927902
 20
-0.429941
  0
VERTEX
  8
LAYER_1
  6
CONTINUOUS
 10
0.419567
 20
-0.431319
  0
SEQEND
  8
0
  0
POLYLINE
  8
LAYER_1
 62
     7
  6
CONTINUOUS
 66
     1
 40
0.006268
 41
0.006268
 70
     1
  0
VERTEX
  8
LAYER_1
 62
     7
  6
CONTINUOUS
 10
0.290969
 20
-0.304110
  0
VERTEX
  8
LAYER_1
 62
     7
  6
CONTINUOUS
 10
0.440303
 20
-0.181039
  0
VERTEX
  8
LAYER_1
 62
     7
  6
CONTINUOUS
 10
2.937567
 20
-0.181039
  0
VERTEX
  8
LAYER_1
 62
     7
  6
CONTINUOUS
 10
3.121484
 20
-0.305484
  0
VERTEX
  8
LAYER_1
 62
     7
  6
CONTINUOUS
 10
2.927902
 20
-0.429941
  0
VERTEX
  8
LAYER_1
 62
     7
  6
CONTINUOUS
 10
0.419567
 20
-0.431319
  0
SEQEND
  8
0
  0
TEXT
  8
LAYER_1
 62
     7
 10
-1.894882
 20
-3.981528
 40
0.094526
  1
laminated
 41
1.000000
  7
SN0
 71
     0
 72
     5
 11
-1.394038
 21
-3.981528
  0
TEXT
  8
LAYER_1
 62
     7
 10
-1.894882
 20
-4.097126
 40
0.094526
  1
very hard 1/32" balsa
 41
1.000000
  7
SN0
 71
     0
 72
     5
 11
-0.807018
 21
-4.097126
  0
TEXT
  8
LAYER_1
 62
     7
 10
-1.894882
 20
-4.212724
 40
0.094526
  1
or 0.020" basswood
 41
1.000000
  7
SN0
 71
     0
 72
     5
 11
-0.879199
 21
-4.212724
  0
POLYLINE
  8
LAYER_1
 62
     7
  6
CONTINUOUS
 66
     1
 40
0.011055
 41
0.011055
  0
VERTEX
  8
LAYER_1
 62
     7
  6
CONTINUOUS
 10
2.325012
 20
-2.594776
  0
VERTEX
  8
LAYER_1
 62
     7
  6
CONTINUOUS
 10
-0.230331
 20
-3.490819
  0
SEQEND
  8
0
  0
POLYLINE
  8
LAYER_1
 62
     7
  6
CONTINUOUS
 66
     1
 40
0.011055
 41
0.011055
  0
VERTEX
  8
LAYER_1
 62
     7
  6
CONTINUOUS
 10
2.330539
 20
-2.589248
  0
VERTEX
  8
LAYER_1
 62
     7
  6
CONTINUOUS
 10
2.927902
 20
-3.153413
  0
SEQEND
  8
0
  0
POLYLINE
  8
LAYER_1
  6
CONTINUOUS
 66
     1
 40
0.003000
 41
0.003000
 70
     1
  0
VERTEX
  8
LAYER_1
  6
CONTINUOUS
 10
-0.069929
 20
-0.300776
  0
VERTEX
  8
LAYER_1
  6
CONTINUOUS
 10
2.217150
 20
-2.629346
  0
VERTEX
  8
LAYER_1
  6
CONTINUOUS
 10
2.419039
 20
-2.672220
  0
VERTEX
  8
LAYER_1
  6
CONTINUOUS
 10
2.365110
 20
-2.434374
  0
VERTEX
  8
LAYER_1
  6
CONTINUOUS
 10
0.289583
 20
-0.303539
  0
SEQEND
  8
0
  0
POLYLINE
  8
LAYER_1
 62
     7
  6
CONTINUOUS
 66
     1
 40
0.006268
 41
0.006268
 70
     1
  0
VERTEX
  8
LAYER_1
 62
     7
  6
CONTINUOUS
 10
-0.069929
 20
-0.300776
  0
VERTEX
  8
LAYER_1
 62
     7
  6
CONTINUOUS
 10
2.217150
 20
-2.629346
  0
VERTEX
  8
LAYER_1
 62
     7
  6
CONTINUOUS
 10
2.419039
 20
-2.672220
  0
VERTEX
  8
LAYER_1
 62
     7
  6
CONTINUOUS
 10
2.365110
 20
-2.434374
  0
VERTEX
  8
LAYER_1
 62
     7
  6
CONTINUOUS
 10
0.289583
 20
-0.303539
  0
SEQEND
  8
0
  0
POLYLINE
  8
LAYER_1
 62
     7
  6
DASHED
 66
     1
 40
0.003000
 41
0.003000
  0
VERTEX
  8
LAYER_1
 62
     7
  6
DASHED
 10
-0.441205
 20
-0.305484
  0
VERTEX
  8
LAYER_1
 62
     7
  6
DASHED
 10
-0.441197
 20
-0.306218
  0
VERTEX
  8
LAYER_1
 62
     7
  6
DASHED
 10
-0.441139
 20
-0.311357
  0
VERTEX
  8
LAYER_1
 62
     7
  6
DASHED
 10
-0.440984
 20
-0.325303
  0
SEQEND
  8
0
  0
POLYLINE
  8
LAYER_1
 62
     7
  6
DASHED
 66
     1
 40
0.003000
 41
0.003000
  0
VERTEX
  8
LAYER_1
 62
     7
  6
DASHED
 10
-0.440984
 20
-0.325303
  0
VERTEX
  8
LAYER_1
 62
     7
  6
DASHED
 10
-0.439564
 20
-0.351874
  0
VERTEX
  8
LAYER_1
 62
     7
  6
DASHED
 10
-0.431336
 20
-0.392530
  0
VERTEX
  8
LAYER_1
 62
     7
  6
DASHED
 10
-0.409638
 20
-0.448138
  0
SEQEND
  8
0
  0
POLYLINE
  8
LAYER_1
 62
     7
  6
DASHED
 66
     1
 40
0.003000
 41
0.003000
  0
VERTEX
  8
LAYER_1
 62
     7
  6
DASHED
 10
-0.409638
 20
-0.448138
  0
VERTEX
  8
LAYER_1
 62
     7
  6
DASHED
 10
-0.368991
 20
-0.517019
  0
VERTEX
  8
LAYER_1
 62
     7
  6
DASHED
 10
-0.308629
 20
-0.587225
  0
VERTEX
  8
LAYER_1
 62
     7
  6
DASHED
 10
-0.228957
 20
-0.644264
  0
SEQEND
  8
0
  0
POLYLINE
  8
LAYER_1
 62
     7
  6
DASHED
 66
     1
 40
0.003000
 41
0.003000
  0
VERTEX
  8
LAYER_1
 62
     7
  6
DASHED
 10
-0.228957
 20
-0.644264
  0
VERTEX
  8
LAYER_1
 62
     7
  6
DASHED
 10
-0.132656
 20
-0.677059
  0
VERTEX
  8
LAYER_1
 62
     7
  6
DASHED
 10
-0.031494
 20
-0.688136
  0
VERTEX
  8
LAYER_1
 62
     7
  6
DASHED
 10
0.060500
 20
-0.683441
  0
SEQEND
  8
0
  0
POLYLINE
  8
LAYER_1
 62
     7
  6
DASHED
 66
     1
 40
0.003000
 41
0.003000
  0
VERTEX
  8
LAYER_1
 62
     7
  6
DASHED
 10
0.060500
 20
-0.683441
  0
VERTEX
  8
LAYER_1
 62
     7
  6
DASHED
 10
0.133357
 20
-0.667929
  0
VERTEX
  8
LAYER_1
 62
     7
  6
DASHED
 10
0.193361
 20
-0.642578
  0
VERTEX
  8
LAYER_1
 62
     7
  6
DASHED
 10
0.250858
 20
-0.607386
  0
SEQEND
  8
0
  0
POLYLINE
  8
LAYER_1
 62
     7
  6
DASHED
 66
     1
 40
0.003000
 41
0.003000
  0
VERTEX
  8
LAYER_1
 62
     7
  6
DASHED
 10
0.250858
 20
-0.607386
  0
VERTEX
  8
LAYER_1
 62
     7
  6
DASHED
 10
0.313315
 20
-0.563269
  0
VERTEX
  8
LAYER_1
 62
     7
  6
DASHED
 10
0.376691
 20
-0.514694
  0
VERTEX
  8
LAYER_1
 62
     7
  6
DASHED
 10
0.434083
 20
-0.467039
  0
SEQEND
  8
0
  0
POLYLINE
  8
LAYER_1
 62
     7
  6
DASHED
 66
     1
 40
0.003000
 41
0.003000
  0
VERTEX
  8
LAYER_1
 62
     7
  6
DASHED
 10
0.434083
 20
-0.467039
  0
VERTEX
  8
LAYER_1
 62
     7
  6
DASHED
 10
0.479831
 20
-0.424849
  0
VERTEX
  8
LAYER_1
 62
     7
  6
DASHED
 10
0.513392
 20
-0.389319
  0
VERTEX
  8
LAYER_1
 62
     7
  6
DASHED
 10
0.535484
 20
-0.360803
  0
SEQEND
  8
0
  0
POLYLINE
  8
LAYER_1
 62
     7
  6
DASHED
 66
     1
 40
0.003000
 41
0.003000
  0
VERTEX
  8
LAYER_1
 62
     7
  6
DASHED
 10
0.535484
 20
-0.360803
  0
VERTEX
  8
LAYER_1
 62
     7
  6
DASHED
 10
0.547282
 20
-0.339446
  0
VERTEX
  8
LAYER_1
 62
     7
  6
DASHED
 10
0.551864
 20
-0.324541
  0
VERTEX
  8
LAYER_1
 62
     7
  6
DASHED
 10
0.552764
 20
-0.315165
  0
SEQEND
  8
0
  0
POLYLINE
  8
LAYER_1
 62
     7
  6
DASHED
 66
     1
 40
0.003000
 41
0.003000
  0
VERTEX
  8
LAYER_1
 62
     7
  6
DASHED
 10
0.552764
 20
-0.315165
  0
VERTEX
  8
LAYER_1
 62
     7
  6
DASHED
 10
0.552930
 20
-0.310298
  0
VERTEX
  8
LAYER_1
 62
     7
  6
DASHED
 10
0.552991
 20
-0.308504
  0
VERTEX
  8
LAYER_1
 62
     7
  6
DASHED
 10
0.553000
 20
-0.308248
  0
SEQEND
  8
0
  0
POLYLINE
  8
LAYER_1
 62
     7
  6
DASHED
 66
     1
 40
0.003000
 41
0.003000
  0
VERTEX
  8
LAYER_1
 62
     7
  6
DASHED
 10
-0.441902
 20
-0.299957
  0
VERTEX
  8
LAYER_1
 62
     7
  6
DASHED
 10
-0.441893
 20
-0.299223
  0
VERTEX
  8
LAYER_1
 62
     7
  6
DASHED
 10
-0.441832
 20
-0.294084
  0
VERTEX
  8
LAYER_1
 62
     7
  6
DASHED
 10
-0.441665
 20
-0.280138
  0
SEQEND
  8
0
  0
POLYLINE
  8
LAYER_1
 62
     7
  6
DASHED
 66
     1
 40
0.003000
 41
0.003000
  0
VERTEX
  8
LAYER_1
 62
     7
  6
DASHED
 10
-0.441665
 20
-0.280138
  0
VERTEX
  8
LAYER_1
 62
     7
  6
DASHED
 10
-0.440250
 20
-0.253566
  0
VERTEX
  8
LAYER_1
 62
     7
  6
DASHED
 10
-0.432018
 20
-0.212911
  0
VERTEX
  8
LAYER_1
 62
     7
  6
DASHED
 10
-0.410319
 20
-0.157303
  0
SEQEND
  8
0
  0
POLYLINE
  8
LAYER_1
 62
     7
  6
DASHED
 66
     1
 40
0.003000
 41
0.003000
  0
VERTEX
  8
LAYER_1
 62
     7
  6
DASHED
 10
-0.410319
 20
-0.157303
  0
VERTEX
  8
LAYER_1
 62
     7
  6
DASHED
 10
-0.369678
 20
-0.088432
  0
VERTEX
  8
LAYER_1
 62
     7
  6
DASHED
 10
-0.309313
 20
-0.018228
  0
VERTEX
  8
LAYER_1
 62
     7
  6
DASHED
 10
-0.229638
 20
0.038819
  0
SEQEND
  8
0
  0
POLYLINE
  8
LAYER_1
 62
     7
  6
DASHED
 66
     1
 40
0.003000
 41
0.003000
  0
VERTEX
  8
LAYER_1
 62
     7
  6
DASHED
 10
-0.229638
 20
0.038819
  0
VERTEX
  8
LAYER_1
 62
     7
  6
DASHED
 10
-0.133342
 20
0.071608
  0
VERTEX
  8
LAYER_1
 62
     7
  6
DASHED
 10
-0.032177
 20
0.082689
  0
VERTEX
  8
LAYER_1
 62
     7
  6
DASHED
 10
0.059819
 20
0.078000
  0
SEQEND
  8
0
  0
POLYLINE
  8
LAYER_1
 62
     7
  6
DASHED
 66
     1
 40
0.003000
 41
0.003000
  0
VERTEX
  8
LAYER_1
 62
     7
  6
DASHED
 10
0.059819
 20
0.078000
  0
VERTEX
  8
LAYER_1
 62
     7
  6
DASHED
 10
0.132678
 20
0.062474
  0
VERTEX
  8
LAYER_1
 62
     7
  6
DASHED
 10
0.192681
 20
0.037123
  0
VERTEX
  8
LAYER_1
 62
     7
  6
DASHED
 10
0.250177
 20
0.001941
  0
SEQEND
  8
0
  0
POLYLINE
  8
LAYER_1
 62
     7
  6
DASHED
 66
     1
 40
0.003000
 41
0.003000
  0
VERTEX
  8
LAYER_1
 62
     7
  6
DASHED
 10
0.250177
 20
0.001941
  0
VERTEX
  8
LAYER_1
 62
     7
  6
DASHED
 10
0.312627
 20
-0.042173
  0
VERTEX
  8
LAYER_1
 62
     7
  6
DASHED
 10
0.376002
 20
-0.090747
  0
VERTEX
  8
LAYER_1
 62
     7
  6
DASHED
 10
0.433386
 20
-0.138402
  0
SEQEND
  8
0
  0
POLYLINE
  8
LAYER_1
 62
     7
  6
DASHED
 66
     1
 40
0.003000
 41
0.003000
  0
VERTEX
  8
LAYER_1
 62
     7
  6
DASHED
 10
0.433386
 20
-0.138402
  0
VERTEX
  8
LAYER_1
 62
     7
  6
DASHED
 10
0.479135
 20
-0.180596
  0
VERTEX
  8
LAYER_1
 62
     7
  6
DASHED
 10
0.512698
 20
-0.216133
  0
VERTEX
  8
LAYER_1
 62
     7
  6
DASHED
 10
0.534791
 20
-0.244650
  0
SEQEND
  8
0
  0
POLYLINE
  8
LAYER_1
 62
     7
  6
DASHED
 66
     1
 40
0.003000
 41
0.003000
  0
VERTEX
  8
LAYER_1
 62
     7
  6
DASHED
 10
0.534791
 20
-0.244650
  0
VERTEX
  8
LAYER_1
 62
     7
  6
DASHED
 10
0.546597
 20
-0.266003
  0
VERTEX
  8
LAYER_1
 62
     7
  6
DASHED
 10
0.551182
 20
-0.280903
  0
VERTEX
  8
LAYER_1
 62
     7
  6
DASHED
 10
0.552083
 20
-0.290276
  0
SEQEND
  8
0
  0
POLYLINE
  8
LAYER_1
 62
     7
  6
DASHED
 66
     1
 40
0.003000
 41
0.003000
  0
VERTEX
  8
LAYER_1
 62
     7
  6
DASHED
 10
0.552083
 20
-0.290276
  0
VERTEX
  8
LAYER_1
 62
     7
  6
DASHED
 10
0.552238
 20
-0.295143
  0
VERTEX
  8
LAYER_1
 62
     7
  6
DASHED
 10
0.552295
 20
-0.296937
  0
VERTEX
  8
LAYER_1
 62
     7
  6
DASHED
 10
0.552303
 20
-0.297193
  0
SEQEND
  8
0
  0
POLYLINE
  8
LAYER_1
 62
     7
  6
CONTINUOUS
 66
     1
 40
0.011055
 41
0.011055
  0
VERTEX
  8
LAYER_1
 62
     7
  6
CONTINUOUS
 10
-2.257469
 20
-0.130693
  0
VERTEX
  8
LAYER_1
 62
     7
  6
CONTINUOUS
 10
-1.317193
 20
9.628846
  0
SEQEND
  8
0
  0
POLYLINE
  8
LAYER_1
 62
     7
  6
CONTINUOUS
 66
     1
 40
0.011055
 41
0.011055
  0
VERTEX
  8
LAYER_1
 62
     7
  6
CONTINUOUS
 10
-0.871941
 20
-0.130693
  0
VERTEX
  8
LAYER_1
 62
     7
  6
CONTINUOUS
 10
-0.703232
 20
9.966248
  0
SEQEND
  8
0
  0
POLYLINE
  8
LAYER_1
 62
     7
  6
CONTINUOUS
 66
     1
 40
0.011055
 41
0.011055
  0
VERTEX
  8
LAYER_1
 62
     7
  6
CONTINUOUS
 10
-1.781791
 20
8.837902
  0
VERTEX
  8
LAYER_1
 62
     7
  6
CONTINUOUS
 10
-3.147969
 20
-0.119638
  0
SEQEND
  8
0
  0
SOLID
  8
LAYER_1
  6
CONTINUOUS
 10
-2.061122
 20
-1.995358
 11
-0.813858
 21
-1.995358
 12
-2.036232
 22
-2.182028
 13
-0.806957
 23
-2.182028
  0
POLYLINE
  8
LAYER_1
  6
CONTINUOUS
 66
     1
 40
0.003000
 41
0.003000
 70
     1
  0
VERTEX
  8
LAYER_1
  6
CONTINUOUS
 10
-2.061122
 20
-1.995358
  0
VERTEX
  8
LAYER_1
  6
CONTINUOUS
 10
-0.813858
 20
-1.995358
  0
VERTEX
  8
LAYER_1
  6
CONTINUOUS
 10
-0.806957
 20
-2.182028
  0
VERTEX
  8
LAYER_1
  6
CONTINUOUS
 10
-2.036232
 20
-2.182028
  0
SEQEND
  8
0
  0
POLYLINE
  8
LAYER_1
 62
     7
  6
CONTINUOUS
 66
     1
 40
0.006268
 41
0.006268
 70
     1
  0
VERTEX
  8
LAYER_1
 62
     7
  6
CONTINUOUS
 10
-2.061122
 20
-1.995358
  0
VERTEX
  8
LAYER_1
 62
     7
  6
CONTINUOUS
 10
-0.813858
 20
-1.995358
  0
VERTEX
  8
LAYER_1
 62
     7
  6
CONTINUOUS
 10
-0.806957
 20
-2.182028
  0
VERTEX
  8
LAYER_1
 62
     7
  6
CONTINUOUS
 10
-2.036232
 20
-2.182028
  0
SEQEND
  8
0
  0
SOLID
  8
LAYER_1
  6
CONTINUOUS
 10
-0.107264
 20
-0.300094
 11
2.351276
 21
1.689705
 12
0.288193
 22
-0.301469
 13
2.811748
 23
1.745012
  0
POLYLINE
  8
LAYER_1
  6
CONTINUOUS
 66
     1
 40
0.003000
 41
0.003000
 70
     1
  0
VERTEX
  8
LAYER_1
  6
CONTINUOUS
 10
-0.107264
 20
-0.300094
  0
VERTEX
  8
LAYER_1
  6
CONTINUOUS
 10
2.351276
 20
1.689705
  0
VERTEX
  8
LAYER_1
  6
CONTINUOUS
 10
2.811748
 20
1.745012
  0
VERTEX
  8
LAYER_1
  6
CONTINUOUS
 10
0.288193
 20
-0.301469
  0
SEQEND
  8
0
  0
POLYLINE
  8
LAYER_1
 62
     7
  6
CONTINUOUS
 66
     1
 40
0.006268
 41
0.006268
 70
     1
  0
VERTEX
  8
LAYER_1
 62
     7
  6
CONTINUOUS
 10
-0.107264
 20
-0.300094
  0
VERTEX
  8
LAYER_1
 62
     7
  6
CONTINUOUS
 10
2.351276
 20
1.689705
  0
VERTEX
  8
LAYER_1
 62
     7
  6
CONTINUOUS
 10
2.811748
 20
1.745012
  0
VERTEX
  8
LAYER_1
 62
     7
  6
CONTINUOUS
 10
0.288193
 20
-0.301469
  0
SEQEND
  8
0
  0
SOLID
  8
LAYER_1
  6
CONTINUOUS
 10
-0.169500
 20
3.196913
 11
2.811748
 21
1.743638
 12
-0.165346
 22
2.916220
 13
2.351276
 23
1.689705
  0
POLYLINE
  8
LAYER_1
  6
CONTINUOUS
 66
     1
 40
0.003000
 41
0.003000
 70
     1
  0
VERTEX
  8
LAYER_1
  6
CONTINUOUS
 10
-0.169500
 20
3.196913
  0
VERTEX
  8
LAYER_1
  6
CONTINUOUS
 10
2.811748
 20
1.743638
  0
VERTEX
  8
LAYER_1
  6
CONTINUOUS
 10
2.351276
 20
1.689705
  0
VERTEX
  8
LAYER_1
  6
CONTINUOUS
 10
-0.165346
 20
2.916220
  0
SEQEND
  8
0
  0
POLYLINE
  8
LAYER_1
 62
     7
  6
CONTINUOUS
 66
     1
 40
0.006268
 41
0.006268
 70
     1
  0
VERTEX
  8
LAYER_1
 62
     7
  6
CONTINUOUS
 10
-0.169500
 20
3.196913
  0
VERTEX
  8
LAYER_1
 62
     7
  6
CONTINUOUS
 10
2.811748
 20
1.743638
  0
VERTEX
  8
LAYER_1
 62
     7
  6
CONTINUOUS
 10
2.351276
 20
1.689705
  0
VERTEX
  8
LAYER_1
 62
     7
  6
CONTINUOUS
 10
-0.165346
 20
2.916220
  0
SEQEND
  8
0
  0
SOLID
  8
LAYER_1
  6
CONTINUOUS
 10
-0.175028
 20
3.444429
 11
1.845193
 21
5.022165
 12
-0.169500
 22
3.210748
 13
2.195028
 23
5.058122
  0
POLYLINE
  8
LAYER_1
  6
CONTINUOUS
 66
     1
 40
0.003000
 41
0.003000
 70
     1
  0
VERTEX
  8
LAYER_1
  6
CONTINUOUS
 10
-0.175028
 20
3.444429
  0
VERTEX
  8
LAYER_1
  6
CONTINUOUS
 10
1.845193
 20
5.022165
  0
VERTEX
  8
LAYER_1
  6
CONTINUOUS
 10
2.195028
 20
5.058122
  0
VERTEX
  8
LAYER_1
  6
CONTINUOUS
 10
-0.169500
 20
3.210748
  0
SEQEND
  8
0
  0
POLYLINE
  8
LAYER_1
 62
     7
  6
CONTINUOUS
 66
     1
 40
0.006268
 41
0.006268
 70
     1
  0
VERTEX
  8
LAYER_1
 62
     7
  6
CONTINUOUS
 10
-0.175028
 20
3.444429
  0
VERTEX
  8
LAYER_1
 62
     7
  6
CONTINUOUS
 10
1.845193
 20
5.022165
  0
VERTEX
  8
LAYER_1
 62
     7
  6
CONTINUOUS
 10
2.195028
 20
5.058122
  0
VERTEX
  8
LAYER_1
 62
     7
  6
CONTINUOUS
 10
-0.169500
 20
3.210748
  0
SEQEND
  8
0
  0
SOLID
  8
LAYER_1
  6
CONTINUOUS
 10
-0.223413
 20
6.244512
 11
2.195028
 21
5.059469
 12
-0.222039
 22
6.030177
 13
1.845193
 23
5.022138
  0
POLYLINE
  8
LAYER_1
  6
CONTINUOUS
 66
     1
 40
0.003000
 41
0.003000
 70
     1
  0
VERTEX
  8
LAYER_1
  6
CONTINUOUS
 10
-0.223413
 20
6.244512
  0
VERTEX
  8
LAYER_1
  6
CONTINUOUS
 10
2.195028
 20
5.059469
  0
VERTEX
  8
LAYER_1
  6
CONTINUOUS
 10
1.845193
 20
5.022138
  0
VERTEX
  8
LAYER_1
  6
CONTINUOUS
 10
-0.222039
 20
6.030177
  0
SEQEND
  8
0
  0
POLYLINE
  8
LAYER_1
 62
     7
  6
CONTINUOUS
 66
     1
 40
0.006268
 41
0.006268
 70
     1
  0
VERTEX
  8
LAYER_1
 62
     7
  6
CONTINUOUS
 10
-0.223413
 20
6.244512
  0
VERTEX
  8
LAYER_1
 62
     7
  6
CONTINUOUS
 10
2.195028
 20
5.059469
  0
VERTEX
  8
LAYER_1
 62
     7
  6
CONTINUOUS
 10
1.845193
 20
5.022138
  0
VERTEX
  8
LAYER_1
 62
     7
  6
CONTINUOUS
 10
-0.222039
 20
6.030177
  0
SEQEND
  8
0
  0
POLYLINE
  8
LAYER_1
 62
     7
  6
CONTINUOUS
 66
     1
 40
0.003000
 41
0.003000
  0
VERTEX
  8
LAYER_1
 62
     7
  6
CONTINUOUS
 10
1.463555
 20
5.047193
  0
VERTEX
  8
LAYER_1
 62
     7
  6
CONTINUOUS
 10
1.464033
 20
5.047125
  0
VERTEX
  8
LAYER_1
 62
     7
  6
CONTINUOUS
 10
1.467378
 20
5.046646
  0
VERTEX
  8
LAYER_1
 62
     7
  6
CONTINUOUS
 10
1.476457
 20
5.045346
  0
SEQEND
  8
0
  0
POLYLINE
  8
LAYER_1
 62
     7
  6
CONTINUOUS
 66
     1
 40
0.003000
 41
0.003000
  0
VERTEX
  8
LAYER_1
 62
     7
  6
CONTINUOUS
 10
1.476457
 20
5.045346
  0
VERTEX
  8
LAYER_1
 62
     7
  6
CONTINUOUS
 10
1.492500
 20
5.042681
  0
VERTEX
  8
LAYER_1
 62
     7
  6
CONTINUOUS
 10
1.510186
 20
5.037561
  0
VERTEX
  8
LAYER_1
 62
     7
  6
CONTINUOUS
 10
1.522555
 20
5.028748
  0
SEQEND
  8
0
  0
POLYLINE
  8
LAYER_1
 62
     7
  6
CONTINUOUS
 66
     1
 40
0.003000
 41
0.003000
  0
VERTEX
  8
LAYER_1
 62
     7
  6
CONTINUOUS
 10
1.522555
 20
5.028748
  0
VERTEX
  8
LAYER_1
 62
     7
  6
CONTINUOUS
 10
1.525755
 20
5.014684
  0
VERTEX
  8
LAYER_1
 62
     7
  6
CONTINUOUS
 10
1.528555
 20
4.992423
  0
VERTEX
  8
LAYER_1
 62
     7
  6
CONTINUOUS
 10
1.542831
 20
4.958693
  0
SEQEND
  8
0
  0
POLYLINE
  8
LAYER_1
 62
     7
  6
CONTINUOUS
 66
     1
 40
0.003000
 41
0.003000
  0
VERTEX
  8
LAYER_1
 62
     7
  6
CONTINUOUS
 10
1.542831
 20
4.958693
  0
VERTEX
  8
LAYER_1
 62
     7
  6
CONTINUOUS
 10
1.576081
 20
4.912731
  0
VERTEX
  8
LAYER_1
 62
     7
  6
CONTINUOUS
 10
1.618348
 20
4.863906
  0
VERTEX
  8
LAYER_1
 62
     7
  6
CONTINUOUS
 10
1.655291
 20
4.824094
  0
SEQEND
  8
0
  0
POLYLINE
  8
LAYER_1
 62
     7
  6
CONTINUOUS
 66
     1
 40
0.003000
 41
0.003000
  0
VERTEX
  8
LAYER_1
 62
     7
  6
CONTINUOUS
 10
1.655291
 20
4.824094
  0
VERTEX
  8
LAYER_1
 62
     7
  6
CONTINUOUS
 10
1.676051
 20
4.802047
  0
VERTEX
  8
LAYER_1
 62
     7
  6
CONTINUOUS
 10
1.683699
 20
4.793924
  0
VERTEX
  8
LAYER_1
 62
     7
  6
CONTINUOUS
 10
1.684791
 20
4.792764
  0
SEQEND
  8
0
  0
POLYLINE
  8
LAYER_1
 62
     7
  6
CONTINUOUS
 66
     1
 40
0.003000
 41
0.003000
  0
VERTEX
  8
LAYER_1
 62
     7
  6
CONTINUOUS
 10
1.462165
 20
5.040276
  0
VERTEX
  8
LAYER_1
 62
     7
  6
CONTINUOUS
 10
1.462643
 20
5.040310
  0
VERTEX
  8
LAYER_1
 62
     7
  6
CONTINUOUS
 10
1.465988
 20
5.040547
  0
VERTEX
  8
LAYER_1
 62
     7
  6
CONTINUOUS
 10
1.475067
 20
5.041193
  0
SEQEND
  8
0
  0
POLYLINE
  8
LAYER_1
 62
     7
  6
CONTINUOUS
 66
     1
 40
0.003000
 41
0.003000
  0
VERTEX
  8
LAYER_1
 62
     7
  6
CONTINUOUS
 10
1.475067
 20
5.041193
  0
VERTEX
  8
LAYER_1
 62
     7
  6
CONTINUOUS
 10
1.490874
 20
5.042886
  0
VERTEX
  8
LAYER_1
 62
     7
  6
CONTINUOUS
 10
1.506889
 20
5.047953
  0
VERTEX
  8
LAYER_1
 62
     7
  6
CONTINUOUS
 10
1.514705
 20
5.059165
  0
SEQEND
  8
0
  0
POLYLINE
  8
LAYER_1
 62
     7
  6
CONTINUOUS
 66
     1
 40
0.003000
 41
0.003000
  0
VERTEX
  8
LAYER_1
 62
     7
  6
CONTINUOUS
 10
1.514705
 20
5.059165
  0
VERTEX
  8
LAYER_1
 62
     7
  6
CONTINUOUS
 10
1.509607
 20
5.078444
  0
VERTEX
  8
LAYER_1
 62
     7
  6
CONTINUOUS
 10
1.501533
 20
5.104274
  0
VERTEX
  8
LAYER_1
 62
     7
  6
CONTINUOUS
 10
1.504110
 20
5.134303
  0
SEQEND
  8
0
  0
POLYLINE
  8
LAYER_1
 62
     7
  6
CONTINUOUS
 66
     1
 40
0.003000
 41
0.003000
  0
VERTEX
  8
LAYER_1
 62
     7
  6
CONTINUOUS
 10
1.504110
 20
5.134303
  0
VERTEX
  8
LAYER_1
 62
     7
  6
CONTINUOUS
 10
1.526440
 20
5.165834
  0
VERTEX
  8
LAYER_1
 62
     7
  6
CONTINUOUS
 10
1.559525
 20
5.194800
  0
VERTEX
  8
LAYER_1
 62
     7
  6
CONTINUOUS
 10
1.589846
 20
5.216803
  0
SEQEND
  8
0
  0
POLYLINE
  8
LAYER_1
 62
     7
  6
CONTINUOUS
 66
     1
 40
0.003000
 41
0.003000
  0
VERTEX
  8
LAYER_1
 62
     7
  6
CONTINUOUS
 10
1.589846
 20
5.216803
  0
VERTEX
  8
LAYER_1
 62
     7
  6
CONTINUOUS
 10
1.607037
 20
5.228805
  0
VERTEX
  8
LAYER_1
 62
     7
  6
CONTINUOUS
 10
1.613371
 20
5.233227
  0
VERTEX
  8
LAYER_1
 62
     7
  6
CONTINUOUS
 10
1.614276
 20
5.233858
  0
SEQEND
  8
0
  0
POLYLINE
  8
LAYER_1
 62
     7
  6
CONTINUOUS
 66
     1
 40
0.003000
 41
0.003000
  0
VERTEX
  8
LAYER_1
 62
     7
  6
CONTINUOUS
 10
1.137764
 20
0.103803
  0
VERTEX
  8
LAYER_1
 62
     7
  6
CONTINUOUS
 10
1.136125
 20
0.103735
  0
VERTEX
  8
LAYER_1
 62
     7
  6
CONTINUOUS
 10
1.124657
 20
0.103256
  0
VERTEX
  8
LAYER_1
 62
     7
  6
CONTINUOUS
 10
1.093528
 20
0.101957
  0
SEQEND
  8
0
  0
POLYLINE
  8
LAYER_1
 62
     7
  6
CONTINUOUS
 66
     1
 40
0.003000
 41
0.003000
  0
VERTEX
  8
LAYER_1
 62
     7
  6
CONTINUOUS
 10
1.093528
 20
0.101957
  0
VERTEX
  8
LAYER_1
 62
     7
  6
CONTINUOUS
 10
1.038487
 20
0.098445
  0
VERTEX
  8
LAYER_1
 62
     7
  6
CONTINUOUS
 10
0.977712
 20
0.087348
  0
VERTEX
  8
LAYER_1
 62
     7
  6
CONTINUOUS
 10
0.934969
 20
0.062319
  0
SEQEND
  8
0
  0
POLYLINE
  8
LAYER_1
 62
     7
  6
CONTINUOUS
 66
     1
 40
0.003000
 41
0.003000
  0
VERTEX
  8
LAYER_1
 62
     7
  6
CONTINUOUS
 10
0.934969
 20
0.062319
  0
VERTEX
  8
LAYER_1
 62
     7
  6
CONTINUOUS
 10
0.924824
 20
0.016525
  0
VERTEX
  8
LAYER_1
 62
     7
  6
CONTINUOUS
 10
0.925130
 20
-0.058875
  0
VERTEX
  8
LAYER_1
 62
     7
  6
CONTINUOUS
 10
0.904539
 20
-0.173205
  0
SEQEND
  8
0
  0
POLYLINE
  8
LAYER_1
 62
     7
  6
CONTINUOUS
 66
     1
 40
0.003000
 41
0.003000
  0
VERTEX
  8
LAYER_1
 62
     7
  6
CONTINUOUS
 10
0.904539
 20
-0.173205
  0
VERTEX
  8
LAYER_1
 62
     7
  6
CONTINUOUS
 10
0.871353
 20
-0.262607
  0
VERTEX
  8
LAYER_1
 62
     7
  6
CONTINUOUS
 10
0.825999
 20
-0.360883
  0
VERTEX
  8
LAYER_1
 62
     7
  6
CONTINUOUS
 10
0.775115
 20
-0.459536
  0
VERTEX
  8
LAYER_1
 62
     7
  6
CONTINUOUS
 10
0.725337
 20
-0.550068
  0
VERTEX
  8
LAYER_1
 62
     7
  6
CONTINUOUS
 10
0.683303
 20
-0.623984
  0
SEQEND
  8
0
  0
POLYLINE
  8
LAYER_1
 62
     7
  6
CONTINUOUS
 66
     1
 40
0.003000
 41
0.003000
  0
VERTEX
  8
LAYER_1
 62
     7
  6
CONTINUOUS
 10
0.683303
 20
-0.623984
  0
VERTEX
  8
LAYER_1
 62
     7
  6
CONTINUOUS
 10
0.641139
 20
-0.697610
  0
VERTEX
  8
LAYER_1
 62
     7
  6
CONTINUOUS
 10
0.625605
 20
-0.724735
  0
VERTEX
  8
LAYER_1
 62
     7
  6
CONTINUOUS
 10
0.623386
 20
-0.728610
  0
SEQEND
  8
0
  0
POLYLINE
  8
LAYER_1
 62
     7
  6
CONTINUOUS
 66
     1
 40
0.003000
 41
0.003000
  0
VERTEX
  8
LAYER_1
 62
     7
  6
CONTINUOUS
 10
1.137764
 20
0.103803
  0
VERTEX
  8
LAYER_1
 62
     7
  6
CONTINUOUS
 10
1.136740
 20
0.103803
  0
VERTEX
  8
LAYER_1
 62
     7
  6
CONTINUOUS
 10
1.129570
 20
0.103803
  0
VERTEX
  8
LAYER_1
 62
     7
  6
CONTINUOUS
 10
1.110110
 20
0.103803
  0
SEQEND
  8
0
  0
POLYLINE
  8
LAYER_1
 62
     7
  6
CONTINUOUS
 66
     1
 40
0.003000
 41
0.003000
  0
VERTEX
  8
LAYER_1
 62
     7
  6
CONTINUOUS
 10
1.110110
 20
0.103803
  0
VERTEX
  8
LAYER_1
 62
     7
  6
CONTINUOUS
 10
1.075680
 20
0.104264
  0
VERTEX
  8
LAYER_1
 62
     7
  6
CONTINUOUS
 10
1.037459
 20
0.107491
  0
VERTEX
  8
LAYER_1
 62
     7
  6
CONTINUOUS
 10
1.010094
 20
0.116248
  0
SEQEND
  8
0
  0
POLYLINE
  8
LAYER_1
 62
     7
  6
CONTINUOUS
 66
     1
 40
0.003000
 41
0.003000
  0
VERTEX
  8
LAYER_1
 62
     7
  6
CONTINUOUS
 10
1.010094
 20
0.116248
  0
VERTEX
  8
LAYER_1
 62
     7
  6
CONTINUOUS
 10
1.003181
 20
0.132773
  0
VERTEX
  8
LAYER_1
 62
     7
  6
CONTINUOUS
 10
1.006101
 20
0.157187
  0
VERTEX
  8
LAYER_1
 62
     7
  6
CONTINUOUS
 10
1.003177
 20
0.189083
  0
SEQEND
  8
0
  0
POLYLINE
  8
LAYER_1
 62
     7
  6
CONTINUOUS
 66
     1
 40
0.003000
 41
0.003000
  0
VERTEX
  8
LAYER_1
 62
     7
  6
CONTINUOUS
 10
1.003177
 20
0.189083
  0
VERTEX
  8
LAYER_1
 62
     7
  6
CONTINUOUS
 10
0.983361
 20
0.226858
  0
VERTEX
  8
LAYER_1
 62
     7
  6
CONTINUOUS
 10
0.954014
 20
0.264226
  0
VERTEX
  8
LAYER_1
 62
     7
  6
CONTINUOUS
 10
0.927122
 20
0.293705
  0
SEQEND
  8
0
  0
POLYLINE
  8
LAYER_1
 62
     7
  6
CONTINUOUS
 66
     1
 40
0.003000
 41
0.003000
  0
VERTEX
  8
LAYER_1
 62
     7
  6
CONTINUOUS
 10
0.927122
 20
0.293705
  0
VERTEX
  8
LAYER_1
 62
     7
  6
CONTINUOUS
 10
0.911884
 20
0.309920
  0
VERTEX
  8
LAYER_1
 62
     7
  6
CONTINUOUS
 10
0.906270
 20
0.315895
  0
VERTEX
  8
LAYER_1
 62
     7
  6
CONTINUOUS
 10
0.905469
 20
0.316748
  0
SEQEND
  8
0
  0
POLYLINE
  8
LAYER_1
 62
     7
  6
CONTINUOUS
 66
     1
 40
0.033181
 41
0.033181
  0
VERTEX
  8
LAYER_1
 62
     7
  6
CONTINUOUS
 10
-0.401803
 20
-0.302720
  0
VERTEX
  8
LAYER_1
 62
     7
  6
CONTINUOUS
 10
0.499764
 20
-0.299957
  0
SEQEND
  8
0
  0
POLYLINE
  8
LAYER_1
  6
CONTINUOUS
 66
     1
 40
0.003000
 41
0.003000
 70
     1
  0
VERTEX
  8
LAYER_1
  6
CONTINUOUS
 10
-3.266886
 20
1.005929
  0
VERTEX
  8
LAYER_1
  6
CONTINUOUS
 10
-0.578791
 20
1.426291
  0
VERTEX
  8
LAYER_1
  6
CONTINUOUS
 10
1.224331
 20
1.050177
  0
VERTEX
  8
LAYER_1
  6
CONTINUOUS
 10
4.000913
 20
0.939555
  0
VERTEX
  8
LAYER_1
  6
CONTINUOUS
 10
4.000913
 20
0.441764
  0
VERTEX
  8
LAYER_1
  6
CONTINUOUS
 10
-3.255819
 20
0.441764
  0
SEQEND
  8
0
  0
SOLID
  8
LAYER_1
 62
   253
  6
CONTINUOUS
 10
3.866791
 20
0.663177
 11
2.954165
 21
0.630622
 12
3.866791
 22
0.728276
 13
2.954165
 23
0.757874
  0
POLYLINE
  8
LAYER_1
 62
   253
  6
CONTINUOUS
 66
     1
 40
0.003000
 41
0.003000
 70
     1
  0
VERTEX
  8
LAYER_1
 62
   253
  6
CONTINUOUS
 10
3.866791
 20
0.663177
  0
VERTEX
  8
LAYER_1
 62
   253
  6
CONTINUOUS
 10
2.954165
 20
0.630622
  0
VERTEX
  8
LAYER_1
 62
   253
  6
CONTINUOUS
 10
2.954165
 20
0.757874
  0
VERTEX
  8
LAYER_1
 62
   253
  6
CONTINUOUS
 10
3.866791
 20
0.728276
  0
SEQEND
  8
0
  0
POLYLINE
  8
LAYER_1
 62
     7
  6
CONTINUOUS
 66
     1
 40
0.003000
 41
0.003000
 70
     1
  0
VERTEX
  8
LAYER_1
 62
     7
  6
CONTINUOUS
 10
3.866791
 20
0.663177
  0
VERTEX
  8
LAYER_1
 62
     7
  6
CONTINUOUS
 10
2.954165
 20
0.630622
  0
VERTEX
  8
LAYER_1
 62
     7
  6
CONTINUOUS
 10
2.954165
 20
0.757874
  0
VERTEX
  8
LAYER_1
 62
     7
  6
CONTINUOUS
 10
3.866791
 20
0.728276
  0
SEQEND
  8
0
  0
POLYLINE
  8
LAYER_1
 62
   253
  6
CONTINUOUS
 66
     1
 40
0.003000
 41
0.003000
 70
     1
  0
VERTEX
  8
LAYER_1
 62
   253
  6
CONTINUOUS
 10
-2.258846
 20
0.520012
  0
VERTEX
  8
LAYER_1
 62
   253
  6
CONTINUOUS
 10
-2.471791
 20
0.529693
  0
VERTEX
  8
LAYER_1
 62
   253
  6
CONTINUOUS
 10
-2.600386
 20
0.538000
  0
VERTEX
  8
LAYER_1
 62
   253
  6
CONTINUOUS
 10
-2.712402
 20
0.549055
  0
VERTEX
  8
LAYER_1
 62
   253
  6
CONTINUOUS
 10
-2.831319
 20
0.561500
  0
VERTEX
  8
LAYER_1
 62
   253
  6
CONTINUOUS
 10
-2.928110
 20
0.580858
  0
VERTEX
  8
LAYER_1
 62
   253
  6
CONTINUOUS
 10
-3.005539
 20
0.598831
  0
VERTEX
  8
LAYER_1
 62
   253
  6
CONTINUOUS
 10
-3.059469
 20
0.615429
  0
VERTEX
  8
LAYER_1
 62
   253
  6
CONTINUOUS
 10
-3.100957
 20
0.637555
  0
VERTEX
  8
LAYER_1
 62
   253
  6
CONTINUOUS
 10
-3.124457
 20
0.655528
  0
VERTEX
  8
LAYER_1
 62
   253
  6
CONTINUOUS
 10
-3.139665
 20
0.679039
  0
VERTEX
  8
LAYER_1
 62
   253
  6
CONTINUOUS
 10
-3.143819
 20
0.694248
  0
VERTEX
  8
LAYER_1
 62
   253
  6
CONTINUOUS
 10
-3.142429
 20
0.705303
  0
VERTEX
  8
LAYER_1
 62
   253
  6
CONTINUOUS
 10
-3.136902
 20
0.721902
  0
VERTEX
  8
LAYER_1
 62
   253
  6
CONTINUOUS
 10
-3.121693
 20
0.741264
  0
VERTEX
  8
LAYER_1
 62
   253
  6
CONTINUOUS
 10
-3.100957
 20
0.757858
  0
VERTEX
  8
LAYER_1
 62
   253
  6
CONTINUOUS
 10
-3.060846
 20
0.778594
  0
VERTEX
  8
LAYER_1
 62
   253
  6
CONTINUOUS
 10
-3.002776
 20
0.799331
  0
VERTEX
  8
LAYER_1
 62
   253
  6
CONTINUOUS
 10
-2.928110
 20
0.814555
  0
VERTEX
  8
LAYER_1
 62
   253
  6
CONTINUOUS
 10
-2.835457
 20
0.831138
  0
VERTEX
  8
LAYER_1
 62
   253
  6
CONTINUOUS
 10
-2.705484
 20
0.847732
  0
VERTEX
  8
LAYER_1
 62
   253
  6
CONTINUOUS
 10
-2.604539
 20
0.856028
  0
VERTEX
  8
LAYER_1
 62
   253
  6
CONTINUOUS
 10
-2.471791
 20
0.865705
  0
VERTEX
  8
LAYER_1
 62
   253
  6
CONTINUOUS
 10
-2.258846
 20
0.875386
  0
SEQEND
  8
0
  0
POLYLINE
  8
LAYER_1
 62
     7
  6
CONTINUOUS
 66
     1
 40
0.006268
 41
0.006268
 70
     1
  0
VERTEX
  8
LAYER_1
 62
     7
  6
CONTINUOUS
 10
-2.258846
 20
0.520012
  0
VERTEX
  8
LAYER_1
 62
     7
  6
CONTINUOUS
 10
-2.471791
 20
0.529693
  0
VERTEX
  8
LAYER_1
 62
     7
  6
CONTINUOUS
 10
-2.600386
 20
0.538000
  0
VERTEX
  8
LAYER_1
 62
     7
  6
CONTINUOUS
 10
-2.712402
 20
0.549055
  0
VERTEX
  8
LAYER_1
 62
     7
  6
CONTINUOUS
 10
-2.831319
 20
0.561500
  0
VERTEX
  8
LAYER_1
 62
     7
  6
CONTINUOUS
 10
-2.928110
 20
0.580858
  0
VERTEX
  8
LAYER_1
 62
     7
  6
CONTINUOUS
 10
-3.005539
 20
0.598831
  0
VERTEX
  8
LAYER_1
 62
     7
  6
CONTINUOUS
 10
-3.059469
 20
0.615429
  0
VERTEX
  8
LAYER_1
 62
     7
  6
CONTINUOUS
 10
-3.100957
 20
0.637555
  0
VERTEX
  8
LAYER_1
 62
     7
  6
CONTINUOUS
 10
-3.124457
 20
0.655528
  0
VERTEX
  8
LAYER_1
 62
     7
  6
CONTINUOUS
 10
-3.139665
 20
0.679039
  0
VERTEX
  8
LAYER_1
 62
     7
  6
CONTINUOUS
 10
-3.143819
 20
0.694248
  0
VERTEX
  8
LAYER_1
 62
     7
  6
CONTINUOUS
 10
-3.142429
 20
0.705303
  0
VERTEX
  8
LAYER_1
 62
     7
  6
CONTINUOUS
 10
-3.136902
 20
0.721902
  0
VERTEX
  8
LAYER_1
 62
     7
  6
CONTINUOUS
 10
-3.121693
 20
0.741264
  0
VERTEX
  8
LAYER_1
 62
     7
  6
CONTINUOUS
 10
-3.100957
 20
0.757858
  0
VERTEX
  8
LAYER_1
 62
     7
  6
CONTINUOUS
 10
-3.060846
 20
0.778594
  0
VERTEX
  8
LAYER_1
 62
     7
  6
CONTINUOUS
 10
-3.002776
 20
0.799331
  0
VERTEX
  8
LAYER_1
 62
     7
  6
CONTINUOUS
 10
-2.928110
 20
0.814555
  0
VERTEX
  8
LAYER_1
 62
     7
  6
CONTINUOUS
 10
-2.835457
 20
0.831138
  0
VERTEX
  8
LAYER_1
 62
     7
  6
CONTINUOUS
 10
-2.705484
 20
0.847732
  0
VERTEX
  8
LAYER_1
 62
     7
  6
CONTINUOUS
 10
-2.604539
 20
0.856028
  0
VERTEX
  8
LAYER_1
 62
     7
  6
CONTINUOUS
 10
-2.471791
 20
0.865705
  0
VERTEX
  8
LAYER_1
 62
     7
  6
CONTINUOUS
 10
-2.258846
 20
0.875386
  0
SEQEND
  8
0
  0
POLYLINE
  8
LAYER_1
 62
   253
  6
CONTINUOUS
 66
     1
 40
0.003000
 41
0.003000
 70
     1
  0
VERTEX
  8
LAYER_1
 62
   253
  6
CONTINUOUS
 10
-0.852583
 20
0.518638
  0
VERTEX
  8
LAYER_1
 62
   253
  6
CONTINUOUS
 10
-0.578791
 20
0.524858
  0
VERTEX
  8
LAYER_1
 62
   253
  6
CONTINUOUS
 10
-0.512413
 20
0.667984
  0
VERTEX
  8
LAYER_1
 62
   253
  6
CONTINUOUS
 10
-0.512413
 20
0.726055
  0
VERTEX
  8
LAYER_1
 62
   253
  6
CONTINUOUS
 10
-0.576720
 20
0.867791
  0
VERTEX
  8
LAYER_1
 62
   253
  6
CONTINUOUS
 10
-0.852583
 20
0.873319
  0
SEQEND
  8
0
  0
POLYLINE
  8
LAYER_1
 62
     7
  6
CONTINUOUS
 66
     1
 40
0.003000
 41
0.003000
 70
     1
  0
VERTEX
  8
LAYER_1
 62
     7
  6
CONTINUOUS
 10
-0.852583
 20
0.518638
  0
VERTEX
  8
LAYER_1
 62
     7
  6
CONTINUOUS
 10
-0.578791
 20
0.524858
  0
VERTEX
  8
LAYER_1
 62
     7
  6
CONTINUOUS
 10
-0.512413
 20
0.667984
  0
VERTEX
  8
LAYER_1
 62
     7
  6
CONTINUOUS
 10
-0.512413
 20
0.726055
  0
VERTEX
  8
LAYER_1
 62
     7
  6
CONTINUOUS
 10
-0.576720
 20
0.867791
  0
VERTEX
  8
LAYER_1
 62
     7
  6
CONTINUOUS
 10
-0.852583
 20
0.873319
  0
SEQEND
  8
0
  0
POLYLINE
  8
LAYER_1
 62
   253
  6
CONTINUOUS
 66
     1
 40
0.003000
 41
0.003000
 70
     1
  0
VERTEX
  8
LAYER_1
 62
   253
  6
CONTINUOUS
 10
-0.128705
 20
0.535929
  0
VERTEX
  8
LAYER_1
 62
   253
  6
CONTINUOUS
 10
-0.406638
 20
0.529012
  0
VERTEX
  8
LAYER_1
 62
   253
  6
CONTINUOUS
 10
-0.482000
 20
0.666594
  0
VERTEX
  8
LAYER_1
 62
   253
  6
CONTINUOUS
 10
-0.480610
 20
0.728819
  0
VERTEX
  8
LAYER_1
 62
   253
  6
CONTINUOUS
 10
-0.408705
 20
0.863638
  0
VERTEX
  8
LAYER_1
 62
   253
  6
CONTINUOUS
 10
-0.128705
 20
0.856039
  0
SEQEND
  8
0
  0
POLYLINE
  8
LAYER_1
 62
     7
  6
CONTINUOUS
 66
     1
 40
0.003000
 41
0.003000
 70
     1
  0
VERTEX
  8
LAYER_1
 62
     7
  6
CONTINUOUS
 10
-0.128705
 20
0.535929
  0
VERTEX
  8
LAYER_1
 62
     7
  6
CONTINUOUS
 10
-0.406638
 20
0.529012
  0
VERTEX
  8
LAYER_1
 62
     7
  6
CONTINUOUS
 10
-0.482000
 20
0.666594
  0
VERTEX
  8
LAYER_1
 62
     7
  6
CONTINUOUS
 10
-0.480610
 20
0.728819
  0
VERTEX
  8
LAYER_1
 62
     7
  6
CONTINUOUS
 10
-0.408705
 20
0.863638
  0
VERTEX
  8
LAYER_1
 62
     7
  6
CONTINUOUS
 10
-0.128705
 20
0.856039
  0
SEQEND
  8
0
  0
POLYLINE
  8
LAYER_1
 62
     7
  6
CONTINUOUS
 66
     1
 40
0.011055
 41
0.011055
  0
VERTEX
  8
LAYER_1
 62
     7
  6
CONTINUOUS
 10
-0.702000
 20
0.697012
  0
VERTEX
  8
LAYER_1
 62
     7
  6
CONTINUOUS
 10
-0.297941
 20
0.697012
  0
SEQEND
  8
0
  0
POLYLINE
  8
LAYER_1
 62
     7
  6
CONTINUOUS
 66
     1
 40
0.003000
 41
0.003000
  0
VERTEX
  8
LAYER_1
 62
     7
  6
CONTINUOUS
 10
3.864028
 20
0.730193
  0
VERTEX
  8
LAYER_1
 62
     7
  6
CONTINUOUS
 10
3.860982
 20
0.730293
  0
VERTEX
  8
LAYER_1
 62
     7
  6
CONTINUOUS
 10
3.839667
 20
0.730995
  0
VERTEX
  8
LAYER_1
 62
     7
  6
CONTINUOUS
 10
3.781811
 20
0.732901
  0
VERTEX
  8
LAYER_1
 62
     7
  6
CONTINUOUS
 10
3.669143
 20
0.736612
  0
VERTEX
  8
LAYER_1
 62
     7
  6
CONTINUOUS
 10
3.483393
 20
0.742731
  0
VERTEX
  8
LAYER_1
 62
     7
  6
CONTINUOUS
 10
3.206291
 20
0.751858
  0
SEQEND
  8
0
  0
POLYLINE
  8
LAYER_1
 62
     7
  6
CONTINUOUS
 66
     1
 40
0.003000
 41
0.003000
  0
VERTEX
  8
LAYER_1
 62
     7
  6
CONTINUOUS
 10
3.206291
 20
0.751858
  0
VERTEX
  8
LAYER_1
 62
     7
  6
CONTINUOUS
 10
3.142738
 20
0.753952
  0
VERTEX
  8
LAYER_1
 62
     7
  6
CONTINUOUS
 10
3.075548
 20
0.756165
  0
VERTEX
  8
LAYER_1
 62
     7
  6
CONTINUOUS
 10
3.004938
 20
0.758490
  0
VERTEX
  8
LAYER_1
 62
     7
  6
CONTINUOUS
 10
2.931127
 20
0.760920
  0
VERTEX
  8
LAYER_1
 62
     7
  6
CONTINUOUS
 10
2.854330
 20
0.763448
  0
VERTEX
  8
LAYER_1
 62
     7
  6
CONTINUOUS
 10
2.774766
 20
0.766065
  0
VERTEX
  8
LAYER_1
 62
     7
  6
CONTINUOUS
 10
2.692652
 20
0.768765
  0
VERTEX
  8
LAYER_1
 62
     7
  6
CONTINUOUS
 10
2.608205
 20
0.771540
  0
VERTEX
  8
LAYER_1
 62
     7
  6
CONTINUOUS
 10
2.521642
 20
0.774383
  0
VERTEX
  8
LAYER_1
 62
     7
  6
CONTINUOUS
 10
2.433181
 20
0.777286
  0
VERTEX
  8
LAYER_1
 62
     7
  6
CONTINUOUS
 10
2.343039
 20
0.780242
  0
VERTEX
  8
LAYER_1
 62
     7
  6
CONTINUOUS
 10
2.251433
 20
0.783244
  0
VERTEX
  8
LAYER_1
 62
     7
  6
CONTINUOUS
 10
2.158581
 20
0.786285
  0
VERTEX
  8
LAYER_1
 62
     7
  6
CONTINUOUS
 10
2.064699
 20
0.789356
  0
VERTEX
  8
LAYER_1
 62
     7
  6
CONTINUOUS
 10
1.970005
 20
0.792451
  0
VERTEX
  8
LAYER_1
 62
     7
  6
CONTINUOUS
 10
1.874717
 20
0.795562
  0
VERTEX
  8
LAYER_1
 62
     7
  6
CONTINUOUS
 10
1.779051
 20
0.798681
  0
VERTEX
  8
LAYER_1
 62
     7
  6
CONTINUOUS
 10
1.683225
 20
0.801802
  0
VERTEX
  8
LAYER_1
 62
     7
  6
CONTINUOUS
 10
1.587456
 20
0.804917
  0
VERTEX
  8
LAYER_1
 62
     7
  6
CONTINUOUS
 10
1.491962
 20
0.808019
  0
VERTEX
  8
LAYER_1
 62
     7
  6
CONTINUOUS
 10
1.396959
 20
0.811100
  0
VERTEX
  8
LAYER_1
 62
     7
  6
CONTINUOUS
 10
1.302665
 20
0.814153
  0
VERTEX
  8
LAYER_1
 62
     7
  6
CONTINUOUS
 10
1.209298
 20
0.817170
  0
VERTEX
  8
LAYER_1
 62
     7
  6
CONTINUOUS
 10
1.117074
 20
0.820145
  0
VERTEX
  8
LAYER_1
 62
     7
  6
CONTINUOUS
 10
1.026212
 20
0.823069
  0
VERTEX
  8
LAYER_1
 62
     7
  6
CONTINUOUS
 10
0.936927
 20
0.825936
  0
VERTEX
  8
LAYER_1
 62
     7
  6
CONTINUOUS
 10
0.849438
 20
0.828737
  0
VERTEX
  8
LAYER_1
 62
     7
  6
CONTINUOUS
 10
0.763961
 20
0.831467
  0
VERTEX
  8
LAYER_1
 62
     7
  6
CONTINUOUS
 10
0.680714
 20
0.834116
  0
VERTEX
  8
LAYER_1
 62
     7
  6
CONTINUOUS
 10
0.599915
 20
0.836678
  0
VERTEX
  8
LAYER_1
 62
     7
  6
CONTINUOUS
 10
0.521780
 20
0.839146
  0
VERTEX
  8
LAYER_1
 62
     7
  6
CONTINUOUS
 10
0.446528
 20
0.841512
  0
SEQEND
  8
0
  0
POLYLINE
  8
LAYER_1
 62
     7
  6
CONTINUOUS
 66
     1
 40
0.003000
 41
0.003000
  0
VERTEX
  8
LAYER_1
 62
     7
  6
CONTINUOUS
 10
0.446528
 20
0.841512
  0
VERTEX
  8
LAYER_1
 62
     7
  6
CONTINUOUS
 10
0.285880
 20
0.846515
  0
VERTEX
  8
LAYER_1
 62
     7
  6
CONTINUOUS
 10
0.140268
 20
0.850980
  0
VERTEX
  8
LAYER_1
 62
     7
  6
CONTINUOUS
 10
0.008534
 20
0.854940
  0
VERTEX
  8
LAYER_1
 62
     7
  6
CONTINUOUS
 10
-0.110479
 20
0.858429
  0
VERTEX
  8
LAYER_1
 62
     7
  6
CONTINUOUS
 10
-0.217926
 20
0.861480
  0
VERTEX
  8
LAYER_1
 62
     7
  6
CONTINUOUS
 10
-0.314965
 20
0.864126
  0
VERTEX
  8
LAYER_1
 62
     7
  6
CONTINUOUS
 10
-0.402752
 20
0.866400
  0
VERTEX
  8
LAYER_1
 62
     7
  6
CONTINUOUS
 10
-0.482443
 20
0.868335
  0
VERTEX
  8
LAYER_1
 62
     7
  6
CONTINUOUS
 10
-0.555195
 20
0.869965
  0
VERTEX
  8
LAYER_1
 62
     7
  6
CONTINUOUS
 10
-0.622164
 20
0.871322
  0
VERTEX
  8
LAYER_1
 62
     7
  6
CONTINUOUS
 10
-0.684508
 20
0.872440
  0
VERTEX
  8
LAYER_1
 62
     7
  6
CONTINUOUS
 10
-0.743381
 20
0.873353
  0
VERTEX
  8
LAYER_1
 62
     7
  6
CONTINUOUS
 10
-0.799942
 20
0.874093
  0
VERTEX
  8
LAYER_1
 62
     7
  6
CONTINUOUS
 10
-0.855346
 20
0.874693
  0
SEQEND
  8
0
  0
POLYLINE
  8
LAYER_1
 62
     7
  6
CONTINUOUS
 66
     1
 40
0.003000
 41
0.003000
  0
VERTEX
  8
LAYER_1
 62
     7
  6
CONTINUOUS
 10
-0.855346
 20
0.874693
  0
VERTEX
  8
LAYER_1
 62
     7
  6
CONTINUOUS
 10
-0.965701
 20
0.875585
  0
VERTEX
  8
LAYER_1
 62
     7
  6
CONTINUOUS
 10
-1.075643
 20
0.876142
  0
VERTEX
  8
LAYER_1
 62
     7
  6
CONTINUOUS
 10
-1.184764
 20
0.876453
  0
VERTEX
  8
LAYER_1
 62
     7
  6
CONTINUOUS
 10
-1.292651
 20
0.876606
  0
VERTEX
  8
LAYER_1
 62
     7
  6
CONTINUOUS
 10
-1.398894
 20
0.876689
  0
VERTEX
  8
LAYER_1
 62
     7
  6
CONTINUOUS
 10
-1.503082
 20
0.876791
  0
VERTEX
  8
LAYER_1
 62
     7
  6
CONTINUOUS
 10
-1.604803
 20
0.877000
  0
SEQEND
  8
0
  0
POLYLINE
  8
LAYER_1
 62
     7
  6
CONTINUOUS
 66
     1
 40
0.003000
 41
0.003000
  0
VERTEX
  8
LAYER_1
 62
     7
  6
CONTINUOUS
 10
-1.604803
 20
0.877000
  0
VERTEX
  8
LAYER_1
 62
     7
  6
CONTINUOUS
 10
-1.719783
 20
0.877455
  0
VERTEX
  8
LAYER_1
 62
     7
  6
CONTINUOUS
 10
-1.830053
 20
0.878026
  0
VERTEX
  8
LAYER_1
 62
     7
  6
CONTINUOUS
 10
-1.934820
 20
0.878558
  0
VERTEX
  8
LAYER_1
 62
     7
  6
CONTINUOUS
 10
-2.033288
 20
0.878898
  0
VERTEX
  8
LAYER_1
 62
     7
  6
CONTINUOUS
 10
-2.124663
 20
0.878892
  0
VERTEX
  8
LAYER_1
 62
     7
  6
CONTINUOUS
 10
-2.208150
 20
0.878386
  0
SEQEND
  8
0
  0
POLYLINE
  8
LAYER_1
 62
     7
  6
CONTINUOUS
 66
     1
 40
0.003000
 41
0.003000
  0
VERTEX
  8
LAYER_1
 62
     7
  6
CONTINUOUS
 10
-2.208150
 20
0.878386
  0
VERTEX
  8
LAYER_1
 62
     7
  6
CONTINUOUS
 10
-2.351188
 20
0.875500
  0
VERTEX
  8
LAYER_1
 62
     7
  6
CONTINUOUS
 10
-2.470566
 20
0.870207
  0
VERTEX
  8
LAYER_1
 62
     7
  6
CONTINUOUS
 10
-2.577346
 20
0.862720
  0
SEQEND
  8
0
  0
POLYLINE
  8
LAYER_1
 62
     7
  6
CONTINUOUS
 66
     1
 40
0.003000
 41
0.003000
  0
VERTEX
  8
LAYER_1
 62
     7
  6
CONTINUOUS
 10
-2.577346
 20
0.862720
  0
VERTEX
  8
LAYER_1
 62
     7
  6
CONTINUOUS
 10
-2.680608
 20
0.853108
  0
VERTEX
  8
LAYER_1
 62
     7
  6
CONTINUOUS
 10
-2.781514
 20
0.840986
  0
VERTEX
  8
LAYER_1
 62
     7
  6
CONTINUOUS
 10
-2.879248
 20
0.825846
  0
SEQEND
  8
0
  0
POLYLINE
  8
LAYER_1
 62
     7
  6
CONTINUOUS
 66
     1
 40
0.003000
 41
0.003000
  0
VERTEX
  8
LAYER_1
 62
     7
  6
CONTINUOUS
 10
-2.879248
 20
0.825846
  0
VERTEX
  8
LAYER_1
 62
     7
  6
CONTINUOUS
 10
-2.971681
 20
0.807026
  0
VERTEX
  8
LAYER_1
 62
     7
  6
CONTINUOUS
 10
-3.051463
 20
0.783344
  0
VERTEX
  8
LAYER_1
 62
     7
  6
CONTINUOUS
 10
-3.109941
 20
0.753469
  0
SEQEND
  8
0
  0
POLYLINE
  8
LAYER_1
 62
     7
  6
CONTINUOUS
 66
     1
 40
0.003000
 41
0.003000
  0
VERTEX
  8
LAYER_1
 62
     7
  6
CONTINUOUS
 10
-3.109941
 20
0.753469
  0
VERTEX
  8
LAYER_1
 62
     7
  6
CONTINUOUS
 10
-3.139896
 20
0.717135
  0
VERTEX
  8
LAYER_1
 62
     7
  6
CONTINUOUS
 10
-3.139896
 20
0.678344
  0
VERTEX
  8
LAYER_1
 62
     7
  6
CONTINUOUS
 10
-3.109941
 20
0.642165
  0
SEQEND
  8
0
  0
POLYLINE
  8
LAYER_1
 62
     7
  6
CONTINUOUS
 66
     1
 40
0.003000
 41
0.003000
  0
VERTEX
  8
LAYER_1
 62
     7
  6
CONTINUOUS
 10
-3.109941
 20
0.642165
  0
VERTEX
  8
LAYER_1
 62
     7
  6
CONTINUOUS
 10
-3.051463
 20
0.612577
  0
VERTEX
  8
LAYER_1
 62
     7
  6
CONTINUOUS
 10
-2.971681
 20
0.589243
  0
VERTEX
  8
LAYER_1
 62
     7
  6
CONTINUOUS
 10
-2.879248
 20
0.570720
  0
SEQEND
  8
0
  0
POLYLINE
  8
LAYER_1
 62
     7
  6
CONTINUOUS
 66
     1
 40
0.003000
 41
0.003000
  0
VERTEX
  8
LAYER_1
 62
     7
  6
CONTINUOUS
 10
-2.879248
 20
0.570720
  0
VERTEX
  8
LAYER_1
 62
     7
  6
CONTINUOUS
 10
-2.781506
 20
0.555731
  0
VERTEX
  8
LAYER_1
 62
     7
  6
CONTINUOUS
 10
-2.680538
 20
0.543613
  0
VERTEX
  8
LAYER_1
 62
     7
  6
CONTINUOUS
 10
-2.577110
 20
0.533846
  0
SEQEND
  8
0
  0
POLYLINE
  8
LAYER_1
 62
     7
  6
CONTINUOUS
 66
     1
 40
0.003000
 41
0.003000
  0
VERTEX
  8
LAYER_1
 62
     7
  6
CONTINUOUS
 10
-2.577110
 20
0.533846
  0
VERTEX
  8
LAYER_1
 62
     7
  6
CONTINUOUS
 10
-2.470069
 20
0.526030
  0
VERTEX
  8
LAYER_1
 62
     7
  6
CONTINUOUS
 10
-2.350529
 20
0.520155
  0
VERTEX
  8
LAYER_1
 62
     7
  6
CONTINUOUS
 10
-2.207693
 20
0.516331
  0
SEQEND
  8
0
  0
POLYLINE
  8
LAYER_1
 62
     7
  6
CONTINUOUS
 66
     1
 40
0.003000
 41
0.003000
  0
VERTEX
  8
LAYER_1
 62
     7
  6
CONTINUOUS
 10
-2.207693
 20
0.516331
  0
VERTEX
  8
LAYER_1
 62
     7
  6
CONTINUOUS
 10
-2.124503
 20
0.515202
  0
VERTEX
  8
LAYER_1
 62
     7
  6
CONTINUOUS
 10
-2.033521
 20
0.514514
  0
VERTEX
  8
LAYER_1
 62
     7
  6
CONTINUOUS
 10
-1.935485
 20
0.514172
  0
VERTEX
  8
LAYER_1
 62
     7
  6
CONTINUOUS
 10
-1.831131
 20
0.514080
  0
VERTEX
  8
LAYER_1
 62
     7
  6
CONTINUOUS
 10
-1.721195
 20
0.514143
  0
VERTEX
  8
LAYER_1
 62
     7
  6
CONTINUOUS
 10
-1.606413
 20
0.514264
  0
SEQEND
  8
0
  0
POLYLINE
  8
LAYER_1
 62
     7
  6
CONTINUOUS
 66
     1
 40
0.003000
 41
0.003000
  0
VERTEX
  8
LAYER_1
 62
     7
  6
CONTINUOUS
 10
-1.606413
 20
0.514264
  0
VERTEX
  8
LAYER_1
 62
     7
  6
CONTINUOUS
 10
-1.504727
 20
0.514353
  0
VERTEX
  8
LAYER_1
 62
     7
  6
CONTINUOUS
 10
-1.400464
 20
0.514468
  0
VERTEX
  8
LAYER_1
 62
     7
  6
CONTINUOUS
 10
-1.294069
 20
0.514661
  0
VERTEX
  8
LAYER_1
 62
     7
  6
CONTINUOUS
 10
-1.185985
 20
0.514983
  0
VERTEX
  8
LAYER_1
 62
     7
  6
CONTINUOUS
 10
-1.076656
 20
0.515486
  0
VERTEX
  8
LAYER_1
 62
     7
  6
CONTINUOUS
 10
-0.966526
 20
0.516224
  0
VERTEX
  8
LAYER_1
 62
     7
  6
CONTINUOUS
 10
-0.856039
 20
0.517248
  0
SEQEND
  8
0
  0
POLYLINE
  8
LAYER_1
 62
     7
  6
CONTINUOUS
 66
     1
 40
0.003000
 41
0.003000
  0
VERTEX
  8
LAYER_1
 62
     7
  6
CONTINUOUS
 10
-0.856039
 20
0.517248
  0
VERTEX
  8
LAYER_1
 62
     7
  6
CONTINUOUS
 10
-0.800595
 20
0.517889
  0
VERTEX
  8
LAYER_1
 62
     7
  6
CONTINUOUS
 10
-0.744012
 20
0.518650
  0
VERTEX
  8
LAYER_1
 62
     7
  6
CONTINUOUS
 10
-0.685133
 20
0.519566
  0
VERTEX
  8
LAYER_1
 62
     7
  6
CONTINUOUS
 10
-0.622798
 20
0.520673
  0
VERTEX
  8
LAYER_1
 62
     7
  6
CONTINUOUS
 10
-0.555849
 20
0.522007
  0
VERTEX
  8
LAYER_1
 62
     7
  6
CONTINUOUS
 10
-0.483125
 20
0.523601
  0
VERTEX
  8
LAYER_1
 62
     7
  6
CONTINUOUS
 10
-0.403469
 20
0.525492
  0
VERTEX
  8
LAYER_1
 62
     7
  6
CONTINUOUS
 10
-0.315720
 20
0.527714
  0
VERTEX
  8
LAYER_1
 62
     7
  6
CONTINUOUS
 10
-0.218720
 20
0.530303
  0
VERTEX
  8
LAYER_1
 62
     7
  6
CONTINUOUS
 10
-0.111311
 20
0.533294
  0
VERTEX
  8
LAYER_1
 62
     7
  6
CONTINUOUS
 10
0.007668
 20
0.536723
  0
VERTEX
  8
LAYER_1
 62
     7
  6
CONTINUOUS
 10
0.139375
 20
0.540624
  0
VERTEX
  8
LAYER_1
 62
     7
  6
CONTINUOUS
 10
0.284970
 20
0.545033
  0
VERTEX
  8
LAYER_1
 62
     7
  6
CONTINUOUS
 10
0.445610
 20
0.549984
  0
SEQEND
  8
0
  0
POLYLINE
  8
LAYER_1
 62
     7
  6
CONTINUOUS
 66
     1
 40
0.003000
 41
0.003000
  0
VERTEX
  8
LAYER_1
 62
     7
  6
CONTINUOUS
 10
0.445610
 20
0.549984
  0
VERTEX
  8
LAYER_1
 62
     7
  6
CONTINUOUS
 10
0.520864
 20
0.552328
  0
VERTEX
  8
LAYER_1
 62
     7
  6
CONTINUOUS
 10
0.599003
 20
0.554774
  0
VERTEX
  8
LAYER_1
 62
     7
  6
CONTINUOUS
 10
0.679809
 20
0.557317
  0
VERTEX
  8
LAYER_1
 62
     7
  6
CONTINUOUS
 10
0.763064
 20
0.559948
  0
VERTEX
  8
LAYER_1
 62
     7
  6
CONTINUOUS
 10
0.848551
 20
0.562660
  0
VERTEX
  8
LAYER_1
 62
     7
  6
CONTINUOUS
 10
0.936053
 20
0.565446
  0
VERTEX
  8
LAYER_1
 62
     7
  6
CONTINUOUS
 10
1.025353
 20
0.568299
  0
VERTEX
  8
LAYER_1
 62
     7
  6
CONTINUOUS
 10
1.116232
 20
0.571210
  0
VERTEX
  8
LAYER_1
 62
     7
  6
CONTINUOUS
 10
1.208474
 20
0.574172
  0
VERTEX
  8
LAYER_1
 62
     7
  6
CONTINUOUS
 10
1.301861
 20
0.577178
  0
VERTEX
  8
LAYER_1
 62
     7
  6
CONTINUOUS
 10
1.396176
 20
0.580221
  0
VERTEX
  8
LAYER_1
 62
     7
  6
CONTINUOUS
 10
1.491201
 20
0.583293
  0
VERTEX
  8
LAYER_1
 62
     7
  6
CONTINUOUS
 10
1.586719
 20
0.586387
  0
VERTEX
  8
LAYER_1
 62
     7
  6
CONTINUOUS
 10
1.682512
 20
0.589495
  0
VERTEX
  8
LAYER_1
 62
     7
  6
CONTINUOUS
 10
1.778363
 20
0.592609
  0
VERTEX
  8
LAYER_1
 62
     7
  6
CONTINUOUS
 10
1.874056
 20
0.595723
  0
VERTEX
  8
LAYER_1
 62
     7
  6
CONTINUOUS
 10
1.969371
 20
0.598829
  0
VERTEX
  8
LAYER_1
 62
     7
  6
CONTINUOUS
 10
2.064092
 20
0.601920
  0
VERTEX
  8
LAYER_1
 62
     7
  6
CONTINUOUS
 10
2.158002
 20
0.604988
  0
VERTEX
  8
LAYER_1
 62
     7
  6
CONTINUOUS
 10
2.250883
 20
0.608025
  0
VERTEX
  8
LAYER_1
 62
     7
  6
CONTINUOUS
 10
2.342517
 20
0.611024
  0
VERTEX
  8
LAYER_1
 62
     7
  6
CONTINUOUS
 10
2.432688
 20
0.613979
  0
VERTEX
  8
LAYER_1
 62
     7
  6
CONTINUOUS
 10
2.521177
 20
0.616880
  0
VERTEX
  8
LAYER_1
 62
     7
  6
CONTINUOUS
 10
2.607768
 20
0.619722
  0
VERTEX
  8
LAYER_1
 62
     7
  6
CONTINUOUS
 10
2.692243
 20
0.622496
  0
VERTEX
  8
LAYER_1
 62
     7
  6
CONTINUOUS
 10
2.774384
 20
0.625195
  0
VERTEX
  8
LAYER_1
 62
     7
  6
CONTINUOUS
 10
2.853974
 20
0.627812
  0
VERTEX
  8
LAYER_1
 62
     7
  6
CONTINUOUS
 10
2.930797
 20
0.630339
  0
VERTEX
  8
LAYER_1
 62
     7
  6
CONTINUOUS
 10
3.004633
 20
0.632769
  0
VERTEX
  8
LAYER_1
 62
     7
  6
CONTINUOUS
 10
3.075267
 20
0.635095
  0
VERTEX
  8
LAYER_1
 62
     7
  6
CONTINUOUS
 10
3.142480
 20
0.637308
  0
VERTEX
  8
LAYER_1
 62
     7
  6
CONTINUOUS
 10
3.206055
 20
0.639402
  0
SEQEND
  8
0
  0
POLYLINE
  8
LAYER_1
 62
     7
  6
CONTINUOUS
 66
     1
 40
0.003000
 41
0.003000
  0
VERTEX
  8
LAYER_1
 62
     7
  6
CONTINUOUS
 10
3.206055
 20
0.639402
  0
VERTEX
  8
LAYER_1
 62
     7
  6
CONTINUOUS
 10
3.483256
 20
0.648524
  0
VERTEX
  8
LAYER_1
 62
     7
  6
CONTINUOUS
 10
3.669073
 20
0.654639
  0
VERTEX
  8
LAYER_1
 62
     7
  6
CONTINUOUS
 10
3.781781
 20
0.658348
  0
VERTEX
  8
LAYER_1
 62
     7
  6
CONTINUOUS
 10
3.839658
 20
0.660253
  0
VERTEX
  8
LAYER_1
 62
     7
  6
CONTINUOUS
 10
3.860981
 20
0.660955
  0
VERTEX
  8
LAYER_1
 62
     7
  6
CONTINUOUS
 10
3.864028
 20
0.661055
  0
SEQEND
  8
0
  0
SOLID
  8
LAYER_1
  6
CONTINUOUS
 10
-0.401803
 20
0.896122
 11
-0.428067
 21
0.839441
 12
-0.574638
 22
0.898902
 13
-0.555291
 23
0.839441
  0
POLYLINE
  8
LAYER_1
  6
CONTINUOUS
 66
     1
 40
0.003000
 41
0.003000
 70
     1
  0
VERTEX
  8
LAYER_1
  6
CONTINUOUS
 10
-0.401803
 20
0.896122
  0
VERTEX
  8
LAYER_1
  6
CONTINUOUS
 10
-0.428067
 20
0.839441
  0
VERTEX
  8
LAYER_1
  6
CONTINUOUS
 10
-0.555291
 20
0.839441
  0
VERTEX
  8
LAYER_1
  6
CONTINUOUS
 10
-0.574638
 20
0.898902
  0
SEQEND
  8
0
  0
SOLID
  8
LAYER_1
  6
CONTINUOUS
 10
-0.393500
 20
0.495122
 11
-0.425303
 21
0.546291
 12
-0.585705
 22
0.493748
 13
-0.562193
 23
0.544902
  0
POLYLINE
  8
LAYER_1
  6
CONTINUOUS
 66
     1
 40
0.003000
 41
0.003000
 70
     1
  0
VERTEX
  8
LAYER_1
  6
CONTINUOUS
 10
-0.393500
 20
0.495122
  0
VERTEX
  8
LAYER_1
  6
CONTINUOUS
 10
-0.425303
 20
0.546291
  0
VERTEX
  8
LAYER_1
  6
CONTINUOUS
 10
-0.562193
 20
0.544902
  0
VERTEX
  8
LAYER_1
  6
CONTINUOUS
 10
-0.585705
 20
0.493748
  0
SEQEND
  8
0
  0
TEXT
  8
LAYER_1
 62
     7
 10
-1.922839
 20
0.665650
 40
0.099927
  1
HT21  5%
 41
1.000000
  7
SN0
 71
     0
 72
     5
 11
-1.381485
 21
0.665650
  0
POLYLINE
  8
LAYER_1
 62
     7
  6
DASHED
 66
     1
 40
0.003000
 41
0.003000
  0
VERTEX
  8
LAYER_1
 62
     7
  6
DASHED
 10
-0.551138
 20
1.276957
  0
VERTEX
  8
LAYER_1
 62
     7
  6
DASHED
 10
-0.561824
 20
1.275727
  0
VERTEX
  8
LAYER_1
 62
     7
  6
DASHED
 10
-0.636631
 20
1.267122
  0
VERTEX
  8
LAYER_1
 62
     7
  6
DASHED
 10
-0.839677
 20
1.243764
  0
SEQEND
  8
0
  0
POLYLINE
  8
LAYER_1
 62
     7
  6
DASHED
 66
     1
 40
0.003000
 41
0.003000
  0
VERTEX
  8
LAYER_1
 62
     7
  6
DASHED
 10
-0.839677
 20
1.243764
  0
VERTEX
  8
LAYER_1
 62
     7
  6
DASHED
 10
-0.905762
 20
1.236164
  0
VERTEX
  8
LAYER_1
 62
     7
  6
DASHED
 10
-0.979729
 20
1.227661
  0
VERTEX
  8
LAYER_1
 62
     7
  6
DASHED
 10
-1.060626
 20
1.218368
  0
VERTEX
  8
LAYER_1
 62
     7
  6
DASHED
 10
-1.147502
 20
1.208398
  0
VERTEX
  8
LAYER_1
 62
     7
  6
DASHED
 10
-1.239405
 20
1.197862
  0
VERTEX
  8
LAYER_1
 62
     7
  6
DASHED
 10
-1.335385
 20
1.186876
  0
VERTEX
  8
LAYER_1
 62
     7
  6
DASHED
 10
-1.434489
 20
1.175550
  0
VERTEX
  8
LAYER_1
 62
     7
  6
DASHED
 10
-1.535766
 20
1.163999
  0
VERTEX
  8
LAYER_1
 62
     7
  6
DASHED
 10
-1.638265
 20
1.152335
  0
VERTEX
  8
LAYER_1
 62
     7
  6
DASHED
 10
-1.741035
 20
1.140671
  0
VERTEX
  8
LAYER_1
 62
     7
  6
DASHED
 10
-1.843124
 20
1.129120
  0
VERTEX
  8
LAYER_1
 62
     7
  6
DASHED
 10
-1.943580
 20
1.117796
  0
VERTEX
  8
LAYER_1
 62
     7
  6
DASHED
 10
-2.041453
 20
1.106810
  0
VERTEX
  8
LAYER_1
 62
     7
  6
DASHED
 10
-2.135791
 20
1.096276
  0
SEQEND
  8
0
  0
POLYLINE
  8
LAYER_1
 62
     7
  6
DASHED
 66
     1
 40
0.003000
 41
0.003000
  0
VERTEX
  8
LAYER_1
 62
     7
  6
DASHED
 10
-2.135791
 20
1.096276
  0
VERTEX
  8
LAYER_1
 62
     7
  6
DASHED
 10
-2.273869
 20
1.080973
  0
VERTEX
  8
LAYER_1
 62
     7
  6
DASHED
 10
-2.401126
 20
1.067006
  0
VERTEX
  8
LAYER_1
 62
     7
  6
DASHED
 10
-2.517601
 20
1.054346
  0
VERTEX
  8
LAYER_1
 62
     7
  6
DASHED
 10
-2.623333
 20
1.042961
  0
VERTEX
  8
LAYER_1
 62
     7
  6
DASHED
 10
-2.718360
 20
1.032821
  0
VERTEX
  8
LAYER_1
 62
     7
  6
DASHED
 10
-2.802719
 20
1.023895
  0
VERTEX
  8
LAYER_1
 62
     7
  6
DASHED
 10
-2.876450
 20
1.016153
  0
VERTEX
  8
LAYER_1
 62
     7
  6
DASHED
 10
-2.939590
 20
1.009563
  0
VERTEX
  8
LAYER_1
 62
     7
  6
DASHED
 10
-2.992177
 20
1.004094
  0
SEQEND
  8
0
  0
POLYLINE
  8
LAYER_1
 62
     7
  6
DASHED
 66
     1
 40
0.003000
 41
0.003000
  0
VERTEX
  8
LAYER_1
 62
     7
  6
DASHED
 10
-2.992177
 20
1.004094
  0
VERTEX
  8
LAYER_1
 62
     7
  6
DASHED
 10
-3.092075
 20
0.993716
  0
VERTEX
  8
LAYER_1
 62
     7
  6
DASHED
 10
-3.128880
 20
0.989893
  0
VERTEX
  8
LAYER_1
 62
     7
  6
DASHED
 10
-3.134138
 20
0.989346
  0
SEQEND
  8
0
  0
POLYLINE
  8
LAYER_1
 62
     7
  6
CONTINUOUS
 66
     1
 40
0.003000
 41
0.003000
  0
VERTEX
  8
LAYER_1
 62
     7
  6
CONTINUOUS
 10
-0.536177
 20
1.274720
  0
VERTEX
  8
LAYER_1
 62
     7
  6
CONTINUOUS
 10
-0.538215
 20
1.282257
  0
VERTEX
  8
LAYER_1
 62
     7
  6
CONTINUOUS
 10
-0.543571
 20
1.287612
  0
VERTEX
  8
LAYER_1
 62
     7
  6
CONTINUOUS
 10
-0.551110
 20
1.289650
  0
SEQEND
  8
0
  0
POLYLINE
  8
LAYER_1
 62
     7
  6
CONTINUOUS
 66
     1
 40
0.003000
 41
0.003000
  0
VERTEX
  8
LAYER_1
 62
     7
  6
CONTINUOUS
 10
-0.551110
 20
1.289650
  0
VERTEX
  8
LAYER_1
 62
     7
  6
CONTINUOUS
 10
-0.558647
 20
1.287612
  0
VERTEX
  8
LAYER_1
 62
     7
  6
CONTINUOUS
 10
-0.564002
 20
1.282257
  0
VERTEX
  8
LAYER_1
 62
     7
  6
CONTINUOUS
 10
-0.566039
 20
1.274720
  0
SEQEND
  8
0
  0
POLYLINE
  8
LAYER_1
 62
     7
  6
CONTINUOUS
 66
     1
 40
0.003000
 41
0.003000
  0
VERTEX
  8
LAYER_1
 62
     7
  6
CONTINUOUS
 10
-0.566039
 20
1.274720
  0
VERTEX
  8
LAYER_1
 62
     7
  6
CONTINUOUS
 10
-0.564002
 20
1.267182
  0
VERTEX
  8
LAYER_1
 62
     7
  6
CONTINUOUS
 10
-0.558647
 20
1.261828
  0
VERTEX
  8
LAYER_1
 62
     7
  6
CONTINUOUS
 10
-0.551110
 20
1.259791
  0
SEQEND
  8
0
  0
POLYLINE
  8
LAYER_1
 62
     7
  6
CONTINUOUS
 66
     1
 40
0.003000
 41
0.003000
  0
VERTEX
  8
LAYER_1
 62
     7
  6
CONTINUOUS
 10
-0.551110
 20
1.259791
  0
VERTEX
  8
LAYER_1
 62
     7
  6
CONTINUOUS
 10
-0.543571
 20
1.261828
  0
VERTEX
  8
LAYER_1
 62
     7
  6
CONTINUOUS
 10
-0.538215
 20
1.267182
  0
VERTEX
  8
LAYER_1
 62
     7
  6
CONTINUOUS
 10
-0.536177
 20
1.274720
  0
SEQEND
  8
0
  0
POLYLINE
  8
LAYER_1
 62
     7
  6
CONTINUOUS
 66
     1
 40
0.003000
 41
0.003000
  0
VERTEX
  8
LAYER_1
 62
     7
  6
CONTINUOUS
 10
0.483165
 20
0.840000
  0
VERTEX
  8
LAYER_1
 62
     7
  6
CONTINUOUS
 10
0.488693
 20
0.555150
  0
SEQEND
  8
0
  0
POLYLINE
  8
LAYER_1
 62
     7
  6
DASHED
 66
     1
 40
0.003000
 41
0.003000
  0
VERTEX
  8
LAYER_1
 62
     7
  6
DASHED
 10
-0.498594
 20
0.696193
  0
VERTEX
  8
LAYER_1
 62
     7
  6
DASHED
 10
-0.570500
 20
1.492665
  0
SEQEND
  8
0
  0
POLYLINE
  8
LAYER_1
 62
     7
  6
CONTINUOUS
 66
     1
 40
0.003000
 41
0.003000
  0
VERTEX
  8
LAYER_1
 62
     7
  6
CONTINUOUS
 10
-0.241402
 20
0.535791
  0
VERTEX
  8
LAYER_1
 62
     7
  6
CONTINUOUS
 10
-0.243842
 20
0.540042
  0
VERTEX
  8
LAYER_1
 62
     7
  6
CONTINUOUS
 10
-0.260928
 20
0.569799
  0
VERTEX
  8
LAYER_1
 62
     7
  6
CONTINUOUS
 10
-0.307303
 20
0.650567
  0
SEQEND
  8
0
  0
POLYLINE
  8
LAYER_1
 62
     7
  6
CONTINUOUS
 66
     1
 40
0.003000
 41
0.003000
  0
VERTEX
  8
LAYER_1
 62
     7
  6
CONTINUOUS
 10
-0.307303
 20
0.650567
  0
VERTEX
  8
LAYER_1
 62
     7
  6
CONTINUOUS
 10
-0.353722
 20
0.731410
  0
VERTEX
  8
LAYER_1
 62
     7
  6
CONTINUOUS
 10
-0.409719
 20
0.829070
  0
VERTEX
  8
LAYER_1
 62
     7
  6
CONTINUOUS
 10
-0.469057
 20
0.932815
  0
VERTEX
  8
LAYER_1
 62
     7
  6
CONTINUOUS
 10
-0.525498
 20
1.031914
  0
VERTEX
  8
LAYER_1
 62
     7
  6
CONTINUOUS
 10
-0.572803
 20
1.115638
  0
SEQEND
  8
0
  0
POLYLINE
  8
LAYER_1
 62
     7
  6
CONTINUOUS
 66
     1
 40
0.003000
 41
0.003000
  0
VERTEX
  8
LAYER_1
 62
     7
  6
CONTINUOUS
 10
-0.572803
 20
1.115638
  0
VERTEX
  8
LAYER_1
 62
     7
  6
CONTINUOUS
 10
-0.621489
 20
1.204212
  0
VERTEX
  8
LAYER_1
 62
     7
  6
CONTINUOUS
 10
-0.641188
 20
1.244756
  0
VERTEX
  8
LAYER_1
 62
     7
  6
CONTINUOUS
 10
-0.645622
 20
1.261748
  0
SEQEND
  8
0
  0
POLYLINE
  8
LAYER_1
 62
     7
  6
CONTINUOUS
 66
     1
 40
0.003000
 41
0.003000
  0
VERTEX
  8
LAYER_1
 62
     7
  6
CONTINUOUS
 10
-0.645622
 20
1.261748
  0
VERTEX
  8
LAYER_1
 62
     7
  6
CONTINUOUS
 10
-0.646240
 20
1.275470
  0
VERTEX
  8
LAYER_1
 62
     7
  6
CONTINUOUS
 10
-0.645317
 20
1.289499
  0
VERTEX
  8
LAYER_1
 62
     7
  6
CONTINUOUS
 10
-0.642858
 20
1.303220
  0
SEQEND
  8
0
  0
POLYLINE
  8
LAYER_1
 62
     7
  6
CONTINUOUS
 66
     1
 40
0.003000
 41
0.003000
  0
VERTEX
  8
LAYER_1
 62
     7
  6
CONTINUOUS
 10
-0.642858
 20
1.303220
  0
VERTEX
  8
LAYER_1
 62
     7
  6
CONTINUOUS
 10
-0.638899
 20
1.316081
  0
VERTEX
  8
LAYER_1
 62
     7
  6
CONTINUOUS
 10
-0.633606
 20
1.327708
  0
VERTEX
  8
LAYER_1
 62
     7
  6
CONTINUOUS
 10
-0.627193
 20
1.337791
  0
SEQEND
  8
0
  0
POLYLINE
  8
LAYER_1
 62
     7
  6
CONTINUOUS
 66
     1
 40
0.003000
 41
0.003000
  0
VERTEX
  8
LAYER_1
 62
     7
  6
CONTINUOUS
 10
-0.627193
 20
1.337791
  0
VERTEX
  8
LAYER_1
 62
     7
  6
CONTINUOUS
 10
-0.619831
 20
1.346159
  0
VERTEX
  8
LAYER_1
 62
     7
  6
CONTINUOUS
 10
-0.611651
 20
1.353092
  0
VERTEX
  8
LAYER_1
 62
     7
  6
CONTINUOUS
 10
-0.602764
 20
1.359000
  0
SEQEND
  8
0
  0
POLYLINE
  8
LAYER_1
 62
     7
  6
CONTINUOUS
 66
     1
 40
0.003000
 41
0.003000
  0
VERTEX
  8
LAYER_1
 62
     7
  6
CONTINUOUS
 10
-0.602764
 20
1.359000
  0
VERTEX
  8
LAYER_1
 62
     7
  6
CONTINUOUS
 10
-0.593234
 20
1.364170
  0
VERTEX
  8
LAYER_1
 62
     7
  6
CONTINUOUS
 10
-0.583091
 20
1.368420
  0
VERTEX
  8
LAYER_1
 62
     7
  6
CONTINUOUS
 10
-0.572331
 20
1.371441
  0
SEQEND
  8
0
  0
POLYLINE
  8
LAYER_1
 62
     7
  6
CONTINUOUS
 66
     1
 40
0.003000
 41
0.003000
  0
VERTEX
  8
LAYER_1
 62
     7
  6
CONTINUOUS
 10
-0.572331
 20
1.371441
  0
VERTEX
  8
LAYER_1
 62
     7
  6
CONTINUOUS
 10
-0.560983
 20
1.373013
  0
VERTEX
  8
LAYER_1
 62
     7
  6
CONTINUOUS
 10
-0.549120
 20
1.373251
  0
VERTEX
  8
LAYER_1
 62
     7
  6
CONTINUOUS
 10
-0.536846
 20
1.372358
  0
SEQEND
  8
0
  0
POLYLINE
  8
LAYER_1
 62
     7
  6
CONTINUOUS
 66
     1
 40
0.003000
 41
0.003000
  0
VERTEX
  8
LAYER_1
 62
     7
  6
CONTINUOUS
 10
-0.536846
 20
1.372358
  0
VERTEX
  8
LAYER_1
 62
     7
  6
CONTINUOUS
 10
-0.524368
 20
1.370470
  0
VERTEX
  8
LAYER_1
 62
     7
  6
CONTINUOUS
 10
-0.512299
 20
1.367350
  0
VERTEX
  8
LAYER_1
 62
     7
  6
CONTINUOUS
 10
-0.501358
 20
1.362693
  0
SEQEND
  8
0
  0
POLYLINE
  8
LAYER_1
 62
     7
  6
CONTINUOUS
 66
     1
 40
0.003000
 41
0.003000
  0
VERTEX
  8
LAYER_1
 62
     7
  6
CONTINUOUS
 10
-0.501358
 20
1.362693
  0
VERTEX
  8
LAYER_1
 62
     7
  6
CONTINUOUS
 10
-0.490161
 20
1.354833
  0
VERTEX
  8
LAYER_1
 62
     7
  6
CONTINUOUS
 10
-0.468924
 20
1.336737
  0
VERTEX
  8
LAYER_1
 62
     7
  6
CONTINUOUS
 10
-0.425764
 20
1.300000
  0
SEQEND
  8
0
  0
POLYLINE
  8
LAYER_1
 62
     7
  6
CONTINUOUS
 66
     1
 40
0.003000
 41
0.003000
  0
VERTEX
  8
LAYER_1
 62
     7
  6
CONTINUOUS
 10
-0.425764
 20
1.300000
  0
VERTEX
  8
LAYER_1
 62
     7
  6
CONTINUOUS
 10
-0.353095
 20
1.239446
  0
VERTEX
  8
LAYER_1
 62
     7
  6
CONTINUOUS
 10
-0.260447
 20
1.162815
  0
VERTEX
  8
LAYER_1
 62
     7
  6
CONTINUOUS
 10
-0.161650
 20
1.081067
  0
SEQEND
  8
0
  0
POLYLINE
  8
LAYER_1
 62
     7
  6
CONTINUOUS
 66
     1
 40
0.003000
 41
0.003000
  0
VERTEX
  8
LAYER_1
 62
     7
  6
CONTINUOUS
 10
-0.161650
 20
1.081067
  0
VERTEX
  8
LAYER_1
 62
     7
  6
CONTINUOUS
 10
-0.067080
 20
1.004226
  0
VERTEX
  8
LAYER_1
 62
     7
  6
CONTINUOUS
 10
0.026774
 20
0.938653
  0
VERTEX
  8
LAYER_1
 62
     7
  6
CONTINUOUS
 10
0.126874
 20
0.889776
  0
SEQEND
  8
0
  0
POLYLINE
  8
LAYER_1
 62
     7
  6
CONTINUOUS
 66
     1
 40
0.003000
 41
0.003000
  0
VERTEX
  8
LAYER_1
 62
     7
  6
CONTINUOUS
 10
0.126874
 20
0.889776
  0
VERTEX
  8
LAYER_1
 62
     7
  6
CONTINUOUS
 10
0.235979
 20
0.860998
  0
VERTEX
  8
LAYER_1
 62
     7
  6
CONTINUOUS
 10
0.339962
 20
0.847578
  0
VERTEX
  8
LAYER_1
 62
     7
  6
CONTINUOUS
 10
0.420484
 20
0.842764
  0
SEQEND
  8
0
  0
POLYLINE
  8
LAYER_1
 62
     7
  6
CONTINUOUS
 66
     1
 40
0.003000
 41
0.003000
  0
VERTEX
  8
LAYER_1
 62
     7
  6
CONTINUOUS
 10
0.420484
 20
0.842764
  0
VERTEX
  8
LAYER_1
 62
     7
  6
CONTINUOUS
 10
0.464593
 20
0.840819
  0
VERTEX
  8
LAYER_1
 62
     7
  6
CONTINUOUS
 10
0.480844
 20
0.840102
  0
VERTEX
  8
LAYER_1
 62
     7
  6
CONTINUOUS
 10
0.483165
 20
0.840000
  0
SEQEND
  8
0
  0
POLYLINE
  8
LAYER_1
 62
     7
  6
CONTINUOUS
 66
     1
 40
0.003000
 41
0.003000
  0
VERTEX
  8
LAYER_1
 62
     7
  6
CONTINUOUS
 10
-0.603469
 20
4.295638
  0
VERTEX
  8
LAYER_1
 62
     7
  6
CONTINUOUS
 10
-0.390484
 20
3.713319
  0
SEQEND
  8
0
  0
POLYLINE
  8
LAYER_1
 62
     7
  6
CONTINUOUS
 66
     1
 40
0.003000
 41
0.003000
  0
VERTEX
  8
LAYER_1
 62
     7
  6
CONTINUOUS
 10
-0.542232
 20
4.295638
  0
VERTEX
  8
LAYER_1
 62
     7
  6
CONTINUOUS
 10
-0.390484
 20
3.882846
  0
SEQEND
  8
0
  0
POLYLINE
  8
LAYER_1
 62
     7
  6
CONTINUOUS
 66
     1
 40
0.003000
 41
0.003000
  0
VERTEX
  8
LAYER_1
 62
     7
  6
CONTINUOUS
 10
-0.481000
 20
4.295638
  0
VERTEX
  8
LAYER_1
 62
     7
  6
CONTINUOUS
 10
-0.390484
 20
4.045012
  0
SEQEND
  8
0
  0
POLYLINE
  8
LAYER_1
 62
     7
  6
CONTINUOUS
 66
     1
 40
0.003000
 41
0.003000
  0
VERTEX
  8
LAYER_1
 62
     7
  6
CONTINUOUS
 10
-0.422429
 20
4.295638
  0
VERTEX
  8
LAYER_1
 62
     7
  6
CONTINUOUS
 10
-0.390484
 20
4.214555
  0
SEQEND
  8
0
  0
POLYLINE
  8
LAYER_1
 62
     7
  6
CONTINUOUS
 66
     1
 40
0.003000
 41
0.003000
  0
VERTEX
  8
LAYER_1
 62
     7
  6
CONTINUOUS
 10
-0.571528
 20
4.295638
  0
VERTEX
  8
LAYER_1
 62
     7
  6
CONTINUOUS
 10
-0.603469
 20
4.214555
  0
SEQEND
  8
0
  0
POLYLINE
  8
LAYER_1
 62
     7
  6
CONTINUOUS
 66
     1
 40
0.003000
 41
0.003000
  0
VERTEX
  8
LAYER_1
 62
     7
  6
CONTINUOUS
 10
-0.512941
 20
4.295638
  0
VERTEX
  8
LAYER_1
 62
     7
  6
CONTINUOUS
 10
-0.603469
 20
4.045012
  0
SEQEND
  8
0
  0
POLYLINE
  8
LAYER_1
 62
     7
  6
CONTINUOUS
 66
     1
 40
0.003000
 41
0.003000
  0
VERTEX
  8
LAYER_1
 62
     7
  6
CONTINUOUS
 10
-0.451720
 20
4.295638
  0
VERTEX
  8
LAYER_1
 62
     7
  6
CONTINUOUS
 10
-0.603469
 20
3.882846
  0
SEQEND
  8
0
  0
POLYLINE
  8
LAYER_1
 62
     7
  6
CONTINUOUS
 66
     1
 40
0.003000
 41
0.003000
  0
VERTEX
  8
LAYER_1
 62
     7
  6
CONTINUOUS
 10
-0.390484
 20
4.295638
  0
VERTEX
  8
LAYER_1
 62
     7
  6
CONTINUOUS
 10
-0.603469
 20
3.713319
  0
SEQEND
  8
0
  0
POLYLINE
  8
LAYER_1
 62
     7
  6
CONTINUOUS
 66
     1
 40
0.003000
 41
0.003000
  0
VERTEX
  8
LAYER_1
 62
     7
  6
CONTINUOUS
 10
-0.603469
 20
4.133469
  0
VERTEX
  8
LAYER_1
 62
     7
  6
CONTINUOUS
 10
-0.451720
 20
3.713319
  0
SEQEND
  8
0
  0
POLYLINE
  8
LAYER_1
 62
     7
  6
CONTINUOUS
 66
     1
 40
0.003000
 41
0.003000
  0
VERTEX
  8
LAYER_1
 62
     7
  6
CONTINUOUS
 10
-0.603469
 20
3.963929
  0
VERTEX
  8
LAYER_1
 62
     7
  6
CONTINUOUS
 10
-0.512941
 20
3.713319
  0
SEQEND
  8
0
  0
POLYLINE
  8
LAYER_1
 62
     7
  6
CONTINUOUS
 66
     1
 40
0.003000
 41
0.003000
  0
VERTEX
  8
LAYER_1
 62
     7
  6
CONTINUOUS
 10
-0.603469
 20
3.794402
  0
VERTEX
  8
LAYER_1
 62
     7
  6
CONTINUOUS
 10
-0.571528
 20
3.713319
  0
SEQEND
  8
0
  0
POLYLINE
  8
LAYER_1
 62
     7
  6
CONTINUOUS
 66
     1
 40
0.003000
 41
0.003000
  0
VERTEX
  8
LAYER_1
 62
     7
  6
CONTINUOUS
 10
-0.390484
 20
4.133469
  0
VERTEX
  8
LAYER_1
 62
     7
  6
CONTINUOUS
 10
-0.542232
 20
3.713319
  0
SEQEND
  8
0
  0
POLYLINE
  8
LAYER_1
 62
     7
  6
CONTINUOUS
 66
     1
 40
0.003000
 41
0.003000
  0
VERTEX
  8
LAYER_1
 62
     7
  6
CONTINUOUS
 10
-0.390484
 20
3.963929
  0
VERTEX
  8
LAYER_1
 62
     7
  6
CONTINUOUS
 10
-0.481000
 20
3.713319
  0
SEQEND
  8
0
  0
POLYLINE
  8
LAYER_1
 62
     7
  6
CONTINUOUS
 66
     1
 40
0.003000
 41
0.003000
  0
VERTEX
  8
LAYER_1
 62
     7
  6
CONTINUOUS
 10
-0.390484
 20
3.794402
  0
VERTEX
  8
LAYER_1
 62
     7
  6
CONTINUOUS
 10
-0.422429
 20
3.713319
  0
SEQEND
  8
0
  0
POLYLINE
  8
LAYER_1
 62
     7
  6
CONTINUOUS
 66
     1
 40
0.003000
 41
0.003000
  0
VERTEX
  8
LAYER_1
 62
     7
  6
CONTINUOUS
 10
0.151303
 20
3.272803
  0
VERTEX
  8
LAYER_1
 62
     7
  6
CONTINUOUS
 10
0.149528
 20
3.272666
  0
VERTEX
  8
LAYER_1
 62
     7
  6
CONTINUOUS
 10
0.137102
 20
3.271709
  0
VERTEX
  8
LAYER_1
 62
     7
  6
CONTINUOUS
 10
0.103374
 20
3.269110
  0
SEQEND
  8
0
  0
POLYLINE
  8
LAYER_1
 62
     7
  6
CONTINUOUS
 66
     1
 40
0.003000
 41
0.003000
  0
VERTEX
  8
LAYER_1
 62
     7
  6
CONTINUOUS
 10
0.103374
 20
3.269110
  0
VERTEX
  8
LAYER_1
 62
     7
  6
CONTINUOUS
 10
0.044031
 20
3.266520
  0
VERTEX
  8
LAYER_1
 62
     7
  6
CONTINUOUS
 10
-0.019814
 20
3.275399
  0
VERTEX
  8
LAYER_1
 62
     7
  6
CONTINUOUS
 10
-0.060720
 20
3.309677
  0
SEQEND
  8
0
  0
POLYLINE
  8
LAYER_1
 62
     7
  6
CONTINUOUS
 66
     1
 40
0.003000
 41
0.003000
  0
VERTEX
  8
LAYER_1
 62
     7
  6
CONTINUOUS
 10
-0.060720
 20
3.309677
  0
VERTEX
  8
LAYER_1
 62
     7
  6
CONTINUOUS
 10
-0.061605
 20
3.378303
  0
VERTEX
  8
LAYER_1
 62
     7
  6
CONTINUOUS
 10
-0.046920
 20
3.470280
  0
VERTEX
  8
LAYER_1
 62
     7
  6
CONTINUOUS
 10
-0.051500
 20
3.569638
  0
SEQEND
  8
0
  0
POLYLINE
  8
LAYER_1
 62
     7
  6
CONTINUOUS
 66
     1
 40
0.003000
 41
0.003000
  0
VERTEX
  8
LAYER_1
 62
     7
  6
CONTINUOUS
 10
-0.051500
 20
3.569638
  0
VERTEX
  8
LAYER_1
 62
     7
  6
CONTINUOUS
 10
-0.099364
 20
3.661956
  0
VERTEX
  8
LAYER_1
 62
     7
  6
CONTINUOUS
 10
-0.171405
 20
3.739120
  0
VERTEX
  8
LAYER_1
 62
     7
  6
CONTINUOUS
 10
-0.237705
 20
3.794567
  0
SEQEND
  8
0
  0
POLYLINE
  8
LAYER_1
 62
     7
  6
CONTINUOUS
 66
     1
 40
0.003000
 41
0.003000
  0
VERTEX
  8
LAYER_1
 62
     7
  6
CONTINUOUS
 10
-0.237705
 20
3.794567
  0
VERTEX
  8
LAYER_1
 62
     7
  6
CONTINUOUS
 10
-0.275333
 20
3.824405
  0
VERTEX
  8
LAYER_1
 62
     7
  6
CONTINUOUS
 10
-0.289197
 20
3.835398
  0
VERTEX
  8
LAYER_1
 62
     7
  6
CONTINUOUS
 10
-0.291177
 20
3.836969
  0
SEQEND
  8
0
  0
SOLID
  8
LAYER_1
  6
CONTINUOUS
 10
-0.221693
 20
3.746567
 11
-0.291177
 21
3.836969
 12
-0.221693
 22
3.746567
 13
-0.187319
 23
3.789902
  0
POLYLINE
  8
LAYER_1
  6
CONTINUOUS
 66
     1
 40
0.003000
 41
0.003000
 70
     1
  0
VERTEX
  8
LAYER_1
  6
CONTINUOUS
 10
-0.221693
 20
3.746567
  0
VERTEX
  8
LAYER_1
  6
CONTINUOUS
 10
-0.291177
 20
3.836969
  0
VERTEX
  8
LAYER_1
  6
CONTINUOUS
 10
-0.187319
 20
3.789902
  0
SEQEND
  8
0
  0
POLYLINE
  8
LAYER_1
 62
     7
  6
CONTINUOUS
 66
     1
 40
0.003000
 41
0.003000
  0
VERTEX
  8
LAYER_1
 62
     7
  6
CONTINUOUS
 10
-0.221693
 20
3.746567
  0
VERTEX
  8
LAYER_1
 62
     7
  6
CONTINUOUS
 10
-0.291177
 20
3.836969
  0
VERTEX
  8
LAYER_1
 62
     7
  6
CONTINUOUS
 10
-0.187319
 20
3.789902
  0
SEQEND
  8
0
  0
TEXT
  8
LAYER_1
 62
     7
 10
0.276185
 20
3.441622
 40
0.094526
  1
0.8 oz Kevlar or
 41
1.000000
  7
SN0
 71
     0
 72
     5
 11
1.086374
 21
3.441622
  0
TEXT
  8
LAYER_1
 62
     7
 10
0.276185
 20
3.326024
 40
0.094526
  1
2 oz glass hinge,
 41
1.000000
  7
SN0
 71
     0
 72
     5
 11
1.144561
 21
3.326024
  0
TEXT
  8
LAYER_1
 62
     7
 10
0.276185
 20
3.210425
 40
0.094526
  1
sheared bias,
 41
1.000000
  7
SN0
 71
     0
 72
     5
 11
0.970002
 21
3.210425
  0
TEXT
  8
LAYER_1
 62
     7
 10
0.276185
 20
3.094827
 40
0.094526
  1
glued into slits
 41
1.000000
  7
SN0
 71
     0
 72
     5
 11
1.009775
 21
3.094827
  0
TEXT
  8
LAYER_1
 62
     7
 10
0.024091
 20
1.561681
 40
0.099927
  1
15mm rudder horn
 41
1.000000
  7
SN0
 71
     0
 72
     5
 11
1.025043
 21
1.561681
  0
TEXT
  8
LAYER_1
 62
     7
 10
0.024091
 20
1.440000
 40
0.099927
  1
10mm servo horn
 41
1.000000
  7
SN0
 71
     0
 72
     5
 11
0.971276
 21
1.440000
  0
ENDSEC
  0
EOF
