  0
SECTION
  2
HEADER
  9
$ACADVER
  1
AC1006
  9
$EXTMIN
 10
-3.529110
 20
-12.258394
  9
$EXTMAX
 10
3.914083
 20
12.269713
  9
$LTSCALE
 40
0.000394
  9
$PDMODE
 70
    35
  9
$PDSIZE
 40
0.000315
  0
ENDSEC
  0
SECTION
  2
TABLES
  0
TABLE
  2
LTYPE
 70
     9
  0
LTYPE
  2
CONTINUOUS
 70
    64
  3
Solid line
 72
    65
 73
     0
 40
0.000000
  0
LTYPE
  2
DASHED
 70
    64
  3
__ __ __ __ __ __ __ __ __ __ __ __ __ __ __
 72
    65
 73
     2
 40
0.000003
 49
0.000002
 49
-0.000001
  0
LTYPE
  2
HIDDEN
 70
    64
  3
 _ _ _ _ _ _ _ _ _ _ _ _ _ _ _ _ _ _ _ _ _ _
 72
    65
 73
     2
 40
0.000001
 49
0.000001
 49
-0.000000
  0
LTYPE
  2
CENTER
 70
    64
  3
____ _ ____ _ ____ _ ____ _ ____ _ ____ _ ____
 72
    65
 73
     4
 40
0.000008
 49
0.000005
 49
-0.000001
 49
0.000001
 49
-0.000001
  0
LTYPE
  2
PHANTOM
 70
    64
  3
_____ _ _ _____ _ _ _____ _ _ _____ _ _ ____
 72
    65
 73
     6
 40
0.000010
 49
0.000005
 49
-0.000001
 49
0.000001
 49
-0.000001
 49
0.000001
 49
-0.000001
  0
LTYPE
  2
DOT
 70
    64
  3
...............................................
 72
    65
 73
     2
 40
0.000001
 49
0.000000
 49
-0.000001
  0
LTYPE
  2
DASHDOT
 70
    64
  3
__ . __ . __ . __ . __ . __ . __ . __ . __ . __
 72
    65
 73
     4
 40
0.000004
 49
0.000002
 49
-0.000001
 49
0.000000
 49
-0.000001
  0
LTYPE
  2
BORDER
 70
    64
  3
__ __ . __ __ . __ __ . __ __ . __ __ . __ __
 72
    65
 73
     6
 40
0.000007
 49
0.000002
 49
-0.000001
 49
0.000002
 49
-0.000001
 49
0.000000
 49
-0.000001
  0
LTYPE
  2
DIVIDE
 70
    64
  3
__ . . __ . . __ . . __ . . __ . . __ . . __
 72
    65
 73
     6
 40
0.000005
 49
0.000002
 49
-0.000001
 49
0.000000
 49
-0.000001
 49
0.000000
 49
-0.000001
  0
LTYPE
  2
DOTDOT
 70
    64
  3
 . .  . .  . .  . .  . .  . . 
 72
    65
 73
     5
 40
0.000002
 49
-0.000001
 49
0.000000
 49
-0.000001
 49
0.000000
 49
-0.000001
  0
ENDTAB
  0
TABLE
  2
STYLE
 70
     6
  0
STYLE
 70
     0
  2
SN0
 40
0.000000
 41
0.000004
 50
0.000000
 71
     0
 42
0.000000
  3
ROMAND
  0
STYLE
 70
    68
  2
SV0
 40
0.000000
 41
0.000004
 50
0.000000
 71
     0
 42
0.000000
  3
ROMAND
  0
STYLE
 70
     0
  2
SN1
 40
0.000000
 41
0.000004
 50
0.000000
 71
     0
 42
0.000000
  3
ROMAND
  0
STYLE
 70
    68
  2
SV1
 40
0.000000
 41
0.000004
 50
0.000000
 71
     0
 42
0.000000
  3
ROMAND
  0
STYLE
 70
     0
  2
SN2
 40
0.000000
 41
0.000004
 50
0.000000
 71
     0
 42
0.000000
  3
ROMAND
  0
STYLE
 70
    68
  2
SV2
 40
0.000000
 41
0.000004
 50
0.000000
 71
     0
 42
0.000000
  3
ROMAND
  0
ENDTAB
  0
TABLE
  2
LAYER
 70
     3
  0
LAYER
  2
FOREGROUND
 70
    64
 62
     7
  6
CONTINUOUS
  0
LAYER
  2
BACKGROUND
 70
    65
 62
    -7
  6
CONTINUOUS
  0
LAYER
  2
LAYER_1
 70
    64
 62
     7
  6
CONTINUOUS
  0
ENDTAB
  0
ENDSEC
  0
SECTION
  2
ENTITIES
  0
POLYLINE
  8
LAYER_1
 62
     7
  6
CONTINUOUS
 66
     1
 40
0.003000
 41
0.003000
  0
VERTEX
  8
LAYER_1
 62
     7
  6
CONTINUOUS
 10
-2.897791
 20
6.498831
  0
VERTEX
  8
LAYER_1
 62
     7
  6
CONTINUOUS
 10
-2.897834
 20
6.497237
  0
VERTEX
  8
LAYER_1
 62
     7
  6
CONTINUOUS
 10
-2.898132
 20
6.486078
  0
VERTEX
  8
LAYER_1
 62
     7
  6
CONTINUOUS
 10
-2.898941
 20
6.455791
  0
SEQEND
  8
0
  0
POLYLINE
  8
LAYER_1
 62
     7
  6
CONTINUOUS
 66
     1
 40
0.003000
 41
0.003000
  0
VERTEX
  8
LAYER_1
 62
     7
  6
CONTINUOUS
 10
-2.898941
 20
6.455791
  0
VERTEX
  8
LAYER_1
 62
     7
  6
CONTINUOUS
 10
-2.900470
 20
6.399198
  0
VERTEX
  8
LAYER_1
 62
     7
  6
CONTINUOUS
 10
-2.902700
 20
6.318693
  0
VERTEX
  8
LAYER_1
 62
     7
  6
CONTINUOUS
 10
-2.905555
 20
6.219055
  0
SEQEND
  8
0
  0
POLYLINE
  8
LAYER_1
 62
     7
  6
CONTINUOUS
 66
     1
 40
0.003000
 41
0.003000
  0
VERTEX
  8
LAYER_1
 62
     7
  6
CONTINUOUS
 10
-2.905555
 20
6.219055
  0
VERTEX
  8
LAYER_1
 62
     7
  6
CONTINUOUS
 10
-2.908940
 20
6.105068
  0
VERTEX
  8
LAYER_1
 62
     7
  6
CONTINUOUS
 10
-2.912692
 20
5.981516
  0
VERTEX
  8
LAYER_1
 62
     7
  6
CONTINUOUS
 10
-2.916622
 20
5.853177
  0
SEQEND
  8
0
  0
POLYLINE
  8
LAYER_1
 62
     7
  6
CONTINUOUS
 66
     1
 40
0.003000
 41
0.003000
  0
VERTEX
  8
LAYER_1
 62
     7
  6
CONTINUOUS
 10
-2.916622
 20
5.853177
  0
VERTEX
  8
LAYER_1
 62
     7
  6
CONTINUOUS
 10
-2.920591
 20
5.724054
  0
VERTEX
  8
LAYER_1
 62
     7
  6
CONTINUOUS
 10
-2.924558
 20
5.594925
  0
VERTEX
  8
LAYER_1
 62
     7
  6
CONTINUOUS
 10
-2.928528
 20
5.465791
  0
SEQEND
  8
0
  0
POLYLINE
  8
LAYER_1
 62
     7
  6
CONTINUOUS
 66
     1
 40
0.003000
 41
0.003000
  0
VERTEX
  8
LAYER_1
 62
     7
  6
CONTINUOUS
 10
-2.928528
 20
5.465791
  0
VERTEX
  8
LAYER_1
 62
     7
  6
CONTINUOUS
 10
-2.932489
 20
5.336665
  0
VERTEX
  8
LAYER_1
 62
     7
  6
CONTINUOUS
 10
-2.936457
 20
5.207536
  0
VERTEX
  8
LAYER_1
 62
     7
  6
CONTINUOUS
 10
-2.940429
 20
5.078402
  0
SEQEND
  8
0
  0
POLYLINE
  8
LAYER_1
 62
     7
  6
CONTINUOUS
 66
     1
 40
0.003000
 41
0.003000
  0
VERTEX
  8
LAYER_1
 62
     7
  6
CONTINUOUS
 10
-2.940429
 20
5.078402
  0
VERTEX
  8
LAYER_1
 62
     7
  6
CONTINUOUS
 10
-2.944384
 20
4.949273
  0
VERTEX
  8
LAYER_1
 62
     7
  6
CONTINUOUS
 10
-2.948305
 20
4.820141
  0
VERTEX
  8
LAYER_1
 62
     7
  6
CONTINUOUS
 10
-2.952150
 20
4.691012
  0
SEQEND
  8
0
  0
POLYLINE
  8
LAYER_1
 62
     7
  6
CONTINUOUS
 66
     1
 40
0.003000
 41
0.003000
  0
VERTEX
  8
LAYER_1
 62
     7
  6
CONTINUOUS
 10
-2.952150
 20
4.691012
  0
VERTEX
  8
LAYER_1
 62
     7
  6
CONTINUOUS
 10
-2.955912
 20
4.561883
  0
VERTEX
  8
LAYER_1
 62
     7
  6
CONTINUOUS
 10
-2.959634
 20
4.432751
  0
VERTEX
  8
LAYER_1
 62
     7
  6
CONTINUOUS
 10
-2.963386
 20
4.303622
  0
SEQEND
  8
0
  0
POLYLINE
  8
LAYER_1
 62
     7
  6
CONTINUOUS
 66
     1
 40
0.003000
 41
0.003000
  0
VERTEX
  8
LAYER_1
 62
     7
  6
CONTINUOUS
 10
-2.963386
 20
4.303622
  0
VERTEX
  8
LAYER_1
 62
     7
  6
CONTINUOUS
 10
-2.967235
 20
4.174493
  0
VERTEX
  8
LAYER_1
 62
     7
  6
CONTINUOUS
 10
-2.971118
 20
4.045361
  0
VERTEX
  8
LAYER_1
 62
     7
  6
CONTINUOUS
 10
-2.974957
 20
3.916232
  0
SEQEND
  8
0
  0
POLYLINE
  8
LAYER_1
 62
     7
  6
CONTINUOUS
 66
     1
 40
0.003000
 41
0.003000
  0
VERTEX
  8
LAYER_1
 62
     7
  6
CONTINUOUS
 10
-2.974957
 20
3.916232
  0
VERTEX
  8
LAYER_1
 62
     7
  6
CONTINUOUS
 10
-2.978719
 20
3.787105
  0
VERTEX
  8
LAYER_1
 62
     7
  6
CONTINUOUS
 10
-2.982441
 20
3.657974
  0
VERTEX
  8
LAYER_1
 62
     7
  6
CONTINUOUS
 10
-2.986193
 20
3.528846
  0
SEQEND
  8
0
  0
POLYLINE
  8
LAYER_1
 62
     7
  6
CONTINUOUS
 66
     1
 40
0.003000
 41
0.003000
  0
VERTEX
  8
LAYER_1
 62
     7
  6
CONTINUOUS
 10
-2.986193
 20
3.528846
  0
VERTEX
  8
LAYER_1
 62
     7
  6
CONTINUOUS
 10
-2.990033
 20
3.399710
  0
VERTEX
  8
LAYER_1
 62
     7
  6
CONTINUOUS
 10
-2.993872
 20
3.270582
  0
VERTEX
  8
LAYER_1
 62
     7
  6
CONTINUOUS
 10
-2.997594
 20
3.141457
  0
SEQEND
  8
0
  0
POLYLINE
  8
LAYER_1
 62
     7
  6
CONTINUOUS
 66
     1
 40
0.003000
 41
0.003000
  0
VERTEX
  8
LAYER_1
 62
     7
  6
CONTINUOUS
 10
-2.997594
 20
3.141457
  0
VERTEX
  8
LAYER_1
 62
     7
  6
CONTINUOUS
 10
-3.001140
 20
3.012322
  0
VERTEX
  8
LAYER_1
 62
     7
  6
CONTINUOUS
 10
-3.004576
 20
2.883193
  0
VERTEX
  8
LAYER_1
 62
     7
  6
CONTINUOUS
 10
-3.008012
 20
2.754067
  0
SEQEND
  8
0
  0
POLYLINE
  8
LAYER_1
 62
     7
  6
CONTINUOUS
 66
     1
 40
0.003000
 41
0.003000
  0
VERTEX
  8
LAYER_1
 62
     7
  6
CONTINUOUS
 10
-3.008012
 20
2.754067
  0
VERTEX
  8
LAYER_1
 62
     7
  6
CONTINUOUS
 10
-3.011527
 20
2.624939
  0
VERTEX
  8
LAYER_1
 62
     7
  6
CONTINUOUS
 10
-3.015079
 20
2.495854
  0
VERTEX
  8
LAYER_1
 62
     7
  6
CONTINUOUS
 10
-3.018594
 20
2.366846
  0
SEQEND
  8
0
  0
POLYLINE
  8
LAYER_1
 62
     7
  6
CONTINUOUS
 66
     1
 40
0.003000
 41
0.003000
  0
VERTEX
  8
LAYER_1
 62
     7
  6
CONTINUOUS
 10
-3.018594
 20
2.366846
  0
VERTEX
  8
LAYER_1
 62
     7
  6
CONTINUOUS
 10
-3.022009
 20
2.237921
  0
VERTEX
  8
LAYER_1
 62
     7
  6
CONTINUOUS
 10
-3.025354
 20
2.109039
  0
VERTEX
  8
LAYER_1
 62
     7
  6
CONTINUOUS
 10
-3.028665
 20
1.980122
  0
SEQEND
  8
0
  0
POLYLINE
  8
LAYER_1
 62
     7
  6
CONTINUOUS
 66
     1
 40
0.003000
 41
0.003000
  0
VERTEX
  8
LAYER_1
 62
     7
  6
CONTINUOUS
 10
-3.028665
 20
1.980122
  0
VERTEX
  8
LAYER_1
 62
     7
  6
CONTINUOUS
 10
-3.031970
 20
1.851105
  0
VERTEX
  8
LAYER_1
 62
     7
  6
CONTINUOUS
 10
-3.035276
 20
1.722016
  0
VERTEX
  8
LAYER_1
 62
     7
  6
CONTINUOUS
 10
-3.038583
 20
1.592886
  0
SEQEND
  8
0
  0
POLYLINE
  8
LAYER_1
 62
     7
  6
CONTINUOUS
 66
     1
 40
0.003000
 41
0.003000
  0
VERTEX
  8
LAYER_1
 62
     7
  6
CONTINUOUS
 10
-3.038583
 20
1.592886
  0
VERTEX
  8
LAYER_1
 62
     7
  6
CONTINUOUS
 10
-3.041881
 20
1.463768
  0
VERTEX
  8
LAYER_1
 62
     7
  6
CONTINUOUS
 10
-3.045143
 20
1.334683
  0
VERTEX
  8
LAYER_1
 62
     7
  6
CONTINUOUS
 10
-3.048331
 20
1.205665
  0
SEQEND
  8
0
  0
POLYLINE
  8
LAYER_1
 62
     7
  6
CONTINUOUS
 66
     1
 40
0.003000
 41
0.003000
  0
VERTEX
  8
LAYER_1
 62
     7
  6
CONTINUOUS
 10
-3.048331
 20
1.205665
  0
VERTEX
  8
LAYER_1
 62
     7
  6
CONTINUOUS
 10
-3.051417
 20
1.076754
  0
VERTEX
  8
LAYER_1
 62
     7
  6
CONTINUOUS
 10
-3.054397
 20
0.947916
  0
VERTEX
  8
LAYER_1
 62
     7
  6
CONTINUOUS
 10
-3.057264
 20
0.819110
  0
SEQEND
  8
0
  0
POLYLINE
  8
LAYER_1
 62
     7
  6
CONTINUOUS
 66
     1
 40
0.003000
 41
0.003000
  0
VERTEX
  8
LAYER_1
 62
     7
  6
CONTINUOUS
 10
-3.057264
 20
0.819110
  0
VERTEX
  8
LAYER_1
 62
     7
  6
CONTINUOUS
 10
-3.060022
 20
0.690318
  0
VERTEX
  8
LAYER_1
 62
     7
  6
CONTINUOUS
 10
-3.062710
 20
0.561523
  0
VERTEX
  8
LAYER_1
 62
     7
  6
CONTINUOUS
 10
-3.065358
 20
0.432720
  0
SEQEND
  8
0
  0
POLYLINE
  8
LAYER_1
 62
     7
  6
CONTINUOUS
 66
     1
 40
0.003000
 41
0.003000
  0
VERTEX
  8
LAYER_1
 62
     7
  6
CONTINUOUS
 10
-3.065358
 20
0.432720
  0
VERTEX
  8
LAYER_1
 62
     7
  6
CONTINUOUS
 10
-3.067988
 20
0.303922
  0
VERTEX
  8
LAYER_1
 62
     7
  6
CONTINUOUS
 10
-3.070548
 20
0.175084
  0
VERTEX
  8
LAYER_1
 62
     7
  6
CONTINUOUS
 10
-3.072957
 20
0.046165
  0
SEQEND
  8
0
  0
POLYLINE
  8
LAYER_1
 62
     7
  6
CONTINUOUS
 66
     1
 40
0.003000
 41
0.003000
  0
VERTEX
  8
LAYER_1
 62
     7
  6
CONTINUOUS
 10
-3.072957
 20
0.046165
  0
VERTEX
  8
LAYER_1
 62
     7
  6
CONTINUOUS
 10
-3.075177
 20
-0.082829
  0
VERTEX
  8
LAYER_1
 62
     7
  6
CONTINUOUS
 10
-3.077246
 20
-0.211826
  0
VERTEX
  8
LAYER_1
 62
     7
  6
CONTINUOUS
 10
-3.079232
 20
-0.340720
  0
SEQEND
  8
0
  0
POLYLINE
  8
LAYER_1
 62
     7
  6
CONTINUOUS
 66
     1
 40
0.003000
 41
0.003000
  0
VERTEX
  8
LAYER_1
 62
     7
  6
CONTINUOUS
 10
-3.079232
 20
-0.340720
  0
VERTEX
  8
LAYER_1
 62
     7
  6
CONTINUOUS
 10
-3.081207
 20
-0.469413
  0
VERTEX
  8
LAYER_1
 62
     7
  6
CONTINUOUS
 10
-3.083107
 20
-0.597961
  0
VERTEX
  8
LAYER_1
 62
     7
  6
CONTINUOUS
 10
-3.084858
 20
-0.726441
  0
SEQEND
  8
0
  0
POLYLINE
  8
LAYER_1
 62
     7
  6
CONTINUOUS
 66
     1
 40
0.003000
 41
0.003000
  0
VERTEX
  8
LAYER_1
 62
     7
  6
CONTINUOUS
 10
-3.084858
 20
-0.726441
  0
VERTEX
  8
LAYER_1
 62
     7
  6
CONTINUOUS
 10
-3.086400
 20
-0.854895
  0
VERTEX
  8
LAYER_1
 62
     7
  6
CONTINUOUS
 10
-3.087720
 20
-0.983314
  0
VERTEX
  8
LAYER_1
 62
     7
  6
CONTINUOUS
 10
-3.088819
 20
-1.111665
  0
SEQEND
  8
0
  0
POLYLINE
  8
LAYER_1
 62
     7
  6
CONTINUOUS
 66
     1
 40
0.003000
 41
0.003000
  0
VERTEX
  8
LAYER_1
 62
     7
  6
CONTINUOUS
 10
-3.088819
 20
-1.111665
  0
VERTEX
  8
LAYER_1
 62
     7
  6
CONTINUOUS
 10
-3.089697
 20
-1.239889
  0
VERTEX
  8
LAYER_1
 62
     7
  6
CONTINUOUS
 10
-3.090313
 20
-1.367927
  0
VERTEX
  8
LAYER_1
 62
     7
  6
CONTINUOUS
 10
-3.090638
 20
-1.495705
  0
SEQEND
  8
0
  0
POLYLINE
  8
LAYER_1
 62
     7
  6
CONTINUOUS
 66
     1
 40
0.003000
 41
0.003000
  0
VERTEX
  8
LAYER_1
 62
     7
  6
CONTINUOUS
 10
-3.090638
 20
-1.495705
  0
VERTEX
  8
LAYER_1
 62
     7
  6
CONTINUOUS
 10
-3.090619
 20
-1.623168
  0
VERTEX
  8
LAYER_1
 62
     7
  6
CONTINUOUS
 10
-3.090158
 20
-1.750253
  0
VERTEX
  8
LAYER_1
 62
     7
  6
CONTINUOUS
 10
-3.089150
 20
-1.876929
  0
SEQEND
  8
0
  0
POLYLINE
  8
LAYER_1
 62
     7
  6
CONTINUOUS
 66
     1
 40
0.003000
 41
0.003000
  0
VERTEX
  8
LAYER_1
 62
     7
  6
CONTINUOUS
 10
-3.089150
 20
-1.876929
  0
VERTEX
  8
LAYER_1
 62
     7
  6
CONTINUOUS
 10
-3.087490
 20
-2.003133
  0
VERTEX
  8
LAYER_1
 62
     7
  6
CONTINUOUS
 10
-3.085094
 20
-2.128708
  0
VERTEX
  8
LAYER_1
 62
     7
  6
CONTINUOUS
 10
-3.081886
 20
-2.253469
  0
SEQEND
  8
0
  0
POLYLINE
  8
LAYER_1
 62
     7
  6
CONTINUOUS
 66
     1
 40
0.003000
 41
0.003000
  0
VERTEX
  8
LAYER_1
 62
     7
  6
CONTINUOUS
 10
-3.081886
 20
-2.253469
  0
VERTEX
  8
LAYER_1
 62
     7
  6
CONTINUOUS
 10
-3.077759
 20
-2.377207
  0
VERTEX
  8
LAYER_1
 62
     7
  6
CONTINUOUS
 10
-3.072460
 20
-2.499611
  0
VERTEX
  8
LAYER_1
 62
     7
  6
CONTINUOUS
 10
-3.065693
 20
-2.620346
  0
SEQEND
  8
0
  0
POLYLINE
  8
LAYER_1
 62
     7
  6
CONTINUOUS
 66
     1
 40
0.003000
 41
0.003000
  0
VERTEX
  8
LAYER_1
 62
     7
  6
CONTINUOUS
 10
-3.065693
 20
-2.620346
  0
VERTEX
  8
LAYER_1
 62
     7
  6
CONTINUOUS
 10
-3.057194
 20
-2.738825
  0
VERTEX
  8
LAYER_1
 62
     7
  6
CONTINUOUS
 10
-3.046864
 20
-2.853444
  0
VERTEX
  8
LAYER_1
 62
     7
  6
CONTINUOUS
 10
-3.034622
 20
-2.962358
  0
SEQEND
  8
0
  0
POLYLINE
  8
LAYER_1
 62
     7
  6
CONTINUOUS
 66
     1
 40
0.003000
 41
0.003000
  0
VERTEX
  8
LAYER_1
 62
     7
  6
CONTINUOUS
 10
-3.034622
 20
-2.962358
  0
VERTEX
  8
LAYER_1
 62
     7
  6
CONTINUOUS
 10
-3.020520
 20
-3.063628
  0
VERTEX
  8
LAYER_1
 62
     7
  6
CONTINUOUS
 10
-3.005096
 20
-3.154997
  0
VERTEX
  8
LAYER_1
 62
     7
  6
CONTINUOUS
 10
-2.989012
 20
-3.234138
  0
SEQEND
  8
0
  0
POLYLINE
  8
LAYER_1
 62
     7
  6
CONTINUOUS
 66
     1
 40
0.003000
 41
0.003000
  0
VERTEX
  8
LAYER_1
 62
     7
  6
CONTINUOUS
 10
-2.989012
 20
-3.234138
  0
VERTEX
  8
LAYER_1
 62
     7
  6
CONTINUOUS
 10
-2.972861
 20
-3.299396
  0
VERTEX
  8
LAYER_1
 62
     7
  6
CONTINUOUS
 10
-2.956965
 20
-3.351938
  0
VERTEX
  8
LAYER_1
 62
     7
  6
CONTINUOUS
 10
-2.941583
 20
-3.393622
  0
SEQEND
  8
0
  0
POLYLINE
  8
LAYER_1
 62
     7
  6
CONTINUOUS
 66
     1
 40
0.003000
 41
0.003000
  0
VERTEX
  8
LAYER_1
 62
     7
  6
CONTINUOUS
 10
-2.941583
 20
-3.393622
  0
VERTEX
  8
LAYER_1
 62
     7
  6
CONTINUOUS
 10
-2.926891
 20
-3.426253
  0
VERTEX
  8
LAYER_1
 62
     7
  6
CONTINUOUS
 10
-2.912753
 20
-3.451428
  0
VERTEX
  8
LAYER_1
 62
     7
  6
CONTINUOUS
 10
-2.898941
 20
-3.470705
  0
SEQEND
  8
0
  0
POLYLINE
  8
LAYER_1
 62
     7
  6
CONTINUOUS
 66
     1
 40
0.003000
 41
0.003000
  0
VERTEX
  8
LAYER_1
 62
     7
  6
CONTINUOUS
 10
-2.898941
 20
-3.470705
  0
VERTEX
  8
LAYER_1
 62
     7
  6
CONTINUOUS
 10
-2.885279
 20
-3.485430
  0
VERTEX
  8
LAYER_1
 62
     7
  6
CONTINUOUS
 10
-2.871730
 20
-3.496077
  0
VERTEX
  8
LAYER_1
 62
     7
  6
CONTINUOUS
 10
-2.858291
 20
-3.502902
  0
SEQEND
  8
0
  0
POLYLINE
  8
LAYER_1
 62
     7
  6
CONTINUOUS
 66
     1
 40
0.003000
 41
0.003000
  0
VERTEX
  8
LAYER_1
 62
     7
  6
CONTINUOUS
 10
-2.858291
 20
-3.502902
  0
VERTEX
  8
LAYER_1
 62
     7
  6
CONTINUOUS
 10
-2.844945
 20
-3.506142
  0
VERTEX
  8
LAYER_1
 62
     7
  6
CONTINUOUS
 10
-2.831635
 20
-3.505938
  0
VERTEX
  8
LAYER_1
 62
     7
  6
CONTINUOUS
 10
-2.818291
 20
-3.502402
  0
SEQEND
  8
0
  0
POLYLINE
  8
LAYER_1
 62
     7
  6
CONTINUOUS
 66
     1
 40
0.003000
 41
0.003000
  0
VERTEX
  8
LAYER_1
 62
     7
  6
CONTINUOUS
 10
-2.818291
 20
-3.502402
  0
VERTEX
  8
LAYER_1
 62
     7
  6
CONTINUOUS
 10
-2.804855
 20
-3.495550
  0
VERTEX
  8
LAYER_1
 62
     7
  6
CONTINUOUS
 10
-2.791303
 20
-3.485065
  0
VERTEX
  8
LAYER_1
 62
     7
  6
CONTINUOUS
 10
-2.777638
 20
-3.470539
  0
SEQEND
  8
0
  0
POLYLINE
  8
LAYER_1
 62
     7
  6
CONTINUOUS
 66
     1
 40
0.003000
 41
0.003000
  0
VERTEX
  8
LAYER_1
 62
     7
  6
CONTINUOUS
 10
-2.777638
 20
-3.470539
  0
VERTEX
  8
LAYER_1
 62
     7
  6
CONTINUOUS
 10
-2.763833
 20
-3.451379
  0
VERTEX
  8
LAYER_1
 62
     7
  6
CONTINUOUS
 10
-2.749696
 20
-3.426247
  0
VERTEX
  8
LAYER_1
 62
     7
  6
CONTINUOUS
 10
-2.735012
 20
-3.393622
  0
SEQEND
  8
0
  0
POLYLINE
  8
LAYER_1
 62
     7
  6
CONTINUOUS
 66
     1
 40
0.003000
 41
0.003000
  0
VERTEX
  8
LAYER_1
 62
     7
  6
CONTINUOUS
 10
-2.735012
 20
-3.393622
  0
VERTEX
  8
LAYER_1
 62
     7
  6
CONTINUOUS
 10
-2.719628
 20
-3.351932
  0
VERTEX
  8
LAYER_1
 62
     7
  6
CONTINUOUS
 10
-2.703733
 20
-3.299346
  0
VERTEX
  8
LAYER_1
 62
     7
  6
CONTINUOUS
 10
-2.687583
 20
-3.233969
  0
SEQEND
  8
0
  0
POLYLINE
  8
LAYER_1
 62
     7
  6
CONTINUOUS
 66
     1
 40
0.003000
 41
0.003000
  0
VERTEX
  8
LAYER_1
 62
     7
  6
CONTINUOUS
 10
-2.687583
 20
-3.233969
  0
VERTEX
  8
LAYER_1
 62
     7
  6
CONTINUOUS
 10
-2.671497
 20
-3.154624
  0
VERTEX
  8
LAYER_1
 62
     7
  6
CONTINUOUS
 10
-2.656073
 20
-3.063048
  0
VERTEX
  8
LAYER_1
 62
     7
  6
CONTINUOUS
 10
-2.641969
 20
-2.961693
  0
SEQEND
  8
0
  0
POLYLINE
  8
LAYER_1
 62
     7
  6
CONTINUOUS
 66
     1
 40
0.003000
 41
0.003000
  0
VERTEX
  8
LAYER_1
 62
     7
  6
CONTINUOUS
 10
-2.641969
 20
-2.961693
  0
VERTEX
  8
LAYER_1
 62
     7
  6
CONTINUOUS
 10
-2.629726
 20
-2.852871
  0
VERTEX
  8
LAYER_1
 62
     7
  6
CONTINUOUS
 10
-2.619393
 20
-2.738453
  0
VERTEX
  8
LAYER_1
 62
     7
  6
CONTINUOUS
 10
-2.610902
 20
-2.620177
  0
SEQEND
  8
0
  0
POLYLINE
  8
LAYER_1
 62
     7
  6
CONTINUOUS
 66
     1
 40
0.003000
 41
0.003000
  0
VERTEX
  8
LAYER_1
 62
     7
  6
CONTINUOUS
 10
-2.610902
 20
-2.620177
  0
VERTEX
  8
LAYER_1
 62
     7
  6
CONTINUOUS
 10
-2.604126
 20
-2.499560
  0
VERTEX
  8
LAYER_1
 62
     7
  6
CONTINUOUS
 10
-2.598824
 20
-2.377201
  0
VERTEX
  8
LAYER_1
 62
     7
  6
CONTINUOUS
 10
-2.594705
 20
-2.253469
  0
SEQEND
  8
0
  0
POLYLINE
  8
LAYER_1
 62
     7
  6
CONTINUOUS
 66
     1
 40
0.003000
 41
0.003000
  0
VERTEX
  8
LAYER_1
 62
     7
  6
CONTINUOUS
 10
-2.594705
 20
-2.253469
  0
VERTEX
  8
LAYER_1
 62
     7
  6
CONTINUOUS
 10
-2.591495
 20
-2.128702
  0
VERTEX
  8
LAYER_1
 62
     7
  6
CONTINUOUS
 10
-2.589093
 20
-2.003084
  0
VERTEX
  8
LAYER_1
 62
     7
  6
CONTINUOUS
 10
-2.587429
 20
-1.876764
  0
SEQEND
  8
0
  0
POLYLINE
  8
LAYER_1
 62
     7
  6
CONTINUOUS
 66
     1
 40
0.003000
 41
0.003000
  0
VERTEX
  8
LAYER_1
 62
     7
  6
CONTINUOUS
 10
-2.587429
 20
-1.876764
  0
VERTEX
  8
LAYER_1
 62
     7
  6
CONTINUOUS
 10
-2.586420
 20
-1.749884
  0
VERTEX
  8
LAYER_1
 62
     7
  6
CONTINUOUS
 10
-2.585960
 20
-1.622594
  0
VERTEX
  8
LAYER_1
 62
     7
  6
CONTINUOUS
 10
-2.585941
 20
-1.495039
  0
SEQEND
  8
0
  0
POLYLINE
  8
LAYER_1
 62
     7
  6
CONTINUOUS
 66
     1
 40
0.003000
 41
0.003000
  0
VERTEX
  8
LAYER_1
 62
     7
  6
CONTINUOUS
 10
-2.585941
 20
-1.495039
  0
VERTEX
  8
LAYER_1
 62
     7
  6
CONTINUOUS
 10
-2.586269
 20
-1.367352
  0
VERTEX
  8
LAYER_1
 62
     7
  6
CONTINUOUS
 10
-2.586890
 20
-1.239518
  0
VERTEX
  8
LAYER_1
 62
     7
  6
CONTINUOUS
 10
-2.587764
 20
-1.111500
  0
SEQEND
  8
0
  0
POLYLINE
  8
LAYER_1
 62
     7
  6
CONTINUOUS
 66
     1
 40
0.003000
 41
0.003000
  0
VERTEX
  8
LAYER_1
 62
     7
  6
CONTINUOUS
 10
-2.587764
 20
-1.111500
  0
VERTEX
  8
LAYER_1
 62
     7
  6
CONTINUOUS
 10
-2.588864
 20
-0.983259
  0
VERTEX
  8
LAYER_1
 62
     7
  6
CONTINUOUS
 10
-2.590189
 20
-0.854840
  0
VERTEX
  8
LAYER_1
 62
     7
  6
CONTINUOUS
 10
-2.591732
 20
-0.726276
  0
SEQEND
  8
0
  0
POLYLINE
  8
LAYER_1
 62
     7
  6
CONTINUOUS
 66
     1
 40
0.003000
 41
0.003000
  0
VERTEX
  8
LAYER_1
 62
     7
  6
CONTINUOUS
 10
-2.591732
 20
-0.726276
  0
VERTEX
  8
LAYER_1
 62
     7
  6
CONTINUOUS
 10
-2.593481
 20
-0.597592
  0
VERTEX
  8
LAYER_1
 62
     7
  6
CONTINUOUS
 10
-2.595375
 20
-0.468841
  0
VERTEX
  8
LAYER_1
 62
     7
  6
CONTINUOUS
 10
-2.597346
 20
-0.340055
  0
SEQEND
  8
0
  0
POLYLINE
  8
LAYER_1
 62
     7
  6
CONTINUOUS
 66
     1
 40
0.003000
 41
0.003000
  0
VERTEX
  8
LAYER_1
 62
     7
  6
CONTINUOUS
 10
-2.597346
 20
-0.340055
  0
VERTEX
  8
LAYER_1
 62
     7
  6
CONTINUOUS
 10
-2.599344
 20
-0.211253
  0
VERTEX
  8
LAYER_1
 62
     7
  6
CONTINUOUS
 10
-2.601412
 20
-0.082458
  0
VERTEX
  8
LAYER_1
 62
     7
  6
CONTINUOUS
 10
-2.603622
 20
0.046331
  0
SEQEND
  8
0
  0
POLYLINE
  8
LAYER_1
 62
     7
  6
CONTINUOUS
 66
     1
 40
0.003000
 41
0.003000
  0
VERTEX
  8
LAYER_1
 62
     7
  6
CONTINUOUS
 10
-2.603622
 20
0.046331
  0
VERTEX
  8
LAYER_1
 62
     7
  6
CONTINUOUS
 10
-2.606037
 20
0.175133
  0
VERTEX
  8
LAYER_1
 62
     7
  6
CONTINUOUS
 10
-2.608597
 20
0.303929
  0
VERTEX
  8
LAYER_1
 62
     7
  6
CONTINUOUS
 10
-2.611232
 20
0.432720
  0
SEQEND
  8
0
  0
POLYLINE
  8
LAYER_1
 62
     7
  6
CONTINUOUS
 66
     1
 40
0.003000
 41
0.003000
  0
VERTEX
  8
LAYER_1
 62
     7
  6
CONTINUOUS
 10
-2.611232
 20
0.432720
  0
VERTEX
  8
LAYER_1
 62
     7
  6
CONTINUOUS
 10
-2.613880
 20
0.561529
  0
VERTEX
  8
LAYER_1
 62
     7
  6
CONTINUOUS
 10
-2.616565
 20
0.690367
  0
VERTEX
  8
LAYER_1
 62
     7
  6
CONTINUOUS
 10
-2.619331
 20
0.819276
  0
SEQEND
  8
0
  0
POLYLINE
  8
LAYER_1
 62
     7
  6
CONTINUOUS
 66
     1
 40
0.003000
 41
0.003000
  0
VERTEX
  8
LAYER_1
 62
     7
  6
CONTINUOUS
 10
-2.619331
 20
0.819276
  0
VERTEX
  8
LAYER_1
 62
     7
  6
CONTINUOUS
 10
-2.622193
 20
0.948287
  0
VERTEX
  8
LAYER_1
 62
     7
  6
CONTINUOUS
 10
-2.625165
 20
1.077330
  0
VERTEX
  8
LAYER_1
 62
     7
  6
CONTINUOUS
 10
-2.628248
 20
1.206331
  0
SEQEND
  8
0
  0
POLYLINE
  8
LAYER_1
 62
     7
  6
CONTINUOUS
 66
     1
 40
0.003000
 41
0.003000
  0
VERTEX
  8
LAYER_1
 62
     7
  6
CONTINUOUS
 10
-2.628248
 20
1.206331
  0
VERTEX
  8
LAYER_1
 62
     7
  6
CONTINUOUS
 10
-2.631436
 20
1.335256
  0
VERTEX
  8
LAYER_1
 62
     7
  6
CONTINUOUS
 10
-2.634699
 20
1.464141
  0
VERTEX
  8
LAYER_1
 62
     7
  6
CONTINUOUS
 10
-2.638000
 20
1.593067
  0
SEQEND
  8
0
  0
POLYLINE
  8
LAYER_1
 62
     7
  6
CONTINUOUS
 66
     1
 40
0.003000
 41
0.003000
  0
VERTEX
  8
LAYER_1
 62
     7
  6
CONTINUOUS
 10
-2.638000
 20
1.593067
  0
VERTEX
  8
LAYER_1
 62
     7
  6
CONTINUOUS
 10
-2.641304
 20
1.722076
  0
VERTEX
  8
LAYER_1
 62
     7
  6
CONTINUOUS
 10
-2.644609
 20
1.851161
  0
VERTEX
  8
LAYER_1
 62
     7
  6
CONTINUOUS
 10
-2.647913
 20
1.980291
  0
SEQEND
  8
0
  0
POLYLINE
  8
LAYER_1
 62
     7
  6
CONTINUOUS
 66
     1
 40
0.003000
 41
0.003000
  0
VERTEX
  8
LAYER_1
 62
     7
  6
CONTINUOUS
 10
-2.647913
 20
1.980291
  0
VERTEX
  8
LAYER_1
 62
     7
  6
CONTINUOUS
 10
-2.651227
 20
2.109409
  0
VERTEX
  8
LAYER_1
 62
     7
  6
CONTINUOUS
 10
-2.654577
 20
2.238494
  0
VERTEX
  8
LAYER_1
 62
     7
  6
CONTINUOUS
 10
-2.658000
 20
2.367512
  0
SEQEND
  8
0
  0
POLYLINE
  8
LAYER_1
 62
     7
  6
CONTINUOUS
 66
     1
 40
0.003000
 41
0.003000
  0
VERTEX
  8
LAYER_1
 62
     7
  6
CONTINUOUS
 10
-2.658000
 20
2.367512
  0
VERTEX
  8
LAYER_1
 62
     7
  6
CONTINUOUS
 10
-2.661513
 20
2.496427
  0
VERTEX
  8
LAYER_1
 62
     7
  6
CONTINUOUS
 10
-2.665062
 20
2.625309
  0
VERTEX
  8
LAYER_1
 62
     7
  6
CONTINUOUS
 10
-2.668567
 20
2.754232
  0
SEQEND
  8
0
  0
POLYLINE
  8
LAYER_1
 62
     7
  6
CONTINUOUS
 66
     1
 40
0.003000
 41
0.003000
  0
VERTEX
  8
LAYER_1
 62
     7
  6
CONTINUOUS
 10
-2.668567
 20
2.754232
  0
VERTEX
  8
LAYER_1
 62
     7
  6
CONTINUOUS
 10
-2.672003
 20
2.883242
  0
VERTEX
  8
LAYER_1
 62
     7
  6
CONTINUOUS
 10
-2.675438
 20
3.012329
  0
VERTEX
  8
LAYER_1
 62
     7
  6
CONTINUOUS
 10
-2.678984
 20
3.141457
  0
SEQEND
  8
0
  0
POLYLINE
  8
LAYER_1
 62
     7
  6
CONTINUOUS
 66
     1
 40
0.003000
 41
0.003000
  0
VERTEX
  8
LAYER_1
 62
     7
  6
CONTINUOUS
 10
-2.678984
 20
3.141457
  0
VERTEX
  8
LAYER_1
 62
     7
  6
CONTINUOUS
 10
-2.682712
 20
3.270582
  0
VERTEX
  8
LAYER_1
 62
     7
  6
CONTINUOUS
 10
-2.686548
 20
3.399710
  0
VERTEX
  8
LAYER_1
 62
     7
  6
CONTINUOUS
 10
-2.690386
 20
3.528846
  0
SEQEND
  8
0
  0
POLYLINE
  8
LAYER_1
 62
     7
  6
CONTINUOUS
 66
     1
 40
0.003000
 41
0.003000
  0
VERTEX
  8
LAYER_1
 62
     7
  6
CONTINUOUS
 10
-2.690386
 20
3.528846
  0
VERTEX
  8
LAYER_1
 62
     7
  6
CONTINUOUS
 10
-2.694146
 20
3.657974
  0
VERTEX
  8
LAYER_1
 62
     7
  6
CONTINUOUS
 10
-2.697865
 20
3.787105
  0
VERTEX
  8
LAYER_1
 62
     7
  6
CONTINUOUS
 10
-2.701622
 20
3.916232
  0
SEQEND
  8
0
  0
POLYLINE
  8
LAYER_1
 62
     7
  6
CONTINUOUS
 66
     1
 40
0.003000
 41
0.003000
  0
VERTEX
  8
LAYER_1
 62
     7
  6
CONTINUOUS
 10
-2.701622
 20
3.916232
  0
VERTEX
  8
LAYER_1
 62
     7
  6
CONTINUOUS
 10
-2.705468
 20
4.045361
  0
VERTEX
  8
LAYER_1
 62
     7
  6
CONTINUOUS
 10
-2.709347
 20
4.174493
  0
VERTEX
  8
LAYER_1
 62
     7
  6
CONTINUOUS
 10
-2.713193
 20
4.303622
  0
SEQEND
  8
0
  0
POLYLINE
  8
LAYER_1
 62
     7
  6
CONTINUOUS
 66
     1
 40
0.003000
 41
0.003000
  0
VERTEX
  8
LAYER_1
 62
     7
  6
CONTINUOUS
 10
-2.713193
 20
4.303622
  0
VERTEX
  8
LAYER_1
 62
     7
  6
CONTINUOUS
 10
-2.716950
 20
4.432751
  0
VERTEX
  8
LAYER_1
 62
     7
  6
CONTINUOUS
 10
-2.720669
 20
4.561883
  0
VERTEX
  8
LAYER_1
 62
     7
  6
CONTINUOUS
 10
-2.724429
 20
4.691012
  0
SEQEND
  8
0
  0
POLYLINE
  8
LAYER_1
 62
     7
  6
CONTINUOUS
 66
     1
 40
0.003000
 41
0.003000
  0
VERTEX
  8
LAYER_1
 62
     7
  6
CONTINUOUS
 10
-2.724429
 20
4.691012
  0
VERTEX
  8
LAYER_1
 62
     7
  6
CONTINUOUS
 10
-2.728279
 20
4.820141
  0
VERTEX
  8
LAYER_1
 62
     7
  6
CONTINUOUS
 10
-2.732202
 20
4.949273
  0
VERTEX
  8
LAYER_1
 62
     7
  6
CONTINUOUS
 10
-2.736165
 20
5.078402
  0
SEQEND
  8
0
  0
POLYLINE
  8
LAYER_1
 62
     7
  6
CONTINUOUS
 66
     1
 40
0.003000
 41
0.003000
  0
VERTEX
  8
LAYER_1
 62
     7
  6
CONTINUOUS
 10
-2.736165
 20
5.078402
  0
VERTEX
  8
LAYER_1
 62
     7
  6
CONTINUOUS
 10
-2.740127
 20
5.207536
  0
VERTEX
  8
LAYER_1
 62
     7
  6
CONTINUOUS
 10
-2.744095
 20
5.336665
  0
VERTEX
  8
LAYER_1
 62
     7
  6
CONTINUOUS
 10
-2.748067
 20
5.465791
  0
SEQEND
  8
0
  0
POLYLINE
  8
LAYER_1
 62
     7
  6
CONTINUOUS
 66
     1
 40
0.003000
 41
0.003000
  0
VERTEX
  8
LAYER_1
 62
     7
  6
CONTINUOUS
 10
-2.748067
 20
5.465791
  0
VERTEX
  8
LAYER_1
 62
     7
  6
CONTINUOUS
 10
-2.752030
 20
5.594925
  0
VERTEX
  8
LAYER_1
 62
     7
  6
CONTINUOUS
 10
-2.755996
 20
5.724054
  0
VERTEX
  8
LAYER_1
 62
     7
  6
CONTINUOUS
 10
-2.759957
 20
5.853177
  0
SEQEND
  8
0
  0
POLYLINE
  8
LAYER_1
 62
     7
  6
CONTINUOUS
 66
     1
 40
0.003000
 41
0.003000
  0
VERTEX
  8
LAYER_1
 62
     7
  6
CONTINUOUS
 10
-2.759957
 20
5.853177
  0
VERTEX
  8
LAYER_1
 62
     7
  6
CONTINUOUS
 10
-2.763895
 20
5.981516
  0
VERTEX
  8
LAYER_1
 62
     7
  6
CONTINUOUS
 10
-2.767647
 20
6.105068
  0
VERTEX
  8
LAYER_1
 62
     7
  6
CONTINUOUS
 10
-2.771039
 20
6.219055
  0
SEQEND
  8
0
  0
POLYLINE
  8
LAYER_1
 62
     7
  6
CONTINUOUS
 66
     1
 40
0.003000
 41
0.003000
  0
VERTEX
  8
LAYER_1
 62
     7
  6
CONTINUOUS
 10
-2.771039
 20
6.219055
  0
VERTEX
  8
LAYER_1
 62
     7
  6
CONTINUOUS
 10
-2.773888
 20
6.318693
  0
VERTEX
  8
LAYER_1
 62
     7
  6
CONTINUOUS
 10
-2.776112
 20
6.399198
  0
VERTEX
  8
LAYER_1
 62
     7
  6
CONTINUOUS
 10
-2.777638
 20
6.455791
  0
SEQEND
  8
0
  0
POLYLINE
  8
LAYER_1
 62
     7
  6
CONTINUOUS
 66
     1
 40
0.003000
 41
0.003000
  0
VERTEX
  8
LAYER_1
 62
     7
  6
CONTINUOUS
 10
-2.777638
 20
6.455791
  0
VERTEX
  8
LAYER_1
 62
     7
  6
CONTINUOUS
 10
-2.778458
 20
6.486078
  0
VERTEX
  8
LAYER_1
 62
     7
  6
CONTINUOUS
 10
-2.778760
 20
6.497237
  0
VERTEX
  8
LAYER_1
 62
     7
  6
CONTINUOUS
 10
-2.778803
 20
6.498831
  0
SEQEND
  8
0
  0
POLYLINE
  8
LAYER_1
 62
     7
  6
CONTINUOUS
 66
     1
 40
0.003000
 41
0.003000
 70
     1
  0
VERTEX
  8
LAYER_1
 62
     7
  6
CONTINUOUS
 10
-3.090984
 20
-3.507303
  0
VERTEX
  8
LAYER_1
 62
     7
  6
CONTINUOUS
 10
-2.582126
 20
-3.507303
  0
VERTEX
  8
LAYER_1
 62
     7
  6
CONTINUOUS
 10
-2.582126
 20
6.492846
  0
VERTEX
  8
LAYER_1
 62
     7
  6
CONTINUOUS
 10
-3.090984
 20
6.492846
  0
SEQEND
  8
0
  0
POLYLINE
  8
LAYER_1
 62
     7
  6
CONTINUOUS
 66
     1
 40
0.003000
 41
0.003000
  0
VERTEX
  8
LAYER_1
 62
     7
  6
CONTINUOUS
 10
-3.090984
 20
-3.003984
  0
VERTEX
  8
LAYER_1
 62
     7
  6
CONTINUOUS
 10
-2.902929
 20
-3.501776
  0
SEQEND
  8
0
  0
POLYLINE
  8
LAYER_1
 62
     7
  6
CONTINUOUS
 66
     1
 40
0.003000
 41
0.003000
  0
VERTEX
  8
LAYER_1
 62
     7
  6
CONTINUOUS
 10
-3.088220
 20
-2.500650
  0
VERTEX
  8
LAYER_1
 62
     7
  6
CONTINUOUS
 10
-2.972067
 20
-3.507303
  0
SEQEND
  8
0
  0
POLYLINE
  8
LAYER_1
 62
     7
  6
DASHED
 66
     1
 40
0.003000
 41
0.003000
  0
VERTEX
  8
LAYER_1
 62
     7
  6
DASHED
 10
-3.222622
 20
-2.655528
  0
VERTEX
  8
LAYER_1
 62
     7
  6
DASHED
 10
-2.771291
 20
-3.850232
  0
SEQEND
  8
0
  0
POLYLINE
  8
LAYER_1
 62
     7
  6
DASHED
 66
     1
 40
0.003000
 41
0.003000
  0
VERTEX
  8
LAYER_1
 62
     7
  6
DASHED
 10
-3.169528
 20
-1.796000
  0
VERTEX
  8
LAYER_1
 62
     7
  6
DASHED
 10
-2.890764
 20
-4.211957
  0
SEQEND
  8
0
  0
TEXT
  8
LAYER_1
 62
     7
 10
-2.684331
 20
-4.218047
 40
0.100058
  1
2.7:1
 50
90.000660
 41
1.000000
  7
SN0
 71
     0
 72
     5
 11
-2.684331
 21
-3.947012
  0
TEXT
  8
LAYER_1
 62
     7
 10
-2.828134
 20
-4.605220
 40
0.100058
  1
8.5:1
 50
90.000660
 41
1.000000
  7
SN0
 71
     0
 72
     5
 11
-2.828134
 21
-4.334185
  0
POLYLINE
  8
LAYER_1
 62
     7
  6
CONTINUOUS
 66
     1
 40
0.003000
 41
0.003000
  0
VERTEX
  8
LAYER_1
 62
     7
  6
CONTINUOUS
 10
-3.065457
 20
-3.003984
  0
VERTEX
  8
LAYER_1
 62
     7
  6
CONTINUOUS
 10
-3.115791
 20
-3.003984
  0
SEQEND
  8
0
  0
POLYLINE
  8
LAYER_1
 62
     7
  6
CONTINUOUS
 66
     1
 40
0.003000
 41
0.003000
  0
VERTEX
  8
LAYER_1
 62
     7
  6
CONTINUOUS
 10
-3.065457
 20
-2.503413
  0
VERTEX
  8
LAYER_1
 62
     7
  6
CONTINUOUS
 10
-3.115791
 20
-2.503413
  0
SEQEND
  8
0
  0
TEXT
  8
LAYER_1
 62
     7
 10
-3.447724
 20
-3.048228
 40
0.100058
  1
5%
 50
90.000660
 41
1.000000
  7
SN0
 71
     0
 72
     5
 11
-3.447724
 21
-2.872852
  0
TEXT
  8
LAYER_1
 62
     7
 10
-3.439425
 20
-2.591913
 40
0.100058
  1
10%
 50
90.000660
 41
1.000000
  7
SN0
 71
     0
 72
     5
 11
-3.439425
 21
-2.349085
  0
POLYLINE
  8
LAYER_1
 62
     7
  6
CONTINUOUS
 66
     1
 40
0.003000
 41
0.003000
  0
VERTEX
  8
LAYER_1
 62
     7
  6
CONTINUOUS
 10
-3.161831
 20
-3.002594
  0
VERTEX
  8
LAYER_1
 62
     7
  6
CONTINUOUS
 10
-3.392764
 20
-3.002594
  0
SEQEND
  8
0
  0
POLYLINE
  8
LAYER_1
 62
     7
  6
CONTINUOUS
 66
     1
 40
0.003000
 41
0.003000
  0
VERTEX
  8
LAYER_1
 62
     7
  6
CONTINUOUS
 10
-3.161831
 20
-2.503413
  0
VERTEX
  8
LAYER_1
 62
     7
  6
CONTINUOUS
 10
-3.392764
 20
-2.503413
  0
SEQEND
  8
0
  0
SOLID
  8
LAYER_1
  6
CONTINUOUS
 10
-3.360913
 20
-0.645083
 11
-2.343209
 21
-0.645083
 12
-3.360913
 22
6.921402
 13
-2.343209
 23
6.921402
  0
POLYLINE
  8
LAYER_1
  6
CONTINUOUS
 66
     1
 40
0.003000
 41
0.003000
 70
     1
  0
VERTEX
  8
LAYER_1
  6
CONTINUOUS
 10
-3.360913
 20
-0.645083
  0
VERTEX
  8
LAYER_1
  6
CONTINUOUS
 10
-2.343209
 20
-0.645083
  0
VERTEX
  8
LAYER_1
  6
CONTINUOUS
 10
-2.343209
 20
6.921402
  0
VERTEX
  8
LAYER_1
  6
CONTINUOUS
 10
-3.360913
 20
6.921402
  0
SEQEND
  8
0
  0
POLYLINE
  8
LAYER_1
 62
     7
  6
CONTINUOUS
 66
     1
 40
0.011055
 41
0.011055
  0
VERTEX
  8
LAYER_1
 62
     7
  6
CONTINUOUS
 10
2.735291
 20
-0.250150
  0
VERTEX
  8
LAYER_1
 62
     7
  6
CONTINUOUS
 10
2.757484
 20
-11.842193
  0
SEQEND
  8
0
  0
POLYLINE
  8
LAYER_1
 62
     7
  6
CONTINUOUS
 66
     1
 40
0.011055
 41
0.011055
  0
VERTEX
  8
LAYER_1
 62
     7
  6
CONTINUOUS
 10
0.686386
 20
-11.864386
  0
VERTEX
  8
LAYER_1
 62
     7
  6
CONTINUOUS
 10
-0.766776
 20
0.004984
  0
SEQEND
  8
0
  0
POLYLINE
  8
LAYER_1
 62
     7
  6
CONTINUOUS
 66
     1
 40
0.011055
 41
0.011055
  0
VERTEX
  8
LAYER_1
 62
     7
  6
CONTINUOUS
 10
0.115083
 20
-7.016791
  0
VERTEX
  8
LAYER_1
 62
     7
  6
CONTINUOUS
 10
0.115083
 20
0.004969
  0
SEQEND
  8
0
  0
POLYLINE
  8
LAYER_1
 62
     7
  6
CONTINUOUS
 66
     1
 40
0.003000
 41
0.003000
  0
VERTEX
  8
LAYER_1
 62
     7
  6
CONTINUOUS
 10
-0.131610
 20
3.356039
  0
VERTEX
  8
LAYER_1
 62
     7
  6
CONTINUOUS
 10
-0.131610
 20
1.958346
  0
SEQEND
  8
0
  0
POLYLINE
  8
LAYER_1
 62
     7
  6
CONTINUOUS
 66
     1
 40
0.003000
 41
0.003000
  0
VERTEX
  8
LAYER_1
 62
     7
  6
CONTINUOUS
 10
-0.159264
 20
3.245429
  0
VERTEX
  8
LAYER_1
 62
     7
  6
CONTINUOUS
 10
-0.131610
 20
3.356039
  0
VERTEX
  8
LAYER_1
 62
     7
  6
CONTINUOUS
 10
-0.103941
 20
3.245429
  0
SEQEND
  8
0
  0
POLYLINE
  8
LAYER_1
 62
     7
  6
CONTINUOUS
 66
     1
 40
0.003000
 41
0.003000
  0
VERTEX
  8
LAYER_1
 62
     7
  6
CONTINUOUS
 10
-0.103941
 20
2.068969
  0
VERTEX
  8
LAYER_1
 62
     7
  6
CONTINUOUS
 10
-0.131610
 20
1.958346
  0
VERTEX
  8
LAYER_1
 62
     7
  6
CONTINUOUS
 10
-0.159264
 20
2.068969
  0
SEQEND
  8
0
  0
POLYLINE
  8
LAYER_1
 62
     7
  6
CONTINUOUS
 66
     1
 40
0.003000
 41
0.003000
  0
VERTEX
  8
LAYER_1
 62
     7
  6
CONTINUOUS
 10
-0.948402
 20
3.309929
  0
VERTEX
  8
LAYER_1
 62
     7
  6
CONTINUOUS
 10
-0.948402
 20
1.691539
  0
SEQEND
  8
0
  0
POLYLINE
  8
LAYER_1
 62
     7
  6
CONTINUOUS
 66
     1
 40
0.003000
 41
0.003000
  0
VERTEX
  8
LAYER_1
 62
     7
  6
CONTINUOUS
 10
-0.976055
 20
3.199303
  0
VERTEX
  8
LAYER_1
 62
     7
  6
CONTINUOUS
 10
-0.948402
 20
3.309929
  0
VERTEX
  8
LAYER_1
 62
     7
  6
CONTINUOUS
 10
-0.920748
 20
3.199303
  0
SEQEND
  8
0
  0
POLYLINE
  8
LAYER_1
 62
     7
  6
CONTINUOUS
 66
     1
 40
0.003000
 41
0.003000
  0
VERTEX
  8
LAYER_1
 62
     7
  6
CONTINUOUS
 10
-0.920748
 20
1.802165
  0
VERTEX
  8
LAYER_1
 62
     7
  6
CONTINUOUS
 10
-0.948402
 20
1.691539
  0
VERTEX
  8
LAYER_1
 62
     7
  6
CONTINUOUS
 10
-0.976055
 20
1.802165
  0
SEQEND
  8
0
  0
POLYLINE
  8
LAYER_1
 62
     7
  6
CONTINUOUS
 66
     1
 40
0.011055
 41
0.011055
  0
VERTEX
  8
LAYER_1
 62
     7
  6
CONTINUOUS
 10
3.250220
 20
-12.258177
  0
VERTEX
  8
LAYER_1
 62
     7
  6
CONTINUOUS
 10
3.749402
 20
-0.000567
  0
SEQEND
  8
0
  0
POLYLINE
  8
LAYER_1
 62
     7
  6
CONTINUOUS
 66
     1
 40
0.011055
 41
0.011055
  0
VERTEX
  8
LAYER_1
 62
     7
  6
CONTINUOUS
 10
-0.766791
 20
-6.018441
  0
VERTEX
  8
LAYER_1
 62
     7
  6
CONTINUOUS
 10
-0.766791
 20
-0.028291
  0
SEQEND
  8
0
  0
POLYLINE
  8
LAYER_1
 62
     7
  6
CONTINUOUS
 66
     1
 40
0.011055
 41
0.011055
  0
VERTEX
  8
LAYER_1
 62
     7
  6
CONTINUOUS
 10
-0.110913
 20
-9.939764
  0
VERTEX
  8
LAYER_1
 62
     7
  6
CONTINUOUS
 10
-1.752665
 20
-0.011677
  0
SEQEND
  8
0
  0
POLYLINE
  8
LAYER_1
 62
     7
  6
DASHED
 66
     1
 40
0.003000
 41
0.003000
  0
VERTEX
  8
LAYER_1
 62
     7
  6
DASHED
 10
1.270232
 20
4.000969
  0
VERTEX
  8
LAYER_1
 62
     7
  6
DASHED
 10
2.279693
 20
4.000969
  0
SEQEND
  8
0
  0
POLYLINE
  8
LAYER_1
 62
     7
  6
CONTINUOUS
 66
     1
 40
0.011055
 41
0.011055
  0
VERTEX
  8
LAYER_1
 62
     7
  6
CONTINUOUS
 10
0.686386
 20
11.875638
  0
VERTEX
  8
LAYER_1
 62
     7
  6
CONTINUOUS
 10
-0.766776
 20
0.006276
  0
SEQEND
  8
0
  0
POLYLINE
  8
LAYER_1
 62
     7
  6
CONTINUOUS
 66
     1
 40
0.011055
 41
0.011055
  0
VERTEX
  8
LAYER_1
 62
     7
  6
CONTINUOUS
 10
0.115083
 20
7.028067
  0
VERTEX
  8
LAYER_1
 62
     7
  6
CONTINUOUS
 10
0.115083
 20
0.006291
  0
SEQEND
  8
0
  0
POLYLINE
  8
LAYER_1
 62
     7
  6
CONTINUOUS
 66
     1
 40
0.011055
 41
0.011055
  0
VERTEX
  8
LAYER_1
 62
     7
  6
CONTINUOUS
 10
3.250220
 20
12.269496
  0
VERTEX
  8
LAYER_1
 62
     7
  6
CONTINUOUS
 10
3.749402
 20
0.011886
  0
SEQEND
  8
0
  0
POLYLINE
  8
LAYER_1
 62
     7
  6
CONTINUOUS
 66
     1
 40
0.011055
 41
0.011055
  0
VERTEX
  8
LAYER_1
 62
     7
  6
CONTINUOUS
 10
-0.766791
 20
6.029720
  0
VERTEX
  8
LAYER_1
 62
     7
  6
CONTINUOUS
 10
-0.766791
 20
0.039567
  0
SEQEND
  8
0
  0
POLYLINE
  8
LAYER_1
 62
     7
  6
CONTINUOUS
 66
     1
 40
0.011055
 41
0.011055
  0
VERTEX
  8
LAYER_1
 62
     7
  6
CONTINUOUS
 10
-0.110913
 20
9.951083
  0
VERTEX
  8
LAYER_1
 62
     7
  6
CONTINUOUS
 10
-1.752665
 20
0.023000
  0
SEQEND
  8
0
  0
POLYLINE
  8
LAYER_1
 62
     7
  6
CONTINUOUS
 66
     1
 40
0.003000
 41
0.003000
  0
VERTEX
  8
LAYER_1
 62
     7
  6
CONTINUOUS
 10
-0.365165
 20
5.240429
  0
VERTEX
  8
LAYER_1
 62
     7
  6
CONTINUOUS
 10
-0.550193
 20
3.757386
  0
SEQEND
  8
0
  0
POLYLINE
  8
LAYER_1
 62
     7
  6
CONTINUOUS
 66
     1
 40
0.003000
 41
0.003000
  0
VERTEX
  8
LAYER_1
 62
     7
  6
CONTINUOUS
 10
-0.406303
 20
5.134083
  0
VERTEX
  8
LAYER_1
 62
     7
  6
CONTINUOUS
 10
-0.365165
 20
5.240429
  0
VERTEX
  8
LAYER_1
 62
     7
  6
CONTINUOUS
 10
-0.351413
 20
5.127232
  0
SEQEND
  8
0
  0
POLYLINE
  8
LAYER_1
 62
     7
  6
CONTINUOUS
 66
     1
 40
0.003000
 41
0.003000
  0
VERTEX
  8
LAYER_1
 62
     7
  6
CONTINUOUS
 10
-0.509055
 20
3.863732
  0
VERTEX
  8
LAYER_1
 62
     7
  6
CONTINUOUS
 10
-0.550193
 20
3.757386
  0
VERTEX
  8
LAYER_1
 62
     7
  6
CONTINUOUS
 10
-0.563929
 20
3.870583
  0
SEQEND
  8
0
  0
POLYLINE
  8
LAYER_1
 62
     7
  6
DASHED
 66
     1
 40
0.003000
 41
0.003000
 70
     1
  0
VERTEX
  8
LAYER_1
 62
     7
  6
DASHED
 10
0.058886
 20
0.432500
  0
VERTEX
  8
LAYER_1
 62
     7
  6
DASHED
 10
0.096217
 20
0.432500
  0
VERTEX
  8
LAYER_1
 62
     7
  6
DASHED
 10
0.096217
 20
0.732138
  0
VERTEX
  8
LAYER_1
 62
     7
  6
DASHED
 10
0.058886
 20
0.732138
  0
SEQEND
  8
0
  0
POLYLINE
  8
LAYER_1
 62
     7
  6
DASHED
 66
     1
 40
0.003000
 41
0.003000
 70
     1
  0
VERTEX
  8
LAYER_1
 62
     7
  6
DASHED
 10
0.058886
 20
-0.718772
  0
VERTEX
  8
LAYER_1
 62
     7
  6
DASHED
 10
0.096217
 20
-0.718772
  0
VERTEX
  8
LAYER_1
 62
     7
  6
DASHED
 10
0.096217
 20
-0.419134
  0
VERTEX
  8
LAYER_1
 62
     7
  6
DASHED
 10
0.058886
 20
-0.419134
  0
SEQEND
  8
0
  0
SOLID
  8
LAYER_1
  6
CONTINUOUS
 10
0.040819
 20
0.578150
 11
0.117429
 21
0.578150
 12
0.040819
 22
0.637106
 13
0.117429
 23
0.637106
  0
POLYLINE
  8
LAYER_1
  6
CONTINUOUS
 66
     1
 40
0.003000
 41
0.003000
 70
     1
  0
VERTEX
  8
LAYER_1
  6
CONTINUOUS
 10
0.040819
 20
0.578150
  0
VERTEX
  8
LAYER_1
  6
CONTINUOUS
 10
0.117429
 20
0.578150
  0
VERTEX
  8
LAYER_1
  6
CONTINUOUS
 10
0.117429
 20
0.637106
  0
VERTEX
  8
LAYER_1
  6
CONTINUOUS
 10
0.040819
 20
0.637106
  0
SEQEND
  8
0
  0
POLYLINE
  8
LAYER_1
 62
     7
  6
DASHED
 66
     1
 40
0.003000
 41
0.003000
 70
     1
  0
VERTEX
  8
LAYER_1
 62
     7
  6
DASHED
 10
0.040819
 20
0.578150
  0
VERTEX
  8
LAYER_1
 62
     7
  6
DASHED
 10
0.117429
 20
0.578150
  0
VERTEX
  8
LAYER_1
 62
     7
  6
DASHED
 10
0.117429
 20
0.637106
  0
VERTEX
  8
LAYER_1
 62
     7
  6
DASHED
 10
0.040819
 20
0.637106
  0
SEQEND
  8
0
  0
SOLID
  8
LAYER_1
  6
CONTINUOUS
 10
0.040819
 20
-0.618205
 11
0.117429
 21
-0.618205
 12
0.040819
 22
-0.559248
 13
0.117429
 23
-0.559248
  0
POLYLINE
  8
LAYER_1
  6
CONTINUOUS
 66
     1
 40
0.003000
 41
0.003000
 70
     1
  0
VERTEX
  8
LAYER_1
  6
CONTINUOUS
 10
0.040819
 20
-0.618205
  0
VERTEX
  8
LAYER_1
  6
CONTINUOUS
 10
0.117429
 20
-0.618205
  0
VERTEX
  8
LAYER_1
  6
CONTINUOUS
 10
0.117429
 20
-0.559248
  0
VERTEX
  8
LAYER_1
  6
CONTINUOUS
 10
0.040819
 20
-0.559248
  0
SEQEND
  8
0
  0
POLYLINE
  8
LAYER_1
 62
     7
  6
DASHED
 66
     1
 40
0.003000
 41
0.003000
 70
     1
  0
VERTEX
  8
LAYER_1
 62
     7
  6
DASHED
 10
0.040819
 20
-0.618205
  0
VERTEX
  8
LAYER_1
 62
     7
  6
DASHED
 10
0.117429
 20
-0.618205
  0
VERTEX
  8
LAYER_1
 62
     7
  6
DASHED
 10
0.117429
 20
-0.559248
  0
VERTEX
  8
LAYER_1
 62
     7
  6
DASHED
 10
0.040819
 20
-0.559248
  0
SEQEND
  8
0
  0
SOLID
  8
LAYER_1
  6
CONTINUOUS
 10
0.031913
 20
-0.706205
 11
0.126496
 21
-0.706205
 12
0.031913
 22
-0.634028
 13
0.126496
 23
-0.634028
  0
POLYLINE
  8
LAYER_1
  6
CONTINUOUS
 66
     1
 40
0.003000
 41
0.003000
 70
     1
  0
VERTEX
  8
LAYER_1
  6
CONTINUOUS
 10
0.031913
 20
-0.706205
  0
VERTEX
  8
LAYER_1
  6
CONTINUOUS
 10
0.126496
 20
-0.706205
  0
VERTEX
  8
LAYER_1
  6
CONTINUOUS
 10
0.126496
 20
-0.634028
  0
VERTEX
  8
LAYER_1
  6
CONTINUOUS
 10
0.031913
 20
-0.634028
  0
SEQEND
  8
0
  0
POLYLINE
  8
LAYER_1
 62
     7
  6
DASHED
 66
     1
 40
0.003000
 41
0.003000
 70
     1
  0
VERTEX
  8
LAYER_1
 62
     7
  6
DASHED
 10
0.031913
 20
-0.706205
  0
VERTEX
  8
LAYER_1
 62
     7
  6
DASHED
 10
0.126496
 20
-0.706205
  0
VERTEX
  8
LAYER_1
 62
     7
  6
DASHED
 10
0.126496
 20
-0.634028
  0
VERTEX
  8
LAYER_1
 62
     7
  6
DASHED
 10
0.031913
 20
-0.634028
  0
SEQEND
  8
0
  0
SOLID
  8
LAYER_1
  6
CONTINUOUS
 10
0.031913
 20
0.647791
 11
0.126496
 21
0.647791
 12
0.031913
 22
0.719969
 13
0.126496
 23
0.719969
  0
POLYLINE
  8
LAYER_1
  6
CONTINUOUS
 66
     1
 40
0.003000
 41
0.003000
 70
     1
  0
VERTEX
  8
LAYER_1
  6
CONTINUOUS
 10
0.031913
 20
0.647791
  0
VERTEX
  8
LAYER_1
  6
CONTINUOUS
 10
0.126496
 20
0.647791
  0
VERTEX
  8
LAYER_1
  6
CONTINUOUS
 10
0.126496
 20
0.719969
  0
VERTEX
  8
LAYER_1
  6
CONTINUOUS
 10
0.031913
 20
0.719969
  0
SEQEND
  8
0
  0
POLYLINE
  8
LAYER_1
 62
     7
  6
DASHED
 66
     1
 40
0.003000
 41
0.003000
 70
     1
  0
VERTEX
  8
LAYER_1
 62
     7
  6
DASHED
 10
0.031913
 20
0.647791
  0
VERTEX
  8
LAYER_1
 62
     7
  6
DASHED
 10
0.126496
 20
0.647791
  0
VERTEX
  8
LAYER_1
 62
     7
  6
DASHED
 10
0.126496
 20
0.719969
  0
VERTEX
  8
LAYER_1
 62
     7
  6
DASHED
 10
0.031913
 20
0.719969
  0
SEQEND
  8
0
  0
SOLID
  8
LAYER_1
  6
CONTINUOUS
 10
0.031902
 20
0.566886
 11
0.126484
 21
0.566886
 12
0.031902
 22
0.422528
 13
0.126484
 23
0.497193
  0
POLYLINE
  8
LAYER_1
  6
CONTINUOUS
 66
     1
 40
0.003000
 41
0.003000
 70
     1
  0
VERTEX
  8
LAYER_1
  6
CONTINUOUS
 10
0.031902
 20
0.566886
  0
VERTEX
  8
LAYER_1
  6
CONTINUOUS
 10
0.126484
 20
0.566886
  0
VERTEX
  8
LAYER_1
  6
CONTINUOUS
 10
0.126484
 20
0.497193
  0
VERTEX
  8
LAYER_1
  6
CONTINUOUS
 10
0.031902
 20
0.422528
  0
SEQEND
  8
0
  0
POLYLINE
  8
LAYER_1
 62
     7
  6
DASHED
 66
     1
 40
0.003000
 41
0.003000
 70
     1
  0
VERTEX
  8
LAYER_1
 62
     7
  6
DASHED
 10
0.031902
 20
0.566886
  0
VERTEX
  8
LAYER_1
 62
     7
  6
DASHED
 10
0.126484
 20
0.566886
  0
VERTEX
  8
LAYER_1
 62
     7
  6
DASHED
 10
0.126484
 20
0.497193
  0
VERTEX
  8
LAYER_1
 62
     7
  6
DASHED
 10
0.031902
 20
0.422528
  0
SEQEND
  8
0
  0
SOLID
  8
LAYER_1
  6
CONTINUOUS
 10
0.031902
 20
-0.402567
 11
0.126484
 21
-0.469764
 12
0.031902
 22
-0.541941
 13
0.126484
 23
-0.541941
  0
POLYLINE
  8
LAYER_1
  6
CONTINUOUS
 66
     1
 40
0.003000
 41
0.003000
 70
     1
  0
VERTEX
  8
LAYER_1
  6
CONTINUOUS
 10
0.031902
 20
-0.402567
  0
VERTEX
  8
LAYER_1
  6
CONTINUOUS
 10
0.126484
 20
-0.469764
  0
VERTEX
  8
LAYER_1
  6
CONTINUOUS
 10
0.126484
 20
-0.541941
  0
VERTEX
  8
LAYER_1
  6
CONTINUOUS
 10
0.031902
 20
-0.541941
  0
SEQEND
  8
0
  0
POLYLINE
  8
LAYER_1
 62
     7
  6
DASHED
 66
     1
 40
0.003000
 41
0.003000
 70
     1
  0
VERTEX
  8
LAYER_1
 62
     7
  6
DASHED
 10
0.031902
 20
-0.402567
  0
VERTEX
  8
LAYER_1
 62
     7
  6
DASHED
 10
0.126484
 20
-0.469764
  0
VERTEX
  8
LAYER_1
 62
     7
  6
DASHED
 10
0.126484
 20
-0.541941
  0
VERTEX
  8
LAYER_1
 62
     7
  6
DASHED
 10
0.031902
 20
-0.541941
  0
SEQEND
  8
0
  0
TEXT
  8
LAYER_1
 62
     7
 10
-2.048457
 20
0.152898
 40
0.120294
  1
68 lb balsa throughout,
 50
90.000660
 41
1.000000
  7
SN0
 71
     0
 72
     5
 11
-2.048457
 21
1.652791
  0
TEXT
  8
LAYER_1
 62
     7
 10
-1.901327
 20
0.152898
 40
0.120294
  1
except where noted
 50
90.000660
 41
1.000000
  7
SN0
 71
     0
 72
     5
 11
-1.901327
 21
1.435718
  0
POLYLINE
  8
LAYER_1
 62
     7
  6
CONTINUOUS
 66
     1
 40
0.006268
 41
0.006268
 70
     1
  0
VERTEX
  8
LAYER_1
 62
     7
  6
CONTINUOUS
 10
0.110941
 20
-1.620122
  0
VERTEX
  8
LAYER_1
 62
     7
  6
CONTINUOUS
 10
-0.399331
 20
-0.000567
  0
VERTEX
  8
LAYER_1
 62
     7
  6
CONTINUOUS
 10
0.110941
 20
1.630083
  0
SEQEND
  8
0
  0
TEXT
  8
LAYER_1
 62
     7
 10
-1.013134
 20
2.369197
 40
0.094437
  1
grain
 50
90.000660
 41
1.000000
  7
SN0
 71
     0
 72
     5
 11
-1.013134
 21
2.624289
  0
POLYLINE
  8
LAYER_1
 62
     7
  6
CONTINUOUS
 66
     1
 40
0.003000
 41
0.003000
  0
VERTEX
  8
LAYER_1
 62
     7
  6
CONTINUOUS
 10
0.346902
 20
0.762831
  0
VERTEX
  8
LAYER_1
 62
     7
  6
CONTINUOUS
 10
0.702969
 20
0.403358
  0
SEQEND
  8
0
  0
POLYLINE
  8
LAYER_1
 62
     7
  6
CONTINUOUS
 66
     1
 40
0.003000
 41
0.003000
  0
VERTEX
  8
LAYER_1
 62
     7
  6
CONTINUOUS
 10
0.405094
 20
0.664776
  0
VERTEX
  8
LAYER_1
 62
     7
  6
CONTINUOUS
 10
0.346902
 20
0.762831
  0
VERTEX
  8
LAYER_1
 62
     7
  6
CONTINUOUS
 10
0.444402
 20
0.703705
  0
SEQEND
  8
0
  0
POLYLINE
  8
LAYER_1
 62
     7
  6
CONTINUOUS
 66
     1
 40
0.003000
 41
0.003000
  0
VERTEX
  8
LAYER_1
 62
     7
  6
CONTINUOUS
 10
0.644776
 20
0.501413
  0
VERTEX
  8
LAYER_1
 62
     7
  6
CONTINUOUS
 10
0.702984
 20
0.403358
  0
VERTEX
  8
LAYER_1
 62
     7
  6
CONTINUOUS
 10
0.605484
 20
0.462500
  0
SEQEND
  8
0
  0
TEXT
  8
LAYER_1
 62
     7
 10
-0.339929
 20
1.413551
 40
0.094437
  1
hard balsa
 50
90.000660
 41
1.000000
  7
SN0
 71
     0
 72
     5
 11
-0.339929
 21
1.949490
  0
POLYLINE
  8
LAYER_1
 62
     7
  6
CONTINUOUS
 66
     1
 40
0.011055
 41
0.011055
  0
VERTEX
  8
LAYER_1
 62
     7
  6
CONTINUOUS
 10
-0.109374
 20
0.003886
  0
VERTEX
  8
LAYER_1
 62
     7
  6
CONTINUOUS
 10
-0.116555
 20
0.030411
  0
VERTEX
  8
LAYER_1
 62
     7
  6
CONTINUOUS
 10
-0.135418
 20
0.049275
  0
VERTEX
  8
LAYER_1
 62
     7
  6
CONTINUOUS
 10
-0.161941
 20
0.056457
  0
SEQEND
  8
0
  0
POLYLINE
  8
LAYER_1
 62
     7
  6
CONTINUOUS
 66
     1
 40
0.011055
 41
0.011055
  0
VERTEX
  8
LAYER_1
 62
     7
  6
CONTINUOUS
 10
-0.161941
 20
0.056457
  0
VERTEX
  8
LAYER_1
 62
     7
  6
CONTINUOUS
 10
-0.188466
 20
0.049275
  0
VERTEX
  8
LAYER_1
 62
     7
  6
CONTINUOUS
 10
-0.207330
 20
0.030411
  0
VERTEX
  8
LAYER_1
 62
     7
  6
CONTINUOUS
 10
-0.214512
 20
0.003886
  0
SEQEND
  8
0
  0
POLYLINE
  8
LAYER_1
 62
     7
  6
CONTINUOUS
 66
     1
 40
0.011055
 41
0.011055
  0
VERTEX
  8
LAYER_1
 62
     7
  6
CONTINUOUS
 10
-0.214512
 20
0.003886
  0
VERTEX
  8
LAYER_1
 62
     7
  6
CONTINUOUS
 10
-0.207330
 20
-0.022634
  0
VERTEX
  8
LAYER_1
 62
     7
  6
CONTINUOUS
 10
-0.188466
 20
-0.041496
  0
VERTEX
  8
LAYER_1
 62
     7
  6
CONTINUOUS
 10
-0.161941
 20
-0.048677
  0
SEQEND
  8
0
  0
POLYLINE
  8
LAYER_1
 62
     7
  6
CONTINUOUS
 66
     1
 40
0.011055
 41
0.011055
  0
VERTEX
  8
LAYER_1
 62
     7
  6
CONTINUOUS
 10
-0.161941
 20
-0.048677
  0
VERTEX
  8
LAYER_1
 62
     7
  6
CONTINUOUS
 10
-0.135418
 20
-0.041496
  0
VERTEX
  8
LAYER_1
 62
     7
  6
CONTINUOUS
 10
-0.116555
 20
-0.022634
  0
VERTEX
  8
LAYER_1
 62
     7
  6
CONTINUOUS
 10
-0.109374
 20
0.003886
  0
SEQEND
  8
0
  0
POLYLINE
  8
LAYER_1
 62
     7
  6
DASHED
 66
     1
 40
0.003000
 41
0.003000
  0
VERTEX
  8
LAYER_1
 62
     7
  6
DASHED
 10
0.029638
 20
0.719539
  0
VERTEX
  8
LAYER_1
 62
     7
  6
DASHED
 10
0.028870
 20
0.719524
  0
VERTEX
  8
LAYER_1
 62
     7
  6
DASHED
 10
0.023494
 20
0.719420
  0
VERTEX
  8
LAYER_1
 62
     7
  6
DASHED
 10
0.008902
 20
0.719138
  0
SEQEND
  8
0
  0
POLYLINE
  8
LAYER_1
 62
     7
  6
DASHED
 66
     1
 40
0.003000
 41
0.003000
  0
VERTEX
  8
LAYER_1
 62
     7
  6
DASHED
 10
0.008902
 20
0.719138
  0
VERTEX
  8
LAYER_1
 62
     7
  6
DASHED
 10
-0.017735
 20
0.718536
  0
VERTEX
  8
LAYER_1
 62
     7
  6
DASHED
 10
-0.052120
 20
0.717382
  0
VERTEX
  8
LAYER_1
 62
     7
  6
DASHED
 10
-0.088165
 20
0.715402
  0
SEQEND
  8
0
  0
POLYLINE
  8
LAYER_1
 62
     7
  6
DASHED
 66
     1
 40
0.003000
 41
0.003000
  0
VERTEX
  8
LAYER_1
 62
     7
  6
DASHED
 10
-0.088165
 20
0.715402
  0
VERTEX
  8
LAYER_1
 62
     7
  6
DASHED
 10
-0.121076
 20
0.711914
  0
VERTEX
  8
LAYER_1
 62
     7
  6
DASHED
 10
-0.151222
 20
0.704647
  0
VERTEX
  8
LAYER_1
 62
     7
  6
DASHED
 10
-0.180264
 20
0.690929
  0
SEQEND
  8
0
  0
POLYLINE
  8
LAYER_1
 62
     7
  6
DASHED
 66
     1
 40
0.003000
 41
0.003000
  0
VERTEX
  8
LAYER_1
 62
     7
  6
DASHED
 10
-0.180264
 20
0.690929
  0
VERTEX
  8
LAYER_1
 62
     7
  6
DASHED
 10
-0.209511
 20
0.668030
  0
VERTEX
  8
LAYER_1
 62
     7
  6
DASHED
 10
-0.238949
 20
0.633060
  0
VERTEX
  8
LAYER_1
 62
     7
  6
DASHED
 10
-0.268205
 20
0.583067
  0
SEQEND
  8
0
  0
POLYLINE
  8
LAYER_1
 62
     7
  6
DASHED
 66
     1
 40
0.003000
 41
0.003000
  0
VERTEX
  8
LAYER_1
 62
     7
  6
DASHED
 10
-0.268205
 20
0.583067
  0
VERTEX
  8
LAYER_1
 62
     7
  6
DASHED
 10
-0.296744
 20
0.516390
  0
VERTEX
  8
LAYER_1
 62
     7
  6
DASHED
 10
-0.323444
 20
0.436527
  0
VERTEX
  8
LAYER_1
 62
     7
  6
DASHED
 10
-0.347012
 20
0.348276
  0
SEQEND
  8
0
  0
POLYLINE
  8
LAYER_1
 62
     7
  6
DASHED
 66
     1
 40
0.003000
 41
0.003000
  0
VERTEX
  8
LAYER_1
 62
     7
  6
DASHED
 10
-0.347012
 20
0.348276
  0
VERTEX
  8
LAYER_1
 62
     7
  6
DASHED
 10
-0.366350
 20
0.256850
  0
VERTEX
  8
LAYER_1
 62
     7
  6
DASHED
 10
-0.381125
 20
0.169155
  0
VERTEX
  8
LAYER_1
 62
     7
  6
DASHED
 10
-0.391193
 20
0.092528
  0
SEQEND
  8
0
  0
POLYLINE
  8
LAYER_1
 62
     7
  6
DASHED
 66
     1
 40
0.003000
 41
0.003000
  0
VERTEX
  8
LAYER_1
 62
     7
  6
DASHED
 10
-0.391193
 20
0.092528
  0
VERTEX
  8
LAYER_1
 62
     7
  6
DASHED
 10
-0.396430
 20
0.031018
  0
VERTEX
  8
LAYER_1
 62
     7
  6
DASHED
 10
-0.396685
 20
-0.024407
  0
VERTEX
  8
LAYER_1
 62
     7
  6
DASHED
 10
-0.391819
 20
-0.086055
  0
SEQEND
  8
0
  0
POLYLINE
  8
LAYER_1
 62
     7
  6
DASHED
 66
     1
 40
0.003000
 41
0.003000
  0
VERTEX
  8
LAYER_1
 62
     7
  6
DASHED
 10
-0.391819
 20
-0.086055
  0
VERTEX
  8
LAYER_1
 62
     7
  6
DASHED
 10
-0.381774
 20
-0.162911
  0
VERTEX
  8
LAYER_1
 62
     7
  6
DASHED
 10
-0.366801
 20
-0.250691
  0
VERTEX
  8
LAYER_1
 62
     7
  6
DASHED
 10
-0.347220
 20
-0.341791
  0
SEQEND
  8
0
  0
POLYLINE
  8
LAYER_1
 62
     7
  6
DASHED
 66
     1
 40
0.003000
 41
0.003000
  0
VERTEX
  8
LAYER_1
 62
     7
  6
DASHED
 10
-0.347220
 20
-0.341791
  0
VERTEX
  8
LAYER_1
 62
     7
  6
DASHED
 10
-0.323536
 20
-0.429143
  0
VERTEX
  8
LAYER_1
 62
     7
  6
DASHED
 10
-0.296995
 20
-0.507831
  0
VERTEX
  8
LAYER_1
 62
     7
  6
DASHED
 10
-0.269028
 20
-0.573469
  0
SEQEND
  8
0
  0
POLYLINE
  8
LAYER_1
 62
     7
  6
DASHED
 66
     1
 40
0.003000
 41
0.003000
  0
VERTEX
  8
LAYER_1
 62
     7
  6
DASHED
 10
-0.269028
 20
-0.573469
  0
VERTEX
  8
LAYER_1
 62
     7
  6
DASHED
 10
-0.240773
 20
-0.622916
  0
VERTEX
  8
LAYER_1
 62
     7
  6
DASHED
 10
-0.212244
 20
-0.657886
  0
VERTEX
  8
LAYER_1
 62
     7
  6
DASHED
 10
-0.183165
 20
-0.681331
  0
SEQEND
  8
0
  0
POLYLINE
  8
LAYER_1
 62
     7
  6
DASHED
 66
     1
 40
0.003000
 41
0.003000
  0
VERTEX
  8
LAYER_1
 62
     7
  6
DASHED
 10
-0.183165
 20
-0.681331
  0
VERTEX
  8
LAYER_1
 62
     7
  6
DASHED
 10
-0.153170
 20
-0.696065
  0
VERTEX
  8
LAYER_1
 62
     7
  6
DASHED
 10
-0.121612
 20
-0.704344
  0
VERTEX
  8
LAYER_1
 62
     7
  6
DASHED
 10
-0.087748
 20
-0.708291
  0
SEQEND
  8
0
  0
POLYLINE
  8
LAYER_1
 62
     7
  6
DASHED
 66
     1
 40
0.003000
 41
0.003000
  0
VERTEX
  8
LAYER_1
 62
     7
  6
DASHED
 10
-0.087748
 20
-0.708291
  0
VERTEX
  8
LAYER_1
 62
     7
  6
DASHED
 10
-0.051872
 20
-0.709812
  0
VERTEX
  8
LAYER_1
 62
     7
  6
DASHED
 10
-0.018395
 20
-0.709953
  0
VERTEX
  8
LAYER_1
 62
     7
  6
DASHED
 10
0.007248
 20
-0.709539
  0
SEQEND
  8
0
  0
POLYLINE
  8
LAYER_1
 62
     7
  6
DASHED
 66
     1
 40
0.003000
 41
0.003000
  0
VERTEX
  8
LAYER_1
 62
     7
  6
DASHED
 10
0.007248
 20
-0.709539
  0
VERTEX
  8
LAYER_1
 62
     7
  6
DASHED
 10
0.021253
 20
-0.709246
  0
VERTEX
  8
LAYER_1
 62
     7
  6
DASHED
 10
0.026413
 20
-0.709138
  0
VERTEX
  8
LAYER_1
 62
     7
  6
DASHED
 10
0.027150
 20
-0.709122
  0
SEQEND
  8
0
  0
POLYLINE
  8
LAYER_1
 62
     7
  6
DASHED
 66
     1
 40
0.003000
 41
0.003000
 70
     1
  0
VERTEX
  8
LAYER_1
 62
     7
  6
DASHED
 10
0.007028
 20
-0.706205
  0
VERTEX
  8
LAYER_1
 62
     7
  6
DASHED
 10
0.031913
 20
-0.706205
  0
VERTEX
  8
LAYER_1
 62
     7
  6
DASHED
 10
0.031913
 20
0.719972
  0
VERTEX
  8
LAYER_1
 62
     7
  6
DASHED
 10
0.007028
 20
0.719972
  0
SEQEND
  8
0
  0
POLYLINE
  8
LAYER_1
 62
     7
  6
CONTINUOUS
 66
     1
 40
0.003000
 41
0.003000
  0
VERTEX
  8
LAYER_1
 62
     7
  6
CONTINUOUS
 10
3.095831
 20
0.820457
  0
VERTEX
  8
LAYER_1
 62
     7
  6
CONTINUOUS
 10
3.095831
 20
-0.797929
  0
SEQEND
  8
0
  0
POLYLINE
  8
LAYER_1
 62
     7
  6
CONTINUOUS
 66
     1
 40
0.003000
 41
0.003000
  0
VERTEX
  8
LAYER_1
 62
     7
  6
CONTINUOUS
 10
3.068177
 20
0.709831
  0
VERTEX
  8
LAYER_1
 62
     7
  6
CONTINUOUS
 10
3.095831
 20
0.820457
  0
VERTEX
  8
LAYER_1
 62
     7
  6
CONTINUOUS
 10
3.123484
 20
0.709831
  0
SEQEND
  8
0
  0
POLYLINE
  8
LAYER_1
 62
     7
  6
CONTINUOUS
 66
     1
 40
0.003000
 41
0.003000
  0
VERTEX
  8
LAYER_1
 62
     7
  6
CONTINUOUS
 10
3.123484
 20
-0.687303
  0
VERTEX
  8
LAYER_1
 62
     7
  6
CONTINUOUS
 10
3.095831
 20
-0.797929
  0
VERTEX
  8
LAYER_1
 62
     7
  6
CONTINUOUS
 10
3.068177
 20
-0.687303
  0
SEQEND
  8
0
  0
POLYLINE
  8
LAYER_1
 62
     7
  6
CONTINUOUS
 66
     1
 40
0.011055
 41
0.011055
  0
VERTEX
  8
LAYER_1
 62
     7
  6
CONTINUOUS
 10
2.735776
 20
0.261567
  0
VERTEX
  8
LAYER_1
 62
     7
  6
CONTINUOUS
 10
2.757957
 20
11.867429
  0
SEQEND
  8
0
  0
TEXT
  8
LAYER_1
 62
     7
 10
-3.378654
 20
3.266575
 40
0.172010
  1
Bubble Dancer
 50
90.000660
 41
1.000000
  7
SN1
 71
     0
 72
     5
 11
-3.378654
 21
4.653639
  0
TEXT
  8
LAYER_1
 62
     7
 10
-2.914555
 20
3.406409
 40
0.127040
  1
MD  24 Nov 01
 50
90.000660
 41
1.000000
  7
SN1
 71
     0
 72
     5
 11
-2.914555
 21
4.436590
  0
POLYLINE
  8
LAYER_1
 62
     7
  6
DASHED
 66
     1
 40
0.003000
 41
0.003000
  0
VERTEX
  8
LAYER_1
 62
     7
  6
DASHED
 10
-1.930028
 20
0.004819
  0
VERTEX
  8
LAYER_1
 62
     7
  6
DASHED
 10
3.914083
 20
0.004819
  0
SEQEND
  8
0
  0
TEXT
  8
LAYER_1
 62
     7
 10
-3.152535
 20
0.297925
 40
0.094437
  1
Design (neverexceed) Loads
 50
90.000660
 41
1.000000
  7
SN0
 71
     0
 72
     5
 11
-3.152535
 21
1.765932
  0
TEXT
  8
LAYER_1
 62
     7
 10
-2.921339
 20
0.297925
 40
0.094437
  1
stab load       7 lb @ 90 mph, CL=0.5
 50
90.000660
 41
1.000000
  7
SN0
 71
     0
 72
     5
 11
-2.921339
 21
2.174325
  0
TEXT
  8
LAYER_1
 62
     7
 10
-2.805740
 20
0.297925
 40
0.094437
  1
root bend.mom.  19 lbin
 50
90.000660
 41
1.000000
  7
SN0
 71
     0
 72
     5
 11
-2.805740
 21
1.505934
  0
TEXT
  8
LAYER_1
 62
     7
 10
-2.690142
 20
0.297925
 40
0.094437
  1
root bend.Ixx   2.15e3 in^4
 50
90.000660
 41
1.000000
  7
SN0
 71
     0
 72
     5
 11
-2.690142
 21
1.643292
  0
TEXT
  8
LAYER_1
 62
     7
 10
-2.574543
 20
0.297925
 40
0.094437
  1
root stress     1100 psi     
 50
90.000660
 41
1.000000
  7
SN0
 71
     0
 72
     5
 11
-2.574543
 21
1.586877
  0
TEXT
  8
LAYER_1
 62
     7
 10
-3.126535
 20
3.419232
 40
0.147276
  1
Horizontal Tail
 50
90.000660
 41
1.000000
  7
SN2
 71
     0
 72
     5
 11
-3.126535
 21
4.562242
  0
POLYLINE
  8
LAYER_1
 62
     7
  6
CONTINUOUS
 66
     1
 40
0.003000
 41
0.003000
  0
VERTEX
  8
LAYER_1
 62
     7
  6
CONTINUOUS
 10
3.715512
 20
1.011469
  0
VERTEX
  8
LAYER_1
 62
     7
  6
CONTINUOUS
 10
3.766402
 20
1.011469
  0
SEQEND
  8
0
  0
POLYLINE
  8
LAYER_1
 62
     7
  6
CONTINUOUS
 66
     1
 40
0.003000
 41
0.003000
  0
VERTEX
  8
LAYER_1
 62
     7
  6
CONTINUOUS
 10
3.715512
 20
2.007055
  0
VERTEX
  8
LAYER_1
 62
     7
  6
CONTINUOUS
 10
3.766402
 20
2.007055
  0
SEQEND
  8
0
  0
POLYLINE
  8
LAYER_1
 62
     7
  6
CONTINUOUS
 66
     1
 40
0.003000
 41
0.003000
  0
VERTEX
  8
LAYER_1
 62
     7
  6
CONTINUOUS
 10
3.715512
 20
3.002650
  0
VERTEX
  8
LAYER_1
 62
     7
  6
CONTINUOUS
 10
3.766402
 20
3.002650
  0
SEQEND
  8
0
  0
POLYLINE
  8
LAYER_1
 62
     7
  6
CONTINUOUS
 66
     1
 40
0.003000
 41
0.003000
  0
VERTEX
  8
LAYER_1
 62
     7
  6
CONTINUOUS
 10
3.715512
 20
3.998232
  0
VERTEX
  8
LAYER_1
 62
     7
  6
CONTINUOUS
 10
3.766402
 20
3.998232
  0
SEQEND
  8
0
  0
POLYLINE
  8
LAYER_1
 62
     7
  6
CONTINUOUS
 66
     1
 40
0.003000
 41
0.003000
  0
VERTEX
  8
LAYER_1
 62
     7
  6
CONTINUOUS
 10
3.715512
 20
5.015941
  0
VERTEX
  8
LAYER_1
 62
     7
  6
CONTINUOUS
 10
3.766402
 20
5.015941
  0
SEQEND
  8
0
  0
POLYLINE
  8
LAYER_1
 62
     7
  6
CONTINUOUS
 66
     1
 40
0.003000
 41
0.003000
  0
VERTEX
  8
LAYER_1
 62
     7
  6
CONTINUOUS
 10
3.740957
 20
1.011469
  0
VERTEX
  8
LAYER_1
 62
     7
  6
CONTINUOUS
 10
3.740957
 20
12.007205
  0
SEQEND
  8
0
  0
POLYLINE
  8
LAYER_1
 62
     7
  6
CONTINUOUS
 66
     1
 40
0.003000
 41
0.003000
  0
VERTEX
  8
LAYER_1
 62
     7
  6
CONTINUOUS
 10
3.740957
 20
-1.001831
  0
VERTEX
  8
LAYER_1
 62
     7
  6
CONTINUOUS
 10
3.791846
 20
-1.001831
  0
SEQEND
  8
0
  0
POLYLINE
  8
LAYER_1
 62
     7
  6
CONTINUOUS
 66
     1
 40
0.003000
 41
0.003000
  0
VERTEX
  8
LAYER_1
 62
     7
  6
CONTINUOUS
 10
3.740957
 20
-1.997429
  0
VERTEX
  8
LAYER_1
 62
     7
  6
CONTINUOUS
 10
3.791846
 20
-1.997429
  0
SEQEND
  8
0
  0
POLYLINE
  8
LAYER_1
 62
     7
  6
CONTINUOUS
 66
     1
 40
0.003000
 41
0.003000
  0
VERTEX
  8
LAYER_1
 62
     7
  6
CONTINUOUS
 10
3.740957
 20
-2.993012
  0
VERTEX
  8
LAYER_1
 62
     7
  6
CONTINUOUS
 10
3.791846
 20
-2.993012
  0
SEQEND
  8
0
  0
POLYLINE
  8
LAYER_1
 62
     7
  6
CONTINUOUS
 66
     1
 40
0.003000
 41
0.003000
  0
VERTEX
  8
LAYER_1
 62
     7
  6
CONTINUOUS
 10
3.740957
 20
-3.988610
  0
VERTEX
  8
LAYER_1
 62
     7
  6
CONTINUOUS
 10
3.791846
 20
-3.988610
  0
SEQEND
  8
0
  0
POLYLINE
  8
LAYER_1
 62
     7
  6
CONTINUOUS
 66
     1
 40
0.003000
 41
0.003000
  0
VERTEX
  8
LAYER_1
 62
     7
  6
CONTINUOUS
 10
3.740957
 20
-5.006319
  0
VERTEX
  8
LAYER_1
 62
     7
  6
CONTINUOUS
 10
3.791846
 20
-5.006319
  0
SEQEND
  8
0
  0
POLYLINE
  8
LAYER_1
 62
     7
  6
CONTINUOUS
 66
     1
 40
0.003000
 41
0.003000
  0
VERTEX
  8
LAYER_1
 62
     7
  6
CONTINUOUS
 10
3.766402
 20
-1.001831
  0
VERTEX
  8
LAYER_1
 62
     7
  6
CONTINUOUS
 10
3.766402
 20
-11.997567
  0
SEQEND
  8
0
  0
POLYLINE
  8
LAYER_1
 62
     7
  6
CONTINUOUS
 66
     1
 40
0.003000
 41
0.003000
  0
VERTEX
  8
LAYER_1
 62
     7
  6
CONTINUOUS
 10
-1.767969
 20
0.502610
  0
VERTEX
  8
LAYER_1
 62
     7
  6
CONTINUOUS
 10
-1.767969
 20
12.007205
  0
SEQEND
  8
0
  0
POLYLINE
  8
LAYER_1
 62
     7
  6
CONTINUOUS
 66
     1
 40
0.003000
 41
0.003000
  0
VERTEX
  8
LAYER_1
 62
     7
  6
CONTINUOUS
 10
-1.767969
 20
-0.492984
  0
VERTEX
  8
LAYER_1
 62
     7
  6
CONTINUOUS
 10
-1.767969
 20
-11.997583
  0
SEQEND
  8
0
  0
POLYLINE
  8
LAYER_1
 62
     7
  6
CONTINUOUS
 66
     1
 40
0.011055
 41
0.011055
  0
VERTEX
  8
LAYER_1
 62
     7
  6
CONTINUOUS
 10
0.289583
 20
-1.145650
  0
VERTEX
  8
LAYER_1
 62
     7
  6
CONTINUOUS
 10
1.191138
 20
-0.238555
  0
SEQEND
  8
0
  0
POLYLINE
  8
LAYER_1
 62
     7
  6
CONTINUOUS
 66
     1
 40
0.011055
 41
0.011055
  0
VERTEX
  8
LAYER_1
 62
     7
  6
CONTINUOUS
 10
0.295110
 20
1.144205
  0
VERTEX
  8
LAYER_1
 62
     7
  6
CONTINUOUS
 10
1.191138
 20
0.248177
  0
SEQEND
  8
0
  0
TEXT
  8
LAYER_1
 62
     7
 10
-0.334394
 20
-2.015701
 40
0.094437
  1
0.75oz glass
 50
90.000660
 41
1.000000
  7
SN0
 71
     0
 72
     5
 11
-0.334394
 21
-1.371838
  0
TEXT
  8
LAYER_1
 62
     7
 10
-1.555173
 20
2.634665
 40
0.094437
  1
soft balsa (46 lb)
 50
90.000660
 41
1.000000
  7
SN0
 71
     0
 72
     5
 11
-1.555173
 21
3.484564
  0
POLYLINE
  8
LAYER_1
 62
     7
  6
CONTINUOUS
 66
     1
 40
0.003000
 41
0.003000
  0
VERTEX
  8
LAYER_1
 62
     7
  6
CONTINUOUS
 10
-1.579913
 20
2.504846
  0
VERTEX
  8
LAYER_1
 62
     7
  6
CONTINUOUS
 10
-1.579913
 20
2.502661
  0
VERTEX
  8
LAYER_1
 62
     7
  6
CONTINUOUS
 10
-1.579913
 20
2.487365
  0
VERTEX
  8
LAYER_1
 62
     7
  6
CONTINUOUS
 10
-1.579913
 20
2.445846
  0
SEQEND
  8
0
  0
POLYLINE
  8
LAYER_1
 62
     7
  6
CONTINUOUS
 66
     1
 40
0.003000
 41
0.003000
  0
VERTEX
  8
LAYER_1
 62
     7
  6
CONTINUOUS
 10
-1.579913
 20
2.445846
  0
VERTEX
  8
LAYER_1
 62
     7
  6
CONTINUOUS
 10
-1.579162
 20
2.371558
  0
VERTEX
  8
LAYER_1
 62
     7
  6
CONTINUOUS
 10
-1.573906
 20
2.284154
  0
VERTEX
  8
LAYER_1
 62
     7
  6
CONTINUOUS
 10
-1.559638
 20
2.209858
  0
SEQEND
  8
0
  0
POLYLINE
  8
LAYER_1
 62
     7
  6
CONTINUOUS
 66
     1
 40
0.003000
 41
0.003000
  0
VERTEX
  8
LAYER_1
 62
     7
  6
CONTINUOUS
 10
-1.559638
 20
2.209858
  0
VERTEX
  8
LAYER_1
 62
     7
  6
CONTINUOUS
 10
-1.533274
 20
2.166769
  0
VERTEX
  8
LAYER_1
 62
     7
  6
CONTINUOUS
 10
-1.497493
 20
2.140480
  0
VERTEX
  8
LAYER_1
 62
     7
  6
CONTINUOUS
 10
-1.456386
 20
2.108457
  0
SEQEND
  8
0
  0
POLYLINE
  8
LAYER_1
 62
     7
  6
CONTINUOUS
 66
     1
 40
0.003000
 41
0.003000
  0
VERTEX
  8
LAYER_1
 62
     7
  6
CONTINUOUS
 10
-1.456386
 20
2.108457
  0
VERTEX
  8
LAYER_1
 62
     7
  6
CONTINUOUS
 10
-1.414256
 20
2.055061
  0
VERTEX
  8
LAYER_1
 62
     7
  6
CONTINUOUS
 10
-1.376221
 20
1.992237
  0
VERTEX
  8
LAYER_1
 62
     7
  6
CONTINUOUS
 10
-1.347610
 20
1.938831
  0
SEQEND
  8
0
  0
POLYLINE
  8
LAYER_1
 62
     7
  6
CONTINUOUS
 66
     1
 40
0.003000
 41
0.003000
  0
VERTEX
  8
LAYER_1
 62
     7
  6
CONTINUOUS
 10
-1.347610
 20
1.938831
  0
VERTEX
  8
LAYER_1
 62
     7
  6
CONTINUOUS
 10
-1.332040
 20
1.908993
  0
VERTEX
  8
LAYER_1
 62
     7
  6
CONTINUOUS
 10
-1.326304
 20
1.898000
  0
VERTEX
  8
LAYER_1
 62
     7
  6
CONTINUOUS
 10
-1.325484
 20
1.896429
  0
SEQEND
  8
0
  0
TEXT
  8
LAYER_1
 62
     7
 10
2.163016
 20
-3.020417
 40
0.094437
  1
1/4"
 50
90.000660
 41
1.000000
  7
SN0
 71
     0
 72
     5
 11
2.163016
 21
-2.820513
  0
POLYLINE
  8
LAYER_1
 62
     7
  6
CONTINUOUS
 66
     1
 40
0.011055
 41
0.011055
  0
VERTEX
  8
LAYER_1
 62
     7
  6
CONTINUOUS
 10
0.107055
 20
0.263386
  0
VERTEX
  8
LAYER_1
 62
     7
  6
CONTINUOUS
 10
2.739846
 20
0.263386
  0
VERTEX
  8
LAYER_1
 62
     7
  6
CONTINUOUS
 10
2.947248
 20
0.008957
  0
SEQEND
  8
0
  0
POLYLINE
  8
LAYER_1
 62
     7
  6
CONTINUOUS
 66
     1
 40
0.011055
 41
0.011055
  0
VERTEX
  8
LAYER_1
 62
     7
  6
CONTINUOUS
 10
0.107055
 20
-0.249610
  0
VERTEX
  8
LAYER_1
 62
     7
  6
CONTINUOUS
 10
2.739846
 20
-0.249610
  0
VERTEX
  8
LAYER_1
 62
     7
  6
CONTINUOUS
 10
2.947248
 20
0.004819
  0
SEQEND
  8
0
  0
TEXT
  8
LAYER_1
 62
     7
 10
1.188224
 20
0.698815
 40
0.094437
  1
soft balsa
 50
90.000660
 41
1.000000
  7
SN0
 71
     0
 72
     5
 11
1.188224
 21
1.191830
  0
TEXT
  8
LAYER_1
 62
     7
 10
1.303823
 20
0.698815
 40
0.094437
  1
 (46 lb)
 50
90.000660
 41
1.000000
  7
SN0
 71
     0
 72
     5
 11
1.303823
 21
1.055699
  0
POLYLINE
  8
LAYER_1
 62
     7
  6
CONTINUOUS
 66
     1
 40
0.003000
 41
0.003000
  0
VERTEX
  8
LAYER_1
 62
     7
  6
CONTINUOUS
 10
1.238150
 20
0.643650
  0
VERTEX
  8
LAYER_1
 62
     7
  6
CONTINUOUS
 10
1.238167
 20
0.642830
  0
VERTEX
  8
LAYER_1
 62
     7
  6
CONTINUOUS
 10
1.238290
 20
0.637095
  0
VERTEX
  8
LAYER_1
 62
     7
  6
CONTINUOUS
 10
1.238622
 20
0.621528
  0
SEQEND
  8
0
  0
POLYLINE
  8
LAYER_1
 62
     7
  6
CONTINUOUS
 66
     1
 40
0.003000
 41
0.003000
  0
VERTEX
  8
LAYER_1
 62
     7
  6
CONTINUOUS
 10
1.238622
 20
0.621528
  0
VERTEX
  8
LAYER_1
 62
     7
  6
CONTINUOUS
 10
1.237664
 20
0.594672
  0
VERTEX
  8
LAYER_1
 62
     7
  6
CONTINUOUS
 10
1.227591
 20
0.568944
  0
VERTEX
  8
LAYER_1
 62
     7
  6
CONTINUOUS
 10
1.198984
 20
0.560220
  0
SEQEND
  8
0
  0
POLYLINE
  8
LAYER_1
 62
     7
  6
CONTINUOUS
 66
     1
 40
0.003000
 41
0.003000
  0
VERTEX
  8
LAYER_1
 62
     7
  6
CONTINUOUS
 10
1.198984
 20
0.560220
  0
VERTEX
  8
LAYER_1
 62
     7
  6
CONTINUOUS
 10
1.145652
 20
0.578384
  0
VERTEX
  8
LAYER_1
 62
     7
  6
CONTINUOUS
 10
1.074397
 20
0.609353
  0
VERTEX
  8
LAYER_1
 62
     7
  6
CONTINUOUS
 10
0.995248
 20
0.633055
  0
SEQEND
  8
0
  0
POLYLINE
  8
LAYER_1
 62
     7
  6
CONTINUOUS
 66
     1
 40
0.003000
 41
0.003000
  0
VERTEX
  8
LAYER_1
 62
     7
  6
CONTINUOUS
 10
0.995248
 20
0.633055
  0
VERTEX
  8
LAYER_1
 62
     7
  6
CONTINUOUS
 10
0.917884
 20
0.634775
  0
VERTEX
  8
LAYER_1
 62
     7
  6
CONTINUOUS
 10
0.850456
 20
0.621338
  0
VERTEX
  8
LAYER_1
 62
     7
  6
CONTINUOUS
 10
0.800748
 20
0.604929
  0
SEQEND
  8
0
  0
POLYLINE
  8
LAYER_1
 62
     7
  6
CONTINUOUS
 66
     1
 40
0.003000
 41
0.003000
  0
VERTEX
  8
LAYER_1
 62
     7
  6
CONTINUOUS
 10
0.800748
 20
0.604929
  0
VERTEX
  8
LAYER_1
 62
     7
  6
CONTINUOUS
 10
0.773822
 20
0.595205
  0
VERTEX
  8
LAYER_1
 62
     7
  6
CONTINUOUS
 10
0.763901
 20
0.591622
  0
VERTEX
  8
LAYER_1
 62
     7
  6
CONTINUOUS
 10
0.762484
 20
0.591110
  0
SEQEND
  8
0
  0
TEXT
  8
LAYER_1
 62
     7
 10
2.226843
 20
3.530681
 40
0.094437
  1
33 deg
 50
90.000660
 41
1.000000
  7
SN0
 71
     0
 72
     5
 11
2.226843
 21
3.881433
  0
SOLID
  8
LAYER_1
  6
CONTINUOUS
 10
0.113969
 20
-4.444913
 11
2.514441
 21
-2.886539
 12
0.115358
 22
-4.743594
 13
2.988732
 23
-2.886539
  0
POLYLINE
  8
LAYER_1
  6
CONTINUOUS
 66
     1
 40
0.003000
 41
0.003000
 70
     1
  0
VERTEX
  8
LAYER_1
  6
CONTINUOUS
 10
0.113969
 20
-4.444913
  0
VERTEX
  8
LAYER_1
  6
CONTINUOUS
 10
2.514441
 20
-2.886539
  0
VERTEX
  8
LAYER_1
  6
CONTINUOUS
 10
2.988732
 20
-2.886539
  0
VERTEX
  8
LAYER_1
  6
CONTINUOUS
 10
0.115358
 20
-4.743594
  0
SEQEND
  8
0
  0
POLYLINE
  8
LAYER_1
 62
     7
  6
CONTINUOUS
 66
     1
 40
0.006268
 41
0.006268
 70
     1
  0
VERTEX
  8
LAYER_1
 62
     7
  6
CONTINUOUS
 10
0.113969
 20
-4.444913
  0
VERTEX
  8
LAYER_1
 62
     7
  6
CONTINUOUS
 10
2.514441
 20
-2.886539
  0
VERTEX
  8
LAYER_1
 62
     7
  6
CONTINUOUS
 10
2.988732
 20
-2.886539
  0
VERTEX
  8
LAYER_1
 62
     7
  6
CONTINUOUS
 10
0.115358
 20
-4.743594
  0
SEQEND
  8
0
  0
SOLID
  8
LAYER_1
  6
CONTINUOUS
 10
0.115346
 20
-4.744291
 11
2.946555
 21
-6.584055
 12
0.116039
 22
-4.973138
 13
2.595331
 23
-6.583358
  0
POLYLINE
  8
LAYER_1
  6
CONTINUOUS
 66
     1
 40
0.003000
 41
0.003000
 70
     1
  0
VERTEX
  8
LAYER_1
  6
CONTINUOUS
 10
0.115346
 20
-4.744291
  0
VERTEX
  8
LAYER_1
  6
CONTINUOUS
 10
2.946555
 20
-6.584055
  0
VERTEX
  8
LAYER_1
  6
CONTINUOUS
 10
2.595331
 20
-6.583358
  0
VERTEX
  8
LAYER_1
  6
CONTINUOUS
 10
0.116039
 20
-4.973138
  0
SEQEND
  8
0
  0
POLYLINE
  8
LAYER_1
 62
     7
  6
CONTINUOUS
 66
     1
 40
0.006268
 41
0.006268
 70
     1
  0
VERTEX
  8
LAYER_1
 62
     7
  6
CONTINUOUS
 10
0.115346
 20
-4.744291
  0
VERTEX
  8
LAYER_1
 62
     7
  6
CONTINUOUS
 10
2.946555
 20
-6.584055
  0
VERTEX
  8
LAYER_1
 62
     7
  6
CONTINUOUS
 10
2.595331
 20
-6.583358
  0
VERTEX
  8
LAYER_1
 62
     7
  6
CONTINUOUS
 10
0.116039
 20
-4.973138
  0
SEQEND
  8
0
  0
SOLID
  8
LAYER_1
  6
CONTINUOUS
 10
0.116732
 20
-1.023957
 11
2.985969
 21
-2.885165
 12
0.116732
 22
-1.333705
 13
2.515831
 23
-2.886539
  0
POLYLINE
  8
LAYER_1
  6
CONTINUOUS
 66
     1
 40
0.003000
 41
0.003000
 70
     1
  0
VERTEX
  8
LAYER_1
  6
CONTINUOUS
 10
0.116732
 20
-1.023957
  0
VERTEX
  8
LAYER_1
  6
CONTINUOUS
 10
2.985969
 20
-2.885165
  0
VERTEX
  8
LAYER_1
  6
CONTINUOUS
 10
2.515831
 20
-2.886539
  0
VERTEX
  8
LAYER_1
  6
CONTINUOUS
 10
0.116732
 20
-1.333705
  0
SEQEND
  8
0
  0
POLYLINE
  8
LAYER_1
 62
     7
  6
CONTINUOUS
 66
     1
 40
0.006268
 41
0.006268
 70
     1
  0
VERTEX
  8
LAYER_1
 62
     7
  6
CONTINUOUS
 10
0.116732
 20
-1.023957
  0
VERTEX
  8
LAYER_1
 62
     7
  6
CONTINUOUS
 10
2.985969
 20
-2.885165
  0
VERTEX
  8
LAYER_1
 62
     7
  6
CONTINUOUS
 10
2.515831
 20
-2.886539
  0
VERTEX
  8
LAYER_1
 62
     7
  6
CONTINUOUS
 10
0.116732
 20
-1.333705
  0
SEQEND
  8
0
  0
SOLID
  8
LAYER_1
  6
CONTINUOUS
 10
-1.636173
 20
-2.610150
 11
3.710587
 21
-2.610150
 12
-1.636173
 22
-2.166445
 13
3.710587
 23
-2.166445
  0
POLYLINE
  8
LAYER_1
  6
CONTINUOUS
 66
     1
 40
0.003000
 41
0.003000
 70
     1
  0
VERTEX
  8
LAYER_1
  6
CONTINUOUS
 10
-1.636173
 20
-2.610150
  0
VERTEX
  8
LAYER_1
  6
CONTINUOUS
 10
3.710587
 20
-2.610150
  0
VERTEX
  8
LAYER_1
  6
CONTINUOUS
 10
3.710587
 20
-2.166445
  0
VERTEX
  8
LAYER_1
  6
CONTINUOUS
 10
-1.636173
 20
-2.166445
  0
SEQEND
  8
0
  0
POLYLINE
  8
LAYER_1
 62
     7
  6
CONTINUOUS
 66
     1
 40
0.003000
 41
0.003000
  0
VERTEX
  8
LAYER_1
 62
     7
  6
CONTINUOUS
 10
3.648232
 20
-2.360874
  0
VERTEX
  8
LAYER_1
 62
     7
  6
CONTINUOUS
 10
3.647436
 20
-2.360852
  0
VERTEX
  8
LAYER_1
 62
     7
  6
CONTINUOUS
 10
3.641858
 20
-2.360697
  0
VERTEX
  8
LAYER_1
 62
     7
  6
CONTINUOUS
 10
3.626720
 20
-2.360276
  0
SEQEND
  8
0
  0
POLYLINE
  8
LAYER_1
 62
     7
  6
CONTINUOUS
 66
     1
 40
0.003000
 41
0.003000
  0
VERTEX
  8
LAYER_1
 62
     7
  6
CONTINUOUS
 10
3.626720
 20
-2.360276
  0
VERTEX
  8
LAYER_1
 62
     7
  6
CONTINUOUS
 10
3.598419
 20
-2.359486
  0
VERTEX
  8
LAYER_1
 62
     7
  6
CONTINUOUS
 10
3.558165
 20
-2.358339
  0
VERTEX
  8
LAYER_1
 62
     7
  6
CONTINUOUS
 10
3.508346
 20
-2.356874
  0
SEQEND
  8
0
  0
POLYLINE
  8
LAYER_1
 62
     7
  6
CONTINUOUS
 66
     1
 40
0.003000
 41
0.003000
  0
VERTEX
  8
LAYER_1
 62
     7
  6
CONTINUOUS
 10
3.508346
 20
-2.356874
  0
VERTEX
  8
LAYER_1
 62
     7
  6
CONTINUOUS
 10
3.451351
 20
-2.355125
  0
VERTEX
  8
LAYER_1
 62
     7
  6
CONTINUOUS
 10
3.389575
 20
-2.353190
  0
VERTEX
  8
LAYER_1
 62
     7
  6
CONTINUOUS
 10
3.325413
 20
-2.351165
  0
SEQEND
  8
0
  0
POLYLINE
  8
LAYER_1
 62
     7
  6
CONTINUOUS
 66
     1
 40
0.003000
 41
0.003000
  0
VERTEX
  8
LAYER_1
 62
     7
  6
CONTINUOUS
 10
3.325413
 20
-2.351165
  0
VERTEX
  8
LAYER_1
 62
     7
  6
CONTINUOUS
 10
3.260846
 20
-2.349123
  0
VERTEX
  8
LAYER_1
 62
     7
  6
CONTINUOUS
 10
3.196280
 20
-2.347078
  0
VERTEX
  8
LAYER_1
 62
     7
  6
CONTINUOUS
 10
3.131720
 20
-2.345028
  0
SEQEND
  8
0
  0
POLYLINE
  8
LAYER_1
 62
     7
  6
CONTINUOUS
 66
     1
 40
0.003000
 41
0.003000
  0
VERTEX
  8
LAYER_1
 62
     7
  6
CONTINUOUS
 10
3.131720
 20
-2.345028
  0
VERTEX
  8
LAYER_1
 62
     7
  6
CONTINUOUS
 10
3.067151
 20
-2.342984
  0
VERTEX
  8
LAYER_1
 62
     7
  6
CONTINUOUS
 10
3.002586
 20
-2.340942
  0
VERTEX
  8
LAYER_1
 62
     7
  6
CONTINUOUS
 10
2.938028
 20
-2.338902
  0
SEQEND
  8
0
  0
POLYLINE
  8
LAYER_1
 62
     7
  6
CONTINUOUS
 66
     1
 40
0.003000
 41
0.003000
  0
VERTEX
  8
LAYER_1
 62
     7
  6
CONTINUOUS
 10
2.938028
 20
-2.338902
  0
VERTEX
  8
LAYER_1
 62
     7
  6
CONTINUOUS
 10
2.873457
 20
-2.336862
  0
VERTEX
  8
LAYER_1
 62
     7
  6
CONTINUOUS
 10
2.808890
 20
-2.334839
  0
VERTEX
  8
LAYER_1
 62
     7
  6
CONTINUOUS
 10
2.744331
 20
-2.332846
  0
SEQEND
  8
0
  0
POLYLINE
  8
LAYER_1
 62
     7
  6
CONTINUOUS
 66
     1
 40
0.003000
 41
0.003000
  0
VERTEX
  8
LAYER_1
 62
     7
  6
CONTINUOUS
 10
2.744331
 20
-2.332846
  0
VERTEX
  8
LAYER_1
 62
     7
  6
CONTINUOUS
 10
2.679763
 20
-2.330912
  0
VERTEX
  8
LAYER_1
 62
     7
  6
CONTINUOUS
 10
2.615197
 20
-2.328998
  0
VERTEX
  8
LAYER_1
 62
     7
  6
CONTINUOUS
 10
2.550638
 20
-2.327055
  0
SEQEND
  8
0
  0
POLYLINE
  8
LAYER_1
 62
     7
  6
CONTINUOUS
 66
     1
 40
0.003000
 41
0.003000
  0
VERTEX
  8
LAYER_1
 62
     7
  6
CONTINUOUS
 10
2.550638
 20
-2.327055
  0
VERTEX
  8
LAYER_1
 62
     7
  6
CONTINUOUS
 10
2.486068
 20
-2.325074
  0
VERTEX
  8
LAYER_1
 62
     7
  6
CONTINUOUS
 10
2.421502
 20
-2.323076
  0
VERTEX
  8
LAYER_1
 62
     7
  6
CONTINUOUS
 10
2.356941
 20
-2.321094
  0
SEQEND
  8
0
  0
POLYLINE
  8
LAYER_1
 62
     7
  6
CONTINUOUS
 66
     1
 40
0.003000
 41
0.003000
  0
VERTEX
  8
LAYER_1
 62
     7
  6
CONTINUOUS
 10
2.356941
 20
-2.321094
  0
VERTEX
  8
LAYER_1
 62
     7
  6
CONTINUOUS
 10
2.292373
 20
-2.319159
  0
VERTEX
  8
LAYER_1
 62
     7
  6
CONTINUOUS
 10
2.227808
 20
-2.317241
  0
VERTEX
  8
LAYER_1
 62
     7
  6
CONTINUOUS
 10
2.163248
 20
-2.315303
  0
SEQEND
  8
0
  0
POLYLINE
  8
LAYER_1
 62
     7
  6
CONTINUOUS
 66
     1
 40
0.003000
 41
0.003000
  0
VERTEX
  8
LAYER_1
 62
     7
  6
CONTINUOUS
 10
2.163248
 20
-2.315303
  0
VERTEX
  8
LAYER_1
 62
     7
  6
CONTINUOUS
 10
2.098678
 20
-2.313327
  0
VERTEX
  8
LAYER_1
 62
     7
  6
CONTINUOUS
 10
2.034109
 20
-2.311350
  0
VERTEX
  8
LAYER_1
 62
     7
  6
CONTINUOUS
 10
1.969539
 20
-2.309429
  0
SEQEND
  8
0
  0
POLYLINE
  8
LAYER_1
 62
     7
  6
CONTINUOUS
 66
     1
 40
0.003000
 41
0.003000
  0
VERTEX
  8
LAYER_1
 62
     7
  6
CONTINUOUS
 10
1.969539
 20
-2.309429
  0
VERTEX
  8
LAYER_1
 62
     7
  6
CONTINUOUS
 10
1.904980
 20
-2.307601
  0
VERTEX
  8
LAYER_1
 62
     7
  6
CONTINUOUS
 10
1.840414
 20
-2.305832
  0
VERTEX
  8
LAYER_1
 62
     7
  6
CONTINUOUS
 10
1.775846
 20
-2.304067
  0
SEQEND
  8
0
  0
POLYLINE
  8
LAYER_1
 62
     7
  6
CONTINUOUS
 66
     1
 40
0.003000
 41
0.003000
  0
VERTEX
  8
LAYER_1
 62
     7
  6
CONTINUOUS
 10
1.775846
 20
-2.304067
  0
VERTEX
  8
LAYER_1
 62
     7
  6
CONTINUOUS
 10
1.711290
 20
-2.302254
  0
VERTEX
  8
LAYER_1
 62
     7
  6
CONTINUOUS
 10
1.646744
 20
-2.300423
  0
VERTEX
  8
LAYER_1
 62
     7
  6
CONTINUOUS
 10
1.582232
 20
-2.298610
  0
SEQEND
  8
0
  0
POLYLINE
  8
LAYER_1
 62
     7
  6
CONTINUOUS
 66
     1
 40
0.003000
 41
0.003000
  0
VERTEX
  8
LAYER_1
 62
     7
  6
CONTINUOUS
 10
1.582232
 20
-2.298610
  0
VERTEX
  8
LAYER_1
 62
     7
  6
CONTINUOUS
 10
1.517780
 20
-2.296846
  0
VERTEX
  8
LAYER_1
 62
     7
  6
CONTINUOUS
 10
1.453337
 20
-2.295122
  0
VERTEX
  8
LAYER_1
 62
     7
  6
CONTINUOUS
 10
1.388874
 20
-2.293413
  0
SEQEND
  8
0
  0
POLYLINE
  8
LAYER_1
 62
     7
  6
CONTINUOUS
 66
     1
 40
0.003000
 41
0.003000
  0
VERTEX
  8
LAYER_1
 62
     7
  6
CONTINUOUS
 10
1.388874
 20
-2.293413
  0
VERTEX
  8
LAYER_1
 62
     7
  6
CONTINUOUS
 10
1.324373
 20
-2.291709
  0
VERTEX
  8
LAYER_1
 62
     7
  6
CONTINUOUS
 10
1.259828
 20
-2.290008
  0
VERTEX
  8
LAYER_1
 62
     7
  6
CONTINUOUS
 10
1.195264
 20
-2.288303
  0
SEQEND
  8
0
  0
POLYLINE
  8
LAYER_1
 62
     7
  6
CONTINUOUS
 66
     1
 40
0.003000
 41
0.003000
  0
VERTEX
  8
LAYER_1
 62
     7
  6
CONTINUOUS
 10
1.195264
 20
-2.288303
  0
VERTEX
  8
LAYER_1
 62
     7
  6
CONTINUOUS
 10
1.130705
 20
-2.286609
  0
VERTEX
  8
LAYER_1
 62
     7
  6
CONTINUOUS
 10
1.066161
 20
-2.284925
  0
VERTEX
  8
LAYER_1
 62
     7
  6
CONTINUOUS
 10
1.001650
 20
-2.283276
  0
SEQEND
  8
0
  0
POLYLINE
  8
LAYER_1
 62
     7
  6
CONTINUOUS
 66
     1
 40
0.003000
 41
0.003000
  0
VERTEX
  8
LAYER_1
 62
     7
  6
CONTINUOUS
 10
1.001650
 20
-2.283276
  0
VERTEX
  8
LAYER_1
 62
     7
  6
CONTINUOUS
 10
0.937198
 20
-2.281689
  0
VERTEX
  8
LAYER_1
 62
     7
  6
CONTINUOUS
 10
0.872778
 20
-2.280154
  0
VERTEX
  8
LAYER_1
 62
     7
  6
CONTINUOUS
 10
0.808374
 20
-2.278677
  0
SEQEND
  8
0
  0
POLYLINE
  8
LAYER_1
 62
     7
  6
CONTINUOUS
 66
     1
 40
0.003000
 41
0.003000
  0
VERTEX
  8
LAYER_1
 62
     7
  6
CONTINUOUS
 10
0.808374
 20
-2.278677
  0
VERTEX
  8
LAYER_1
 62
     7
  6
CONTINUOUS
 10
0.743981
 20
-2.277258
  0
VERTEX
  8
LAYER_1
 62
     7
  6
CONTINUOUS
 10
0.679581
 20
-2.275876
  0
VERTEX
  8
LAYER_1
 62
     7
  6
CONTINUOUS
 10
0.615177
 20
-2.274512
  0
SEQEND
  8
0
  0
POLYLINE
  8
LAYER_1
 62
     7
  6
CONTINUOUS
 66
     1
 40
0.003000
 41
0.003000
  0
VERTEX
  8
LAYER_1
 62
     7
  6
CONTINUOUS
 10
0.615177
 20
-2.274512
  0
VERTEX
  8
LAYER_1
 62
     7
  6
CONTINUOUS
 10
0.550783
 20
-2.273153
  0
VERTEX
  8
LAYER_1
 62
     7
  6
CONTINUOUS
 10
0.486362
 20
-2.271832
  0
VERTEX
  8
LAYER_1
 62
     7
  6
CONTINUOUS
 10
0.421902
 20
-2.270594
  0
SEQEND
  8
0
  0
POLYLINE
  8
LAYER_1
 62
     7
  6
CONTINUOUS
 66
     1
 40
0.003000
 41
0.003000
  0
VERTEX
  8
LAYER_1
 62
     7
  6
CONTINUOUS
 10
0.421902
 20
-2.270594
  0
VERTEX
  8
LAYER_1
 62
     7
  6
CONTINUOUS
 10
0.357406
 20
-2.269451
  0
VERTEX
  8
LAYER_1
 62
     7
  6
CONTINUOUS
 10
0.292905
 20
-2.268384
  0
VERTEX
  8
LAYER_1
 62
     7
  6
CONTINUOUS
 10
0.228457
 20
-2.267358
  0
SEQEND
  8
0
  0
POLYLINE
  8
LAYER_1
 62
     7
  6
CONTINUOUS
 66
     1
 40
0.003000
 41
0.003000
  0
VERTEX
  8
LAYER_1
 62
     7
  6
CONTINUOUS
 10
0.228457
 20
-2.267358
  0
VERTEX
  8
LAYER_1
 62
     7
  6
CONTINUOUS
 10
0.164112
 20
-2.266337
  0
VERTEX
  8
LAYER_1
 62
     7
  6
CONTINUOUS
 10
0.099836
 20
-2.265357
  0
VERTEX
  8
LAYER_1
 62
     7
  6
CONTINUOUS
 10
0.035594
 20
-2.264457
  0
SEQEND
  8
0
  0
POLYLINE
  8
LAYER_1
 62
     7
  6
CONTINUOUS
 66
     1
 40
0.003000
 41
0.003000
  0
VERTEX
  8
LAYER_1
 62
     7
  6
CONTINUOUS
 10
0.035594
 20
-2.264457
  0
VERTEX
  8
LAYER_1
 62
     7
  6
CONTINUOUS
 10
-0.028625
 20
-2.263665
  0
VERTEX
  8
LAYER_1
 62
     7
  6
CONTINUOUS
 10
-0.092834
 20
-2.262984
  0
VERTEX
  8
LAYER_1
 62
     7
  6
CONTINUOUS
 10
-0.157012
 20
-2.262413
  0
SEQEND
  8
0
  0
POLYLINE
  8
LAYER_1
 62
     7
  6
CONTINUOUS
 66
     1
 40
0.003000
 41
0.003000
  0
VERTEX
  8
LAYER_1
 62
     7
  6
CONTINUOUS
 10
-0.157012
 20
-2.262413
  0
VERTEX
  8
LAYER_1
 62
     7
  6
CONTINUOUS
 10
-0.221120
 20
-2.261963
  0
VERTEX
  8
LAYER_1
 62
     7
  6
CONTINUOUS
 10
-0.285143
 20
-2.261643
  0
VERTEX
  8
LAYER_1
 62
     7
  6
CONTINUOUS
 10
-0.349039
 20
-2.261469
  0
SEQEND
  8
0
  0
POLYLINE
  8
LAYER_1
 62
     7
  6
CONTINUOUS
 66
     1
 40
0.003000
 41
0.003000
  0
VERTEX
  8
LAYER_1
 62
     7
  6
CONTINUOUS
 10
-0.349039
 20
-2.261469
  0
VERTEX
  8
LAYER_1
 62
     7
  6
CONTINUOUS
 10
-0.412763
 20
-2.261483
  0
VERTEX
  8
LAYER_1
 62
     7
  6
CONTINUOUS
 10
-0.476303
 20
-2.261725
  0
VERTEX
  8
LAYER_1
 62
     7
  6
CONTINUOUS
 10
-0.539638
 20
-2.262248
  0
SEQEND
  8
0
  0
POLYLINE
  8
LAYER_1
 62
     7
  6
CONTINUOUS
 66
     1
 40
0.003000
 41
0.003000
  0
VERTEX
  8
LAYER_1
 62
     7
  6
CONTINUOUS
 10
-0.539638
 20
-2.262248
  0
VERTEX
  8
LAYER_1
 62
     7
  6
CONTINUOUS
 10
-0.602747
 20
-2.263106
  0
VERTEX
  8
LAYER_1
 62
     7
  6
CONTINUOUS
 10
-0.665537
 20
-2.264339
  0
VERTEX
  8
LAYER_1
 62
     7
  6
CONTINUOUS
 10
-0.727913
 20
-2.265984
  0
SEQEND
  8
0
  0
POLYLINE
  8
LAYER_1
 62
     7
  6
CONTINUOUS
 66
     1
 40
0.003000
 41
0.003000
  0
VERTEX
  8
LAYER_1
 62
     7
  6
CONTINUOUS
 10
-0.727913
 20
-2.265984
  0
VERTEX
  8
LAYER_1
 62
     7
  6
CONTINUOUS
 10
-0.789785
 20
-2.268111
  0
VERTEX
  8
LAYER_1
 62
     7
  6
CONTINUOUS
 10
-0.850984
 20
-2.270842
  0
VERTEX
  8
LAYER_1
 62
     7
  6
CONTINUOUS
 10
-0.911346
 20
-2.274331
  0
SEQEND
  8
0
  0
POLYLINE
  8
LAYER_1
 62
     7
  6
CONTINUOUS
 66
     1
 40
0.003000
 41
0.003000
  0
VERTEX
  8
LAYER_1
 62
     7
  6
CONTINUOUS
 10
-0.911346
 20
-2.274331
  0
VERTEX
  8
LAYER_1
 62
     7
  6
CONTINUOUS
 10
-0.970590
 20
-2.278718
  0
VERTEX
  8
LAYER_1
 62
     7
  6
CONTINUOUS
 10
-1.027902
 20
-2.284043
  0
VERTEX
  8
LAYER_1
 62
     7
  6
CONTINUOUS
 10
-1.082358
 20
-2.290346
  0
SEQEND
  8
0
  0
POLYLINE
  8
LAYER_1
 62
     7
  6
CONTINUOUS
 66
     1
 40
0.003000
 41
0.003000
  0
VERTEX
  8
LAYER_1
 62
     7
  6
CONTINUOUS
 10
-1.082358
 20
-2.290346
  0
VERTEX
  8
LAYER_1
 62
     7
  6
CONTINUOUS
 10
-1.132994
 20
-2.297618
  0
VERTEX
  8
LAYER_1
 62
     7
  6
CONTINUOUS
 10
-1.178678
 20
-2.305568
  0
VERTEX
  8
LAYER_1
 62
     7
  6
CONTINUOUS
 10
-1.218248
 20
-2.313858
  0
SEQEND
  8
0
  0
POLYLINE
  8
LAYER_1
 62
     7
  6
CONTINUOUS
 66
     1
 40
0.003000
 41
0.003000
  0
VERTEX
  8
LAYER_1
 62
     7
  6
CONTINUOUS
 10
-1.218248
 20
-2.313858
  0
VERTEX
  8
LAYER_1
 62
     7
  6
CONTINUOUS
 10
-1.250874
 20
-2.322184
  0
VERTEX
  8
LAYER_1
 62
     7
  6
CONTINUOUS
 10
-1.277146
 20
-2.330377
  0
VERTEX
  8
LAYER_1
 62
     7
  6
CONTINUOUS
 10
-1.297984
 20
-2.338303
  0
SEQEND
  8
0
  0
POLYLINE
  8
LAYER_1
 62
     7
  6
CONTINUOUS
 66
     1
 40
0.003000
 41
0.003000
  0
VERTEX
  8
LAYER_1
 62
     7
  6
CONTINUOUS
 10
-1.297984
 20
-2.338303
  0
VERTEX
  8
LAYER_1
 62
     7
  6
CONTINUOUS
 10
-1.314304
 20
-2.345874
  0
VERTEX
  8
LAYER_1
 62
     7
  6
CONTINUOUS
 10
-1.326893
 20
-2.353159
  0
VERTEX
  8
LAYER_1
 62
     7
  6
CONTINUOUS
 10
-1.336528
 20
-2.360276
  0
SEQEND
  8
0
  0
POLYLINE
  8
LAYER_1
 62
     7
  6
CONTINUOUS
 66
     1
 40
0.003000
 41
0.003000
  0
VERTEX
  8
LAYER_1
 62
     7
  6
CONTINUOUS
 10
-1.336528
 20
-2.360276
  0
VERTEX
  8
LAYER_1
 62
     7
  6
CONTINUOUS
 10
-1.343891
 20
-2.367318
  0
VERTEX
  8
LAYER_1
 62
     7
  6
CONTINUOUS
 10
-1.349211
 20
-2.374303
  0
VERTEX
  8
LAYER_1
 62
     7
  6
CONTINUOUS
 10
-1.352622
 20
-2.381232
  0
SEQEND
  8
0
  0
POLYLINE
  8
LAYER_1
 62
     7
  6
CONTINUOUS
 66
     1
 40
0.003000
 41
0.003000
  0
VERTEX
  8
LAYER_1
 62
     7
  6
CONTINUOUS
 10
-1.352622
 20
-2.381232
  0
VERTEX
  8
LAYER_1
 62
     7
  6
CONTINUOUS
 10
-1.354252
 20
-2.388104
  0
VERTEX
  8
LAYER_1
 62
     7
  6
CONTINUOUS
 10
-1.354150
 20
-2.394964
  0
VERTEX
  8
LAYER_1
 62
     7
  6
CONTINUOUS
 10
-1.352374
 20
-2.401846
  0
SEQEND
  8
0
  0
POLYLINE
  8
LAYER_1
 62
     7
  6
CONTINUOUS
 66
     1
 40
0.003000
 41
0.003000
  0
VERTEX
  8
LAYER_1
 62
     7
  6
CONTINUOUS
 10
-1.352374
 20
-2.401846
  0
VERTEX
  8
LAYER_1
 62
     7
  6
CONTINUOUS
 10
-1.348951
 20
-2.408773
  0
VERTEX
  8
LAYER_1
 62
     7
  6
CONTINUOUS
 10
-1.343709
 20
-2.415752
  0
VERTEX
  8
LAYER_1
 62
     7
  6
CONTINUOUS
 10
-1.336441
 20
-2.422791
  0
SEQEND
  8
0
  0
POLYLINE
  8
LAYER_1
 62
     7
  6
CONTINUOUS
 66
     1
 40
0.003000
 41
0.003000
  0
VERTEX
  8
LAYER_1
 62
     7
  6
CONTINUOUS
 10
-1.336441
 20
-2.422791
  0
VERTEX
  8
LAYER_1
 62
     7
  6
CONTINUOUS
 10
-1.326867
 20
-2.429910
  0
VERTEX
  8
LAYER_1
 62
     7
  6
CONTINUOUS
 10
-1.314301
 20
-2.437203
  0
VERTEX
  8
LAYER_1
 62
     7
  6
CONTINUOUS
 10
-1.297984
 20
-2.444776
  0
SEQEND
  8
0
  0
POLYLINE
  8
LAYER_1
 62
     7
  6
CONTINUOUS
 66
     1
 40
0.003000
 41
0.003000
  0
VERTEX
  8
LAYER_1
 62
     7
  6
CONTINUOUS
 10
-1.297984
 20
-2.444776
  0
VERTEX
  8
LAYER_1
 62
     7
  6
CONTINUOUS
 10
-1.277143
 20
-2.452704
  0
VERTEX
  8
LAYER_1
 62
     7
  6
CONTINUOUS
 10
-1.250850
 20
-2.460896
  0
VERTEX
  8
LAYER_1
 62
     7
  6
CONTINUOUS
 10
-1.218165
 20
-2.469220
  0
SEQEND
  8
0
  0
POLYLINE
  8
LAYER_1
 62
     7
  6
CONTINUOUS
 66
     1
 40
0.003000
 41
0.003000
  0
VERTEX
  8
LAYER_1
 62
     7
  6
CONTINUOUS
 10
-1.218165
 20
-2.469220
  0
VERTEX
  8
LAYER_1
 62
     7
  6
CONTINUOUS
 10
-1.178493
 20
-2.477510
  0
VERTEX
  8
LAYER_1
 62
     7
  6
CONTINUOUS
 10
-1.132707
 20
-2.485457
  0
VERTEX
  8
LAYER_1
 62
     7
  6
CONTINUOUS
 10
-1.082028
 20
-2.492720
  0
SEQEND
  8
0
  0
POLYLINE
  8
LAYER_1
 62
     7
  6
CONTINUOUS
 66
     1
 40
0.003000
 41
0.003000
  0
VERTEX
  8
LAYER_1
 62
     7
  6
CONTINUOUS
 10
-1.082028
 20
-2.492720
  0
VERTEX
  8
LAYER_1
 62
     7
  6
CONTINUOUS
 10
-1.027615
 20
-2.499033
  0
VERTEX
  8
LAYER_1
 62
     7
  6
CONTINUOUS
 10
-0.970406
 20
-2.504357
  0
VERTEX
  8
LAYER_1
 62
     7
  6
CONTINUOUS
 10
-0.911264
 20
-2.508732
  0
SEQEND
  8
0
  0
POLYLINE
  8
LAYER_1
 62
     7
  6
CONTINUOUS
 66
     1
 40
0.003000
 41
0.003000
  0
VERTEX
  8
LAYER_1
 62
     7
  6
CONTINUOUS
 10
-0.911264
 20
-2.508732
  0
VERTEX
  8
LAYER_1
 62
     7
  6
CONTINUOUS
 10
-0.850959
 20
-2.512221
  0
VERTEX
  8
LAYER_1
 62
     7
  6
CONTINUOUS
 10
-0.789782
 20
-2.514954
  0
VERTEX
  8
LAYER_1
 62
     7
  6
CONTINUOUS
 10
-0.727913
 20
-2.517083
  0
SEQEND
  8
0
  0
POLYLINE
  8
LAYER_1
 62
     7
  6
CONTINUOUS
 66
     1
 40
0.003000
 41
0.003000
  0
VERTEX
  8
LAYER_1
 62
     7
  6
CONTINUOUS
 10
-0.727913
 20
-2.517083
  0
VERTEX
  8
LAYER_1
 62
     7
  6
CONTINUOUS
 10
-0.665534
 20
-2.518736
  0
VERTEX
  8
LAYER_1
 62
     7
  6
CONTINUOUS
 10
-0.602722
 20
-2.519973
  0
VERTEX
  8
LAYER_1
 62
     7
  6
CONTINUOUS
 10
-0.539555
 20
-2.520831
  0
SEQEND
  8
0
  0
POLYLINE
  8
LAYER_1
 62
     7
  6
CONTINUOUS
 66
     1
 40
0.003000
 41
0.003000
  0
VERTEX
  8
LAYER_1
 62
     7
  6
CONTINUOUS
 10
-0.539555
 20
-2.520831
  0
VERTEX
  8
LAYER_1
 62
     7
  6
CONTINUOUS
 10
-0.476118
 20
-2.521350
  0
VERTEX
  8
LAYER_1
 62
     7
  6
CONTINUOUS
 10
-0.412475
 20
-2.521585
  0
VERTEX
  8
LAYER_1
 62
     7
  6
CONTINUOUS
 10
-0.348705
 20
-2.521594
  0
SEQEND
  8
0
  0
POLYLINE
  8
LAYER_1
 62
     7
  6
CONTINUOUS
 66
     1
 40
0.003000
 41
0.003000
  0
VERTEX
  8
LAYER_1
 62
     7
  6
CONTINUOUS
 10
-0.348705
 20
-2.521594
  0
VERTEX
  8
LAYER_1
 62
     7
  6
CONTINUOUS
 10
-0.284856
 20
-2.521428
  0
VERTEX
  8
LAYER_1
 62
     7
  6
CONTINUOUS
 10
-0.220936
 20
-2.521110
  0
VERTEX
  8
LAYER_1
 62
     7
  6
CONTINUOUS
 10
-0.156929
 20
-2.520665
  0
SEQEND
  8
0
  0
POLYLINE
  8
LAYER_1
 62
     7
  6
CONTINUOUS
 66
     1
 40
0.003000
 41
0.003000
  0
VERTEX
  8
LAYER_1
 62
     7
  6
CONTINUOUS
 10
-0.156929
 20
-2.520665
  0
VERTEX
  8
LAYER_1
 62
     7
  6
CONTINUOUS
 10
-0.092807
 20
-2.520094
  0
VERTEX
  8
LAYER_1
 62
     7
  6
CONTINUOUS
 10
-0.028597
 20
-2.519410
  0
VERTEX
  8
LAYER_1
 62
     7
  6
CONTINUOUS
 10
0.035677
 20
-2.518610
  0
SEQEND
  8
0
  0
POLYLINE
  8
LAYER_1
 62
     7
  6
CONTINUOUS
 66
     1
 40
0.003000
 41
0.003000
  0
VERTEX
  8
LAYER_1
 62
     7
  6
CONTINUOUS
 10
0.035677
 20
-2.518610
  0
VERTEX
  8
LAYER_1
 62
     7
  6
CONTINUOUS
 10
0.100023
 20
-2.517713
  0
VERTEX
  8
LAYER_1
 62
     7
  6
CONTINUOUS
 10
0.164401
 20
-2.516738
  0
VERTEX
  8
LAYER_1
 62
     7
  6
CONTINUOUS
 10
0.228791
 20
-2.515720
  0
SEQEND
  8
0
  0
POLYLINE
  8
LAYER_1
 62
     7
  6
CONTINUOUS
 66
     1
 40
0.003000
 41
0.003000
  0
VERTEX
  8
LAYER_1
 62
     7
  6
CONTINUOUS
 10
0.228791
 20
-2.515720
  0
VERTEX
  8
LAYER_1
 62
     7
  6
CONTINUOUS
 10
0.293192
 20
-2.514690
  0
VERTEX
  8
LAYER_1
 62
     7
  6
CONTINUOUS
 10
0.357591
 20
-2.513625
  0
VERTEX
  8
LAYER_1
 62
     7
  6
CONTINUOUS
 10
0.421984
 20
-2.512484
  0
SEQEND
  8
0
  0
POLYLINE
  8
LAYER_1
 62
     7
  6
CONTINUOUS
 66
     1
 40
0.003000
 41
0.003000
  0
VERTEX
  8
LAYER_1
 62
     7
  6
CONTINUOUS
 10
0.421984
 20
-2.512484
  0
VERTEX
  8
LAYER_1
 62
     7
  6
CONTINUOUS
 10
0.486386
 20
-2.511241
  0
VERTEX
  8
LAYER_1
 62
     7
  6
CONTINUOUS
 10
0.550786
 20
-2.509923
  0
VERTEX
  8
LAYER_1
 62
     7
  6
CONTINUOUS
 10
0.615177
 20
-2.508567
  0
SEQEND
  8
0
  0
POLYLINE
  8
LAYER_1
 62
     7
  6
CONTINUOUS
 66
     1
 40
0.003000
 41
0.003000
  0
VERTEX
  8
LAYER_1
 62
     7
  6
CONTINUOUS
 10
0.615177
 20
-2.508567
  0
VERTEX
  8
LAYER_1
 62
     7
  6
CONTINUOUS
 10
0.679584
 20
-2.507202
  0
VERTEX
  8
LAYER_1
 62
     7
  6
CONTINUOUS
 10
0.744005
 20
-2.505816
  0
VERTEX
  8
LAYER_1
 62
     7
  6
CONTINUOUS
 10
0.808457
 20
-2.504386
  0
SEQEND
  8
0
  0
POLYLINE
  8
LAYER_1
 62
     7
  6
CONTINUOUS
 66
     1
 40
0.003000
 41
0.003000
  0
VERTEX
  8
LAYER_1
 62
     7
  6
CONTINUOUS
 10
0.808457
 20
-2.504386
  0
VERTEX
  8
LAYER_1
 62
     7
  6
CONTINUOUS
 10
0.872963
 20
-2.502913
  0
VERTEX
  8
LAYER_1
 62
     7
  6
CONTINUOUS
 10
0.937486
 20
-2.501382
  0
VERTEX
  8
LAYER_1
 62
     7
  6
CONTINUOUS
 10
1.001984
 20
-2.499791
  0
SEQEND
  8
0
  0
POLYLINE
  8
LAYER_1
 62
     7
  6
CONTINUOUS
 66
     1
 40
0.003000
 41
0.003000
  0
VERTEX
  8
LAYER_1
 62
     7
  6
CONTINUOUS
 10
1.001984
 20
-2.499791
  0
VERTEX
  8
LAYER_1
 62
     7
  6
CONTINUOUS
 10
1.066448
 20
-2.498149
  0
VERTEX
  8
LAYER_1
 62
     7
  6
CONTINUOUS
 10
1.130891
 20
-2.496466
  0
VERTEX
  8
LAYER_1
 62
     7
  6
CONTINUOUS
 10
1.195346
 20
-2.494764
  0
SEQEND
  8
0
  0
POLYLINE
  8
LAYER_1
 62
     7
  6
CONTINUOUS
 66
     1
 40
0.003000
 41
0.003000
  0
VERTEX
  8
LAYER_1
 62
     7
  6
CONTINUOUS
 10
1.195346
 20
-2.494764
  0
VERTEX
  8
LAYER_1
 62
     7
  6
CONTINUOUS
 10
1.259856
 20
-2.493063
  0
VERTEX
  8
LAYER_1
 62
     7
  6
CONTINUOUS
 10
1.324400
 20
-2.491358
  0
VERTEX
  8
LAYER_1
 62
     7
  6
CONTINUOUS
 10
1.388957
 20
-2.489650
  0
SEQEND
  8
0
  0
POLYLINE
  8
LAYER_1
 62
     7
  6
CONTINUOUS
 66
     1
 40
0.003000
 41
0.003000
  0
VERTEX
  8
LAYER_1
 62
     7
  6
CONTINUOUS
 10
1.388957
 20
-2.489650
  0
VERTEX
  8
LAYER_1
 62
     7
  6
CONTINUOUS
 10
1.453523
 20
-2.487949
  0
VERTEX
  8
LAYER_1
 62
     7
  6
CONTINUOUS
 10
1.518066
 20
-2.486223
  0
VERTEX
  8
LAYER_1
 62
     7
  6
CONTINUOUS
 10
1.582567
 20
-2.484457
  0
SEQEND
  8
0
  0
POLYLINE
  8
LAYER_1
 62
     7
  6
CONTINUOUS
 66
     1
 40
0.003000
 41
0.003000
  0
VERTEX
  8
LAYER_1
 62
     7
  6
CONTINUOUS
 10
1.582567
 20
-2.484457
  0
VERTEX
  8
LAYER_1
 62
     7
  6
CONTINUOUS
 10
1.647032
 20
-2.482652
  0
VERTEX
  8
LAYER_1
 62
     7
  6
CONTINUOUS
 10
1.711474
 20
-2.480824
  0
VERTEX
  8
LAYER_1
 62
     7
  6
CONTINUOUS
 10
1.775929
 20
-2.479012
  0
SEQEND
  8
0
  0
POLYLINE
  8
LAYER_1
 62
     7
  6
CONTINUOUS
 66
     1
 40
0.003000
 41
0.003000
  0
VERTEX
  8
LAYER_1
 62
     7
  6
CONTINUOUS
 10
1.775929
 20
-2.479012
  0
VERTEX
  8
LAYER_1
 62
     7
  6
CONTINUOUS
 10
1.840438
 20
-2.477239
  0
VERTEX
  8
LAYER_1
 62
     7
  6
CONTINUOUS
 10
1.904983
 20
-2.475469
  0
VERTEX
  8
LAYER_1
 62
     7
  6
CONTINUOUS
 10
1.969539
 20
-2.473650
  0
SEQEND
  8
0
  0
POLYLINE
  8
LAYER_1
 62
     7
  6
CONTINUOUS
 66
     1
 40
0.003000
 41
0.003000
  0
VERTEX
  8
LAYER_1
 62
     7
  6
CONTINUOUS
 10
1.969539
 20
-2.473650
  0
VERTEX
  8
LAYER_1
 62
     7
  6
CONTINUOUS
 10
2.034109
 20
-2.471726
  0
VERTEX
  8
LAYER_1
 62
     7
  6
CONTINUOUS
 10
2.098678
 20
-2.469743
  0
VERTEX
  8
LAYER_1
 62
     7
  6
CONTINUOUS
 10
2.163248
 20
-2.467764
  0
SEQEND
  8
0
  0
POLYLINE
  8
LAYER_1
 62
     7
  6
CONTINUOUS
 66
     1
 40
0.003000
 41
0.003000
  0
VERTEX
  8
LAYER_1
 62
     7
  6
CONTINUOUS
 10
2.163248
 20
-2.467764
  0
VERTEX
  8
LAYER_1
 62
     7
  6
CONTINUOUS
 10
2.227808
 20
-2.465826
  0
VERTEX
  8
LAYER_1
 62
     7
  6
CONTINUOUS
 10
2.292373
 20
-2.463907
  0
VERTEX
  8
LAYER_1
 62
     7
  6
CONTINUOUS
 10
2.356941
 20
-2.461969
  0
SEQEND
  8
0
  0
POLYLINE
  8
LAYER_1
 62
     7
  6
CONTINUOUS
 66
     1
 40
0.003000
 41
0.003000
  0
VERTEX
  8
LAYER_1
 62
     7
  6
CONTINUOUS
 10
2.356941
 20
-2.461969
  0
VERTEX
  8
LAYER_1
 62
     7
  6
CONTINUOUS
 10
2.421502
 20
-2.459989
  0
VERTEX
  8
LAYER_1
 62
     7
  6
CONTINUOUS
 10
2.486068
 20
-2.457991
  0
VERTEX
  8
LAYER_1
 62
     7
  6
CONTINUOUS
 10
2.550638
 20
-2.456012
  0
SEQEND
  8
0
  0
POLYLINE
  8
LAYER_1
 62
     7
  6
CONTINUOUS
 66
     1
 40
0.003000
 41
0.003000
  0
VERTEX
  8
LAYER_1
 62
     7
  6
CONTINUOUS
 10
2.550638
 20
-2.456012
  0
VERTEX
  8
LAYER_1
 62
     7
  6
CONTINUOUS
 10
2.615197
 20
-2.454076
  0
VERTEX
  8
LAYER_1
 62
     7
  6
CONTINUOUS
 10
2.679763
 20
-2.452157
  0
VERTEX
  8
LAYER_1
 62
     7
  6
CONTINUOUS
 10
2.744331
 20
-2.450220
  0
SEQEND
  8
0
  0
POLYLINE
  8
LAYER_1
 62
     7
  6
CONTINUOUS
 66
     1
 40
0.003000
 41
0.003000
  0
VERTEX
  8
LAYER_1
 62
     7
  6
CONTINUOUS
 10
2.744331
 20
-2.450220
  0
VERTEX
  8
LAYER_1
 62
     7
  6
CONTINUOUS
 10
2.808890
 20
-2.448238
  0
VERTEX
  8
LAYER_1
 62
     7
  6
CONTINUOUS
 10
2.873457
 20
-2.446217
  0
VERTEX
  8
LAYER_1
 62
     7
  6
CONTINUOUS
 10
2.938028
 20
-2.444177
  0
SEQEND
  8
0
  0
POLYLINE
  8
LAYER_1
 62
     7
  6
CONTINUOUS
 66
     1
 40
0.003000
 41
0.003000
  0
VERTEX
  8
LAYER_1
 62
     7
  6
CONTINUOUS
 10
2.938028
 20
-2.444177
  0
VERTEX
  8
LAYER_1
 62
     7
  6
CONTINUOUS
 10
3.002586
 20
-2.442127
  0
VERTEX
  8
LAYER_1
 62
     7
  6
CONTINUOUS
 10
3.067151
 20
-2.440082
  0
VERTEX
  8
LAYER_1
 62
     7
  6
CONTINUOUS
 10
3.131720
 20
-2.438039
  0
SEQEND
  8
0
  0
POLYLINE
  8
LAYER_1
 62
     7
  6
CONTINUOUS
 66
     1
 40
0.003000
 41
0.003000
  0
VERTEX
  8
LAYER_1
 62
     7
  6
CONTINUOUS
 10
3.131720
 20
-2.438039
  0
VERTEX
  8
LAYER_1
 62
     7
  6
CONTINUOUS
 10
3.196280
 20
-2.435999
  0
VERTEX
  8
LAYER_1
 62
     7
  6
CONTINUOUS
 10
3.260846
 20
-2.433957
  0
VERTEX
  8
LAYER_1
 62
     7
  6
CONTINUOUS
 10
3.325413
 20
-2.431913
  0
SEQEND
  8
0
  0
POLYLINE
  8
LAYER_1
 62
     7
  6
CONTINUOUS
 66
     1
 40
0.003000
 41
0.003000
  0
VERTEX
  8
LAYER_1
 62
     7
  6
CONTINUOUS
 10
3.325413
 20
-2.431913
  0
VERTEX
  8
LAYER_1
 62
     7
  6
CONTINUOUS
 10
3.389575
 20
-2.429879
  0
VERTEX
  8
LAYER_1
 62
     7
  6
CONTINUOUS
 10
3.451351
 20
-2.427945
  0
VERTEX
  8
LAYER_1
 62
     7
  6
CONTINUOUS
 10
3.508346
 20
-2.426205
  0
SEQEND
  8
0
  0
POLYLINE
  8
LAYER_1
 62
     7
  6
CONTINUOUS
 66
     1
 40
0.003000
 41
0.003000
  0
VERTEX
  8
LAYER_1
 62
     7
  6
CONTINUOUS
 10
3.508346
 20
-2.426205
  0
VERTEX
  8
LAYER_1
 62
     7
  6
CONTINUOUS
 10
3.558165
 20
-2.424731
  0
VERTEX
  8
LAYER_1
 62
     7
  6
CONTINUOUS
 10
3.598419
 20
-2.423580
  0
VERTEX
  8
LAYER_1
 62
     7
  6
CONTINUOUS
 10
3.626720
 20
-2.422791
  0
SEQEND
  8
0
  0
POLYLINE
  8
LAYER_1
 62
     7
  6
CONTINUOUS
 66
     1
 40
0.003000
 41
0.003000
  0
VERTEX
  8
LAYER_1
 62
     7
  6
CONTINUOUS
 10
3.626720
 20
-2.422791
  0
VERTEX
  8
LAYER_1
 62
     7
  6
CONTINUOUS
 10
3.641858
 20
-2.422370
  0
VERTEX
  8
LAYER_1
 62
     7
  6
CONTINUOUS
 10
3.647436
 20
-2.422215
  0
VERTEX
  8
LAYER_1
 62
     7
  6
CONTINUOUS
 10
3.648232
 20
-2.422193
  0
SEQEND
  8
0
  0
SOLID
  8
LAYER_1
 62
   253
  6
CONTINUOUS
 10
3.649539
 20
-2.361957
 11
3.649539
 21
-2.421583
 12
2.739232
 22
-2.334232
 13
2.739929
 23
-2.449319
  0
POLYLINE
  8
LAYER_1
 62
   253
  6
CONTINUOUS
 66
     1
 40
0.003000
 41
0.003000
 70
     1
  0
VERTEX
  8
LAYER_1
 62
   253
  6
CONTINUOUS
 10
3.649539
 20
-2.361957
  0
VERTEX
  8
LAYER_1
 62
   253
  6
CONTINUOUS
 10
3.649539
 20
-2.421583
  0
VERTEX
  8
LAYER_1
 62
   253
  6
CONTINUOUS
 10
2.739929
 20
-2.449319
  0
VERTEX
  8
LAYER_1
 62
   253
  6
CONTINUOUS
 10
2.739232
 20
-2.334232
  0
SEQEND
  8
0
  0
POLYLINE
  8
LAYER_1
 62
     7
  6
CONTINUOUS
 66
     1
 40
0.003000
 41
0.003000
 70
     1
  0
VERTEX
  8
LAYER_1
 62
     7
  6
CONTINUOUS
 10
3.649539
 20
-2.361957
  0
VERTEX
  8
LAYER_1
 62
     7
  6
CONTINUOUS
 10
3.649539
 20
-2.421583
  0
VERTEX
  8
LAYER_1
 62
     7
  6
CONTINUOUS
 10
2.739929
 20
-2.449319
  0
VERTEX
  8
LAYER_1
 62
     7
  6
CONTINUOUS
 10
2.739232
 20
-2.334232
  0
SEQEND
  8
0
  0
POLYLINE
  8
LAYER_1
 62
   253
  6
CONTINUOUS
 66
     1
 40
0.003000
 41
0.003000
 70
     1
  0
VERTEX
  8
LAYER_1
 62
   253
  6
CONTINUOUS
 10
0.115776
 20
-2.517264
  0
VERTEX
  8
LAYER_1
 62
   253
  6
CONTINUOUS
 10
-0.160846
 20
-2.520039
  0
VERTEX
  8
LAYER_1
 62
   253
  6
CONTINUOUS
 10
-0.404886
 20
-2.520732
  0
VERTEX
  8
LAYER_1
 62
   253
  6
CONTINUOUS
 10
-0.633677
 20
-2.518650
  0
VERTEX
  8
LAYER_1
 62
   253
  6
CONTINUOUS
 10
-0.783429
 20
-2.514484
  0
VERTEX
  8
LAYER_1
 62
   253
  6
CONTINUOUS
 10
-0.909610
 20
-2.508941
  0
VERTEX
  8
LAYER_1
 62
   253
  6
CONTINUOUS
 10
-1.023319
 20
-2.500622
  0
VERTEX
  8
LAYER_1
 62
   253
  6
CONTINUOUS
 10
-1.094028
 20
-2.492303
  0
VERTEX
  8
LAYER_1
 62
   253
  6
CONTINUOUS
 10
-1.160583
 20
-2.479831
  0
VERTEX
  8
LAYER_1
 62
   253
  6
CONTINUOUS
 10
-1.225764
 20
-2.467346
  0
VERTEX
  8
LAYER_1
 62
   253
  6
CONTINUOUS
 10
-1.290929
 20
-2.447929
  0
VERTEX
  8
LAYER_1
 62
   253
  6
CONTINUOUS
 10
-1.320732
 20
-2.432677
  0
VERTEX
  8
LAYER_1
 62
   253
  6
CONTINUOUS
 10
-1.338764
 20
-2.420205
  0
VERTEX
  8
LAYER_1
 62
   253
  6
CONTINUOUS
 10
-1.350555
 20
-2.404248
  0
VERTEX
  8
LAYER_1
 62
   253
  6
CONTINUOUS
 10
-1.354705
 20
-2.391083
  0
VERTEX
  8
LAYER_1
 62
   253
  6
CONTINUOUS
 10
-1.351248
 20
-2.379291
  0
VERTEX
  8
LAYER_1
 62
   253
  6
CONTINUOUS
 10
-1.340150
 20
-2.364039
  0
VERTEX
  8
LAYER_1
 62
   253
  6
CONTINUOUS
 10
-1.320732
 20
-2.350874
  0
VERTEX
  8
LAYER_1
 62
   253
  6
CONTINUOUS
 10
-1.290929
 20
-2.335622
  0
VERTEX
  8
LAYER_1
 62
   253
  6
CONTINUOUS
 10
-1.222984
 20
-2.316205
  0
VERTEX
  8
LAYER_1
 62
   253
  6
CONTINUOUS
 10
-1.161969
 20
-2.303720
  0
VERTEX
  8
LAYER_1
 62
   253
  6
CONTINUOUS
 10
-1.100957
 20
-2.294028
  0
VERTEX
  8
LAYER_1
 62
   253
  6
CONTINUOUS
 10
-1.033012
 20
-2.284319
  0
VERTEX
  8
LAYER_1
 62
   253
  6
CONTINUOUS
 10
-0.909610
 20
-2.274610
  0
VERTEX
  8
LAYER_1
 62
   253
  6
CONTINUOUS
 10
-0.782039
 20
-2.267677
  0
VERTEX
  8
LAYER_1
 62
   253
  6
CONTINUOUS
 10
-0.626748
 20
-2.263512
  0
VERTEX
  8
LAYER_1
 62
   253
  6
CONTINUOUS
 10
-0.400039
 20
-2.261429
  0
VERTEX
  8
LAYER_1
 62
   253
  6
CONTINUOUS
 10
-0.159457
 20
-2.263512
  0
VERTEX
  8
LAYER_1
 62
   253
  6
CONTINUOUS
 10
0.115083
 20
-2.266291
  0
SEQEND
  8
0
  0
POLYLINE
  8
LAYER_1
 62
     7
  6
CONTINUOUS
 66
     1
 40
0.003000
 41
0.003000
 70
     1
  0
VERTEX
  8
LAYER_1
 62
     7
  6
CONTINUOUS
 10
0.115776
 20
-2.517264
  0
VERTEX
  8
LAYER_1
 62
     7
  6
CONTINUOUS
 10
-0.160846
 20
-2.520039
  0
VERTEX
  8
LAYER_1
 62
     7
  6
CONTINUOUS
 10
-0.404886
 20
-2.520732
  0
VERTEX
  8
LAYER_1
 62
     7
  6
CONTINUOUS
 10
-0.633677
 20
-2.518650
  0
VERTEX
  8
LAYER_1
 62
     7
  6
CONTINUOUS
 10
-0.783429
 20
-2.514484
  0
VERTEX
  8
LAYER_1
 62
     7
  6
CONTINUOUS
 10
-0.909610
 20
-2.508941
  0
VERTEX
  8
LAYER_1
 62
     7
  6
CONTINUOUS
 10
-1.023319
 20
-2.500622
  0
VERTEX
  8
LAYER_1
 62
     7
  6
CONTINUOUS
 10
-1.094028
 20
-2.492303
  0
VERTEX
  8
LAYER_1
 62
     7
  6
CONTINUOUS
 10
-1.160583
 20
-2.479831
  0
VERTEX
  8
LAYER_1
 62
     7
  6
CONTINUOUS
 10
-1.225764
 20
-2.467346
  0
VERTEX
  8
LAYER_1
 62
     7
  6
CONTINUOUS
 10
-1.290929
 20
-2.447929
  0
VERTEX
  8
LAYER_1
 62
     7
  6
CONTINUOUS
 10
-1.320732
 20
-2.432677
  0
VERTEX
  8
LAYER_1
 62
     7
  6
CONTINUOUS
 10
-1.338764
 20
-2.420205
  0
VERTEX
  8
LAYER_1
 62
     7
  6
CONTINUOUS
 10
-1.350555
 20
-2.404248
  0
VERTEX
  8
LAYER_1
 62
     7
  6
CONTINUOUS
 10
-1.354705
 20
-2.391083
  0
VERTEX
  8
LAYER_1
 62
     7
  6
CONTINUOUS
 10
-1.351248
 20
-2.379291
  0
VERTEX
  8
LAYER_1
 62
     7
  6
CONTINUOUS
 10
-1.340150
 20
-2.364039
  0
VERTEX
  8
LAYER_1
 62
     7
  6
CONTINUOUS
 10
-1.320732
 20
-2.350874
  0
VERTEX
  8
LAYER_1
 62
     7
  6
CONTINUOUS
 10
-1.290929
 20
-2.335622
  0
VERTEX
  8
LAYER_1
 62
     7
  6
CONTINUOUS
 10
-1.222984
 20
-2.316205
  0
VERTEX
  8
LAYER_1
 62
     7
  6
CONTINUOUS
 10
-1.161969
 20
-2.303720
  0
VERTEX
  8
LAYER_1
 62
     7
  6
CONTINUOUS
 10
-1.100957
 20
-2.294028
  0
VERTEX
  8
LAYER_1
 62
     7
  6
CONTINUOUS
 10
-1.033012
 20
-2.284319
  0
VERTEX
  8
LAYER_1
 62
     7
  6
CONTINUOUS
 10
-0.909610
 20
-2.274610
  0
VERTEX
  8
LAYER_1
 62
     7
  6
CONTINUOUS
 10
-0.782039
 20
-2.267677
  0
VERTEX
  8
LAYER_1
 62
     7
  6
CONTINUOUS
 10
-0.626748
 20
-2.263512
  0
VERTEX
  8
LAYER_1
 62
     7
  6
CONTINUOUS
 10
-0.400039
 20
-2.261429
  0
VERTEX
  8
LAYER_1
 62
     7
  6
CONTINUOUS
 10
-0.159457
 20
-2.263512
  0
VERTEX
  8
LAYER_1
 62
     7
  6
CONTINUOUS
 10
0.115083
 20
-2.266291
  0
SEQEND
  8
0
  0
POLYLINE
  8
LAYER_1
 62
     7
  6
CONTINUOUS
 66
     1
 40
0.003000
 41
0.003000
  0
VERTEX
  8
LAYER_1
 62
     7
  6
CONTINUOUS
 10
-0.357555
 20
-1.213402
  0
VERTEX
  8
LAYER_1
 62
     7
  6
CONTINUOUS
 10
-0.357555
 20
-1.212582
  0
VERTEX
  8
LAYER_1
 62
     7
  6
CONTINUOUS
 10
-0.357555
 20
-1.206846
  0
VERTEX
  8
LAYER_1
 62
     7
  6
CONTINUOUS
 10
-0.357555
 20
-1.191276
  0
SEQEND
  8
0
  0
POLYLINE
  8
LAYER_1
 62
     7
  6
CONTINUOUS
 66
     1
 40
0.003000
 41
0.003000
  0
VERTEX
  8
LAYER_1
 62
     7
  6
CONTINUOUS
 10
-0.357555
 20
-1.191276
  0
VERTEX
  8
LAYER_1
 62
     7
  6
CONTINUOUS
 10
-0.356872
 20
-1.164029
  0
VERTEX
  8
LAYER_1
 62
     7
  6
CONTINUOUS
 10
-0.352090
 20
-1.135555
  0
VERTEX
  8
LAYER_1
 62
     7
  6
CONTINUOUS
 10
-0.339110
 20
-1.119374
  0
SEQEND
  8
0
  0
POLYLINE
  8
LAYER_1
 62
     7
  6
CONTINUOUS
 66
     1
 40
0.003000
 41
0.003000
  0
VERTEX
  8
LAYER_1
 62
     7
  6
CONTINUOUS
 10
-0.339110
 20
-1.119374
  0
VERTEX
  8
LAYER_1
 62
     7
  6
CONTINUOUS
 10
-0.315555
 20
-1.123950
  0
VERTEX
  8
LAYER_1
 62
     7
  6
CONTINUOUS
 10
-0.285852
 20
-1.137539
  0
VERTEX
  8
LAYER_1
 62
     7
  6
CONTINUOUS
 10
-0.256150
 20
-1.143346
  0
SEQEND
  8
0
  0
POLYLINE
  8
LAYER_1
 62
     7
  6
CONTINUOUS
 66
     1
 40
0.003000
 41
0.003000
  0
VERTEX
  8
LAYER_1
 62
     7
  6
CONTINUOUS
 10
-0.256150
 20
-1.143346
  0
VERTEX
  8
LAYER_1
 62
     7
  6
CONTINUOUS
 10
-0.231562
 20
-1.129479
  0
VERTEX
  8
LAYER_1
 62
     7
  6
CONTINUOUS
 10
-0.213125
 20
-1.103733
  0
VERTEX
  8
LAYER_1
 62
     7
  6
CONTINUOUS
 10
-0.200831
 20
-1.078803
  0
SEQEND
  8
0
  0
POLYLINE
  8
LAYER_1
 62
     7
  6
CONTINUOUS
 66
     1
 40
0.003000
 41
0.003000
  0
VERTEX
  8
LAYER_1
 62
     7
  6
CONTINUOUS
 10
-0.200831
 20
-1.078803
  0
VERTEX
  8
LAYER_1
 62
     7
  6
CONTINUOUS
 10
-0.194351
 20
-1.064535
  0
VERTEX
  8
LAYER_1
 62
     7
  6
CONTINUOUS
 10
-0.191963
 20
-1.059279
  0
VERTEX
  8
LAYER_1
 62
     7
  6
CONTINUOUS
 10
-0.191622
 20
-1.058528
  0
SEQEND
  8
0
  0
POLYLINE
  8
LAYER_1
 62
     7
  6
CONTINUOUS
 66
     1
 40
0.003000
 41
0.003000
  0
VERTEX
  8
LAYER_1
 62
     7
  6
CONTINUOUS
 10
-0.379677
 20
1.364067
  0
VERTEX
  8
LAYER_1
 62
     7
  6
CONTINUOUS
 10
-0.379609
 20
1.361745
  0
VERTEX
  8
LAYER_1
 62
     7
  6
CONTINUOUS
 10
-0.379130
 20
1.345495
  0
VERTEX
  8
LAYER_1
 62
     7
  6
CONTINUOUS
 10
-0.377831
 20
1.301386
  0
SEQEND
  8
0
  0
POLYLINE
  8
LAYER_1
 62
     7
  6
CONTINUOUS
 66
     1
 40
0.003000
 41
0.003000
  0
VERTEX
  8
LAYER_1
 62
     7
  6
CONTINUOUS
 10
-0.377831
 20
1.301386
  0
VERTEX
  8
LAYER_1
 62
     7
  6
CONTINUOUS
 10
-0.374484
 20
1.223128
  0
VERTEX
  8
LAYER_1
 62
     7
  6
CONTINUOUS
 10
-0.364585
 20
1.135043
  0
VERTEX
  8
LAYER_1
 62
     7
  6
CONTINUOUS
 10
-0.342803
 20
1.069083
  0
SEQEND
  8
0
  0
POLYLINE
  8
LAYER_1
 62
     7
  6
CONTINUOUS
 66
     1
 40
0.003000
 41
0.003000
  0
VERTEX
  8
LAYER_1
 62
     7
  6
CONTINUOUS
 10
-0.342803
 20
1.069083
  0
VERTEX
  8
LAYER_1
 62
     7
  6
CONTINUOUS
 10
-0.305654
 20
1.046683
  0
VERTEX
  8
LAYER_1
 62
     7
  6
CONTINUOUS
 10
-0.257031
 20
1.047229
  0
VERTEX
  8
LAYER_1
 62
     7
  6
CONTINUOUS
 10
-0.202677
 20
1.039583
  0
SEQEND
  8
0
  0
POLYLINE
  8
LAYER_1
 62
     7
  6
CONTINUOUS
 66
     1
 40
0.003000
 41
0.003000
  0
VERTEX
  8
LAYER_1
 62
     7
  6
CONTINUOUS
 10
-0.202677
 20
1.039583
  0
VERTEX
  8
LAYER_1
 62
     7
  6
CONTINUOUS
 10
-0.148394
 20
1.001478
  0
VERTEX
  8
LAYER_1
 62
     7
  6
CONTINUOUS
 10
-0.100252
 20
0.946167
  0
VERTEX
  8
LAYER_1
 62
     7
  6
CONTINUOUS
 10
-0.064402
 20
0.895776
  0
SEQEND
  8
0
  0
POLYLINE
  8
LAYER_1
 62
     7
  6
CONTINUOUS
 66
     1
 40
0.003000
 41
0.003000
  0
VERTEX
  8
LAYER_1
 62
     7
  6
CONTINUOUS
 10
-0.064402
 20
0.895776
  0
VERTEX
  8
LAYER_1
 62
     7
  6
CONTINUOUS
 10
-0.044942
 20
0.867226
  0
VERTEX
  8
LAYER_1
 62
     7
  6
CONTINUOUS
 10
-0.037772
 20
0.856707
  0
VERTEX
  8
LAYER_1
 62
     7
  6
CONTINUOUS
 10
-0.036748
 20
0.855205
  0
SEQEND
  8
0
  0
SOLID
  8
LAYER_1
  6
CONTINUOUS
 10
0.113441
 20
4.472528
 11
2.513913
 21
2.914150
 12
0.114819
 22
4.771193
 13
2.988205
 23
2.914150
  0
POLYLINE
  8
LAYER_1
  6
CONTINUOUS
 66
     1
 40
0.003000
 41
0.003000
 70
     1
  0
VERTEX
  8
LAYER_1
  6
CONTINUOUS
 10
0.113441
 20
4.472528
  0
VERTEX
  8
LAYER_1
  6
CONTINUOUS
 10
2.513913
 20
2.914150
  0
VERTEX
  8
LAYER_1
  6
CONTINUOUS
 10
2.988205
 20
2.914150
  0
VERTEX
  8
LAYER_1
  6
CONTINUOUS
 10
0.114819
 20
4.771193
  0
SEQEND
  8
0
  0
POLYLINE
  8
LAYER_1
 62
     7
  6
CONTINUOUS
 66
     1
 40
0.006268
 41
0.006268
 70
     1
  0
VERTEX
  8
LAYER_1
 62
     7
  6
CONTINUOUS
 10
0.113441
 20
4.472528
  0
VERTEX
  8
LAYER_1
 62
     7
  6
CONTINUOUS
 10
2.513913
 20
2.914150
  0
VERTEX
  8
LAYER_1
 62
     7
  6
CONTINUOUS
 10
2.988205
 20
2.914150
  0
VERTEX
  8
LAYER_1
 62
     7
  6
CONTINUOUS
 10
0.114819
 20
4.771193
  0
SEQEND
  8
0
  0
SOLID
  8
LAYER_1
  6
CONTINUOUS
 10
0.114819
 20
4.771886
 11
2.946028
 21
6.611650
 12
0.115512
 22
5.000732
 13
2.594803
 23
6.610969
  0
POLYLINE
  8
LAYER_1
  6
CONTINUOUS
 66
     1
 40
0.003000
 41
0.003000
 70
     1
  0
VERTEX
  8
LAYER_1
  6
CONTINUOUS
 10
0.114819
 20
4.771886
  0
VERTEX
  8
LAYER_1
  6
CONTINUOUS
 10
2.946028
 20
6.611650
  0
VERTEX
  8
LAYER_1
  6
CONTINUOUS
 10
2.594803
 20
6.610969
  0
VERTEX
  8
LAYER_1
  6
CONTINUOUS
 10
0.115512
 20
5.000732
  0
SEQEND
  8
0
  0
POLYLINE
  8
LAYER_1
 62
     7
  6
CONTINUOUS
 66
     1
 40
0.006268
 41
0.006268
 70
     1
  0
VERTEX
  8
LAYER_1
 62
     7
  6
CONTINUOUS
 10
0.114819
 20
4.771886
  0
VERTEX
  8
LAYER_1
 62
     7
  6
CONTINUOUS
 10
2.946028
 20
6.611650
  0
VERTEX
  8
LAYER_1
 62
     7
  6
CONTINUOUS
 10
2.594803
 20
6.610969
  0
VERTEX
  8
LAYER_1
 62
     7
  6
CONTINUOUS
 10
0.115512
 20
5.000732
  0
SEQEND
  8
0
  0
SOLID
  8
LAYER_1
  6
CONTINUOUS
 10
0.116205
 20
1.051567
 11
2.985441
 21
2.912764
 12
0.116205
 22
1.361303
 13
2.515303
 23
2.914150
  0
POLYLINE
  8
LAYER_1
  6
CONTINUOUS
 66
     1
 40
0.003000
 41
0.003000
 70
     1
  0
VERTEX
  8
LAYER_1
  6
CONTINUOUS
 10
0.116205
 20
1.051567
  0
VERTEX
  8
LAYER_1
  6
CONTINUOUS
 10
2.985441
 20
2.912764
  0
VERTEX
  8
LAYER_1
  6
CONTINUOUS
 10
2.515303
 20
2.914150
  0
VERTEX
  8
LAYER_1
  6
CONTINUOUS
 10
0.116205
 20
1.361303
  0
SEQEND
  8
0
  0
POLYLINE
  8
LAYER_1
 62
     7
  6
CONTINUOUS
 66
     1
 40
0.006268
 41
0.006268
 70
     1
  0
VERTEX
  8
LAYER_1
 62
     7
  6
CONTINUOUS
 10
0.116205
 20
1.051567
  0
VERTEX
  8
LAYER_1
 62
     7
  6
CONTINUOUS
 10
2.985441
 20
2.912764
  0
VERTEX
  8
LAYER_1
 62
     7
  6
CONTINUOUS
 10
2.515303
 20
2.914150
  0
VERTEX
  8
LAYER_1
 62
     7
  6
CONTINUOUS
 10
0.116205
 20
1.361303
  0
SEQEND
  8
0
  0
POLYLINE
  8
LAYER_1
 62
     7
  6
DASHED
 66
     1
 40
0.003000
 41
0.003000
  0
VERTEX
  8
LAYER_1
 62
     7
  6
DASHED
 10
0.499764
 20
0.000665
  0
VERTEX
  8
LAYER_1
 62
     7
  6
DASHED
 10
0.497226
 20
0.168351
  0
VERTEX
  8
LAYER_1
 62
     7
  6
DASHED
 10
0.490542
 20
0.333656
  0
VERTEX
  8
LAYER_1
 62
     7
  6
DASHED
 10
0.478328
 20
0.494658
  0
VERTEX
  8
LAYER_1
 62
     7
  6
DASHED
 10
0.459199
 20
0.649439
  0
VERTEX
  8
LAYER_1
 62
     7
  6
DASHED
 10
0.431773
 20
0.796076
  0
VERTEX
  8
LAYER_1
 62
     7
  6
DASHED
 10
0.394665
 20
0.932650
  0
SEQEND
  8
0
  0
POLYLINE
  8
LAYER_1
 62
     7
  6
DASHED
 66
     1
 40
0.003000
 41
0.003000
  0
VERTEX
  8
LAYER_1
 62
     7
  6
DASHED
 10
0.394665
 20
0.932650
  0
VERTEX
  8
LAYER_1
 62
     7
  6
DASHED
 10
0.319969
 20
1.114325
  0
VERTEX
  8
LAYER_1
 62
     7
  6
DASHED
 10
0.228506
 20
1.261861
  0
VERTEX
  8
LAYER_1
 62
     7
  6
DASHED
 10
0.128400
 20
1.368087
  0
VERTEX
  8
LAYER_1
 62
     7
  6
DASHED
 10
0.027776
 20
1.425831
  0
SEQEND
  8
0
  0
POLYLINE
  8
LAYER_1
 62
     7
  6
DASHED
 66
     1
 40
0.003000
 41
0.003000
  0
VERTEX
  8
LAYER_1
 62
     7
  6
DASHED
 10
0.027776
 20
1.425831
  0
VERTEX
  8
LAYER_1
 62
     7
  6
DASHED
 10
-0.099980
 20
1.417640
  0
VERTEX
  8
LAYER_1
 62
     7
  6
DASHED
 10
-0.235932
 20
1.309273
  0
VERTEX
  8
LAYER_1
 62
     7
  6
DASHED
 10
-0.401803
 20
1.099500
  0
SEQEND
  8
0
  0
POLYLINE
  8
LAYER_1
 62
     7
  6
DASHED
 66
     1
 40
0.003000
 41
0.003000
  0
VERTEX
  8
LAYER_1
 62
     7
  6
DASHED
 10
-0.401803
 20
1.099500
  0
VERTEX
  8
LAYER_1
 62
     7
  6
DASHED
 10
-0.475269
 20
0.994802
  0
VERTEX
  8
LAYER_1
 62
     7
  6
DASHED
 10
-0.551890
 20
0.877755
  0
VERTEX
  8
LAYER_1
 62
     7
  6
DASHED
 10
-0.627559
 20
0.750446
  0
VERTEX
  8
LAYER_1
 62
     7
  6
DASHED
 10
-0.698173
 20
0.614959
  0
VERTEX
  8
LAYER_1
 62
     7
  6
DASHED
 10
-0.759626
 20
0.473378
  0
VERTEX
  8
LAYER_1
 62
     7
  6
DASHED
 10
-0.807813
 20
0.327790
  0
VERTEX
  8
LAYER_1
 62
     7
  6
DASHED
 10
-0.838629
 20
0.180278
  0
VERTEX
  8
LAYER_1
 62
     7
  6
DASHED
 10
-0.847969
 20
0.032929
  0
SEQEND
  8
0
  0
POLYLINE
  8
LAYER_1
 62
     7
  6
DASHED
 66
     1
 40
0.003000
 41
0.003000
  0
VERTEX
  8
LAYER_1
 62
     7
  6
DASHED
 10
-0.847969
 20
0.032929
  0
VERTEX
  8
LAYER_1
 62
     7
  6
DASHED
 10
-0.833133
 20
-0.112337
  0
VERTEX
  8
LAYER_1
 62
     7
  6
DASHED
 10
-0.797038
 20
-0.254266
  0
VERTEX
  8
LAYER_1
 62
     7
  6
DASHED
 10
-0.744003
 20
-0.391765
  0
VERTEX
  8
LAYER_1
 62
     7
  6
DASHED
 10
-0.678351
 20
-0.523744
  0
VERTEX
  8
LAYER_1
 62
     7
  6
DASHED
 10
-0.604402
 20
-0.649112
  0
VERTEX
  8
LAYER_1
 62
     7
  6
DASHED
 10
-0.526478
 20
-0.766778
  0
VERTEX
  8
LAYER_1
 62
     7
  6
DASHED
 10
-0.448898
 20
-0.875650
  0
VERTEX
  8
LAYER_1
 62
     7
  6
DASHED
 10
-0.375984
 20
-0.974638
  0
SEQEND
  8
0
  0
POLYLINE
  8
LAYER_1
 62
     7
  6
DASHED
 66
     1
 40
0.003000
 41
0.003000
  0
VERTEX
  8
LAYER_1
 62
     7
  6
DASHED
 10
-0.375984
 20
-0.974638
  0
VERTEX
  8
LAYER_1
 62
     7
  6
DASHED
 10
-0.218660
 20
-1.184375
  0
VERTEX
  8
LAYER_1
 62
     7
  6
DASHED
 10
-0.095748
 20
-1.309713
  0
VERTEX
  8
LAYER_1
 62
     7
  6
DASHED
 10
0.022248
 20
-1.344303
  0
SEQEND
  8
0
  0
POLYLINE
  8
LAYER_1
 62
     7
  6
DASHED
 66
     1
 40
0.003000
 41
0.003000
  0
VERTEX
  8
LAYER_1
 62
     7
  6
DASHED
 10
0.022248
 20
-1.344303
  0
VERTEX
  8
LAYER_1
 62
     7
  6
DASHED
 10
0.155813
 20
-1.284895
  0
VERTEX
  8
LAYER_1
 62
     7
  6
DASHED
 10
0.289376
 20
-1.140674
  0
VERTEX
  8
LAYER_1
 62
     7
  6
DASHED
 10
0.398358
 20
-0.923941
  0
SEQEND
  8
0
  0
POLYLINE
  8
LAYER_1
 62
     7
  6
DASHED
 66
     1
 40
0.003000
 41
0.003000
  0
VERTEX
  8
LAYER_1
 62
     7
  6
DASHED
 10
0.398358
 20
-0.923941
  0
VERTEX
  8
LAYER_1
 62
     7
  6
DASHED
 10
0.436727
 20
-0.792393
  0
VERTEX
  8
LAYER_1
 62
     7
  6
DASHED
 10
0.464392
 20
-0.648376
  0
VERTEX
  8
LAYER_1
 62
     7
  6
DASHED
 10
0.482941
 20
-0.494475
  0
VERTEX
  8
LAYER_1
 62
     7
  6
DASHED
 10
0.493961
 20
-0.333277
  0
VERTEX
  8
LAYER_1
 62
     7
  6
DASHED
 10
0.499039
 20
-0.167369
  0
VERTEX
  8
LAYER_1
 62
     7
  6
DASHED
 10
0.499764
 20
0.000665
  0
SEQEND
  8
0
  0
TEXT
  8
LAYER_1
 62
     7
 10
3.379846
 20
-1.798055
 40
0.094437
  1
16:1 TE wedge taper
 50
90.000660
 41
1.000000
  7
SN0
 71
     0
 72
     5
 11
3.379846
 21
-0.733535
  0
POLYLINE
  8
LAYER_1
 62
     7
  6
CONTINUOUS
 66
     1
 40
0.003000
 41
0.003000
  0
VERTEX
  8
LAYER_1
 62
     7
  6
CONTINUOUS
 10
3.353791
 20
-1.888193
  0
VERTEX
  8
LAYER_1
 62
     7
  6
CONTINUOUS
 10
3.353791
 20
-1.889080
  0
VERTEX
  8
LAYER_1
 62
     7
  6
CONTINUOUS
 10
3.353791
 20
-1.895291
  0
VERTEX
  8
LAYER_1
 62
     7
  6
CONTINUOUS
 10
3.353791
 20
-1.912150
  0
SEQEND
  8
0
  0
POLYLINE
  8
LAYER_1
 62
     7
  6
CONTINUOUS
 66
     1
 40
0.003000
 41
0.003000
  0
VERTEX
  8
LAYER_1
 62
     7
  6
CONTINUOUS
 10
3.353791
 20
-1.912150
  0
VERTEX
  8
LAYER_1
 62
     7
  6
CONTINUOUS
 10
3.352494
 20
-1.941788
  0
VERTEX
  8
LAYER_1
 62
     7
  6
CONTINUOUS
 10
3.343413
 20
-1.973472
  0
VERTEX
  8
LAYER_1
 62
     7
  6
CONTINUOUS
 10
3.318764
 20
-1.993276
  0
SEQEND
  8
0
  0
POLYLINE
  8
LAYER_1
 62
     7
  6
CONTINUOUS
 66
     1
 40
0.003000
 41
0.003000
  0
VERTEX
  8
LAYER_1
 62
     7
  6
CONTINUOUS
 10
3.318764
 20
-1.993276
  0
VERTEX
  8
LAYER_1
 62
     7
  6
CONTINUOUS
 10
3.274302
 20
-1.993689
  0
VERTEX
  8
LAYER_1
 62
     7
  6
CONTINUOUS
 10
3.220014
 20
-1.992870
  0
VERTEX
  8
LAYER_1
 62
     7
  6
CONTINUOUS
 10
3.169413
 20
-2.015402
  0
SEQEND
  8
0
  0
POLYLINE
  8
LAYER_1
 62
     7
  6
CONTINUOUS
 66
     1
 40
0.003000
 41
0.003000
  0
VERTEX
  8
LAYER_1
 62
     7
  6
CONTINUOUS
 10
3.169413
 20
-2.015402
  0
VERTEX
  8
LAYER_1
 62
     7
  6
CONTINUOUS
 10
3.133155
 20
-2.076992
  0
VERTEX
  8
LAYER_1
 62
     7
  6
CONTINUOUS
 10
3.110418
 20
-2.157843
  0
VERTEX
  8
LAYER_1
 62
     7
  6
CONTINUOUS
 10
3.097512
 20
-2.229276
  0
SEQEND
  8
0
  0
POLYLINE
  8
LAYER_1
 62
     7
  6
CONTINUOUS
 66
     1
 40
0.003000
 41
0.003000
  0
VERTEX
  8
LAYER_1
 62
     7
  6
CONTINUOUS
 10
3.097512
 20
-2.229276
  0
VERTEX
  8
LAYER_1
 62
     7
  6
CONTINUOUS
 10
3.091023
 20
-2.269495
  0
VERTEX
  8
LAYER_1
 62
     7
  6
CONTINUOUS
 10
3.088633
 20
-2.284312
  0
VERTEX
  8
LAYER_1
 62
     7
  6
CONTINUOUS
 10
3.088291
 20
-2.286429
  0
SEQEND
  8
0
  0
POLYLINE
  8
LAYER_1
 62
     7
  6
CONTINUOUS
 66
     1
 40
0.003000
 41
0.003000
  0
VERTEX
  8
LAYER_1
 62
     7
  6
CONTINUOUS
 10
0.115358
 20
-4.285902
  0
VERTEX
  8
LAYER_1
 62
     7
  6
CONTINUOUS
 10
0.115426
 20
-4.286158
  0
VERTEX
  8
LAYER_1
 62
     7
  6
CONTINUOUS
 10
0.115902
 20
-4.287951
  0
VERTEX
  8
LAYER_1
 62
     7
  6
CONTINUOUS
 10
0.117193
 20
-4.292819
  0
SEQEND
  8
0
  0
POLYLINE
  8
LAYER_1
 62
     7
  6
CONTINUOUS
 66
     1
 40
0.003000
 41
0.003000
  0
VERTEX
  8
LAYER_1
 62
     7
  6
CONTINUOUS
 10
0.117193
 20
-4.292819
  0
VERTEX
  8
LAYER_1
 62
     7
  6
CONTINUOUS
 10
0.119620
 20
-4.301780
  0
VERTEX
  8
LAYER_1
 62
     7
  6
CONTINUOUS
 10
0.123069
 20
-4.313813
  0
VERTEX
  8
LAYER_1
 62
     7
  6
CONTINUOUS
 10
0.127331
 20
-4.327386
  0
SEQEND
  8
0
  0
POLYLINE
  8
LAYER_1
 62
     7
  6
CONTINUOUS
 66
     1
 40
0.003000
 41
0.003000
  0
VERTEX
  8
LAYER_1
 62
     7
  6
CONTINUOUS
 10
0.127331
 20
-4.327386
  0
VERTEX
  8
LAYER_1
 62
     7
  6
CONTINUOUS
 10
0.132316
 20
-4.341056
  0
VERTEX
  8
LAYER_1
 62
     7
  6
CONTINUOUS
 10
0.138326
 20
-4.353809
  0
VERTEX
  8
LAYER_1
 62
     7
  6
CONTINUOUS
 10
0.145776
 20
-4.364720
  0
SEQEND
  8
0
  0
POLYLINE
  8
LAYER_1
 62
     7
  6
CONTINUOUS
 66
     1
 40
0.003000
 41
0.003000
  0
VERTEX
  8
LAYER_1
 62
     7
  6
CONTINUOUS
 10
0.145776
 20
-4.364720
  0
VERTEX
  8
LAYER_1
 62
     7
  6
CONTINUOUS
 10
0.155061
 20
-4.372949
  0
VERTEX
  8
LAYER_1
 62
     7
  6
CONTINUOUS
 10
0.166602
 20
-4.378001
  0
VERTEX
  8
LAYER_1
 62
     7
  6
CONTINUOUS
 10
0.180803
 20
-4.379469
  0
SEQEND
  8
0
  0
POLYLINE
  8
LAYER_1
 62
     7
  6
CONTINUOUS
 66
     1
 40
0.003000
 41
0.003000
  0
VERTEX
  8
LAYER_1
 62
     7
  6
CONTINUOUS
 10
0.180803
 20
-4.379469
  0
VERTEX
  8
LAYER_1
 62
     7
  6
CONTINUOUS
 10
0.197464
 20
-4.377354
  0
VERTEX
  8
LAYER_1
 62
     7
  6
CONTINUOUS
 10
0.213926
 20
-4.373291
  0
VERTEX
  8
LAYER_1
 62
     7
  6
CONTINUOUS
 10
0.226902
 20
-4.369331
  0
SEQEND
  8
0
  0
POLYLINE
  8
LAYER_1
 62
     7
  6
CONTINUOUS
 66
     1
 40
0.003000
 41
0.003000
  0
VERTEX
  8
LAYER_1
 62
     7
  6
CONTINUOUS
 10
0.226902
 20
-4.369331
  0
VERTEX
  8
LAYER_1
 62
     7
  6
CONTINUOUS
 10
0.234036
 20
-4.367053
  0
VERTEX
  8
LAYER_1
 62
     7
  6
CONTINUOUS
 10
0.236664
 20
-4.366214
  0
VERTEX
  8
LAYER_1
 62
     7
  6
CONTINUOUS
 10
0.237039
 20
-4.366094
  0
SEQEND
  8
0
  0
POLYLINE
  8
LAYER_1
 62
     7
  6
CONTINUOUS
 66
     1
 40
0.003000
 41
0.003000
  0
VERTEX
  8
LAYER_1
 62
     7
  6
CONTINUOUS
 10
0.250858
 20
-4.653720
  0
VERTEX
  8
LAYER_1
 62
     7
  6
CONTINUOUS
 10
0.250551
 20
-4.654011
  0
VERTEX
  8
LAYER_1
 62
     7
  6
CONTINUOUS
 10
0.248402
 20
-4.656042
  0
VERTEX
  8
LAYER_1
 62
     7
  6
CONTINUOUS
 10
0.242567
 20
-4.661555
  0
SEQEND
  8
0
  0
POLYLINE
  8
LAYER_1
 62
     7
  6
CONTINUOUS
 66
     1
 40
0.003000
 41
0.003000
  0
VERTEX
  8
LAYER_1
 62
     7
  6
CONTINUOUS
 10
0.242567
 20
-4.661555
  0
VERTEX
  8
LAYER_1
 62
     7
  6
CONTINUOUS
 10
0.232087
 20
-4.671880
  0
VERTEX
  8
LAYER_1
 62
     7
  6
CONTINUOUS
 10
0.219556
 20
-4.686715
  0
VERTEX
  8
LAYER_1
 62
     7
  6
CONTINUOUS
 10
0.208457
 20
-4.705346
  0
SEQEND
  8
0
  0
POLYLINE
  8
LAYER_1
 62
     7
  6
CONTINUOUS
 66
     1
 40
0.003000
 41
0.003000
  0
VERTEX
  8
LAYER_1
 62
     7
  6
CONTINUOUS
 10
0.208457
 20
-4.705346
  0
VERTEX
  8
LAYER_1
 62
     7
  6
CONTINUOUS
 10
0.201798
 20
-4.726852
  0
VERTEX
  8
LAYER_1
 62
     7
  6
CONTINUOUS
 10
0.200675
 20
-4.749587
  0
VERTEX
  8
LAYER_1
 62
     7
  6
CONTINUOUS
 10
0.205693
 20
-4.771705
  0
SEQEND
  8
0
  0
POLYLINE
  8
LAYER_1
 62
     7
  6
CONTINUOUS
 66
     1
 40
0.003000
 41
0.003000
  0
VERTEX
  8
LAYER_1
 62
     7
  6
CONTINUOUS
 10
0.205693
 20
-4.771705
  0
VERTEX
  8
LAYER_1
 62
     7
  6
CONTINUOUS
 10
0.216651
 20
-4.791495
  0
VERTEX
  8
LAYER_1
 62
     7
  6
CONTINUOUS
 10
0.230072
 20
-4.807699
  0
VERTEX
  8
LAYER_1
 62
     7
  6
CONTINUOUS
 10
0.241650
 20
-4.819193
  0
SEQEND
  8
0
  0
POLYLINE
  8
LAYER_1
 62
     7
  6
CONTINUOUS
 66
     1
 40
0.003000
 41
0.003000
  0
VERTEX
  8
LAYER_1
 62
     7
  6
CONTINUOUS
 10
0.241650
 20
-4.819193
  0
VERTEX
  8
LAYER_1
 62
     7
  6
CONTINUOUS
 10
0.248130
 20
-4.825349
  0
VERTEX
  8
LAYER_1
 62
     7
  6
CONTINUOUS
 10
0.250517
 20
-4.827617
  0
VERTEX
  8
LAYER_1
 62
     7
  6
CONTINUOUS
 10
0.250858
 20
-4.827941
  0
SEQEND
  8
0
  0
POLYLINE
  8
LAYER_1
 62
     7
  6
CONTINUOUS
 66
     1
 40
0.003000
 41
0.003000
  0
VERTEX
  8
LAYER_1
 62
     7
  6
CONTINUOUS
 10
0.116039
 20
-5.113484
  0
VERTEX
  8
LAYER_1
 62
     7
  6
CONTINUOUS
 10
0.116103
 20
-5.113160
  0
VERTEX
  8
LAYER_1
 62
     7
  6
CONTINUOUS
 10
0.116550
 20
-5.110891
  0
VERTEX
  8
LAYER_1
 62
     7
  6
CONTINUOUS
 10
0.117764
 20
-5.104732
  0
SEQEND
  8
0
  0
POLYLINE
  8
LAYER_1
 62
     7
  6
CONTINUOUS
 66
     1
 40
0.003000
 41
0.003000
  0
VERTEX
  8
LAYER_1
 62
     7
  6
CONTINUOUS
 10
0.117764
 20
-5.104732
  0
VERTEX
  8
LAYER_1
 62
     7
  6
CONTINUOUS
 10
0.120185
 20
-5.093534
  0
VERTEX
  8
LAYER_1
 62
     7
  6
CONTINUOUS
 10
0.124420
 20
-5.079395
  0
VERTEX
  8
LAYER_1
 62
     7
  6
CONTINUOUS
 10
0.131138
 20
-5.065205
  0
SEQEND
  8
0
  0
POLYLINE
  8
LAYER_1
 62
     7
  6
CONTINUOUS
 66
     1
 40
0.003000
 41
0.003000
  0
VERTEX
  8
LAYER_1
 62
     7
  6
CONTINUOUS
 10
0.131138
 20
-5.065205
  0
VERTEX
  8
LAYER_1
 62
     7
  6
CONTINUOUS
 10
0.140854
 20
-5.053445
  0
VERTEX
  8
LAYER_1
 62
     7
  6
CONTINUOUS
 10
0.153491
 20
-5.044934
  0
VERTEX
  8
LAYER_1
 62
     7
  6
CONTINUOUS
 10
0.168819
 20
-5.040083
  0
SEQEND
  8
0
  0
POLYLINE
  8
LAYER_1
 62
     7
  6
CONTINUOUS
 66
     1
 40
0.003000
 41
0.003000
  0
VERTEX
  8
LAYER_1
 62
     7
  6
CONTINUOUS
 10
0.168819
 20
-5.040083
  0
VERTEX
  8
LAYER_1
 62
     7
  6
CONTINUOUS
 10
0.186130
 20
-5.038953
  0
VERTEX
  8
LAYER_1
 62
     7
  6
CONTINUOUS
 10
0.202824
 20
-5.040177
  0
VERTEX
  8
LAYER_1
 62
     7
  6
CONTINUOUS
 10
0.215831
 20
-5.042039
  0
SEQEND
  8
0
  0
POLYLINE
  8
LAYER_1
 62
     7
  6
CONTINUOUS
 66
     1
 40
0.003000
 41
0.003000
  0
VERTEX
  8
LAYER_1
 62
     7
  6
CONTINUOUS
 10
0.215831
 20
-5.042039
  0
VERTEX
  8
LAYER_1
 62
     7
  6
CONTINUOUS
 10
0.222965
 20
-5.043172
  0
VERTEX
  8
LAYER_1
 62
     7
  6
CONTINUOUS
 10
0.225593
 20
-5.043590
  0
VERTEX
  8
LAYER_1
 62
     7
  6
CONTINUOUS
 10
0.225969
 20
-5.043650
  0
SEQEND
  8
0
  0
SOLID
  8
LAYER_1
  6
CONTINUOUS
 10
0.677567
 20
-4.590110
 11
1.022705
 21
-4.590110
 12
0.677567
 22
-3.727264
 13
1.022705
 23
-3.727264
  0
POLYLINE
  8
LAYER_1
  6
CONTINUOUS
 66
     1
 40
0.003000
 41
0.003000
 70
     1
  0
VERTEX
  8
LAYER_1
  6
CONTINUOUS
 10
0.677567
 20
-4.590110
  0
VERTEX
  8
LAYER_1
  6
CONTINUOUS
 10
1.022705
 20
-4.590110
  0
VERTEX
  8
LAYER_1
  6
CONTINUOUS
 10
1.022705
 20
-3.727264
  0
VERTEX
  8
LAYER_1
  6
CONTINUOUS
 10
0.677567
 20
-3.727264
  0
SEQEND
  8
0
  0
TEXT
  8
LAYER_1
 62
     7
 10
3.215453
 20
1.187154
 40
0.094437
  1
1/8" sheet
 50
90.000660
 41
1.000000
  7
SN0
 71
     0
 72
     5
 11
3.215453
 21
1.699791
  0
TEXT
  8
LAYER_1
 62
     7
 10
3.331051
 20
1.187154
 40
0.094437
  1
Cgrain for chordwise stiffness
 50
90.000660
 41
1.000000
  7
SN0
 71
     0
 72
     5
 11
3.331051
 21
2.696858
  0
POLYLINE
  8
LAYER_1
 62
     7
  6
CONTINUOUS
 66
     1
 40
0.003000
 41
0.003000
  0
VERTEX
  8
LAYER_1
 62
     7
  6
CONTINUOUS
 10
0.845457
 20
-4.590110
  0
VERTEX
  8
LAYER_1
 62
     7
  6
CONTINUOUS
 10
0.845388
 20
-4.591681
  0
VERTEX
  8
LAYER_1
 62
     7
  6
CONTINUOUS
 10
0.844910
 20
-4.602674
  0
VERTEX
  8
LAYER_1
 62
     7
  6
CONTINUOUS
 10
0.843610
 20
-4.632512
  0
SEQEND
  8
0
  0
POLYLINE
  8
LAYER_1
 62
     7
  6
CONTINUOUS
 66
     1
 40
0.003000
 41
0.003000
  0
VERTEX
  8
LAYER_1
 62
     7
  6
CONTINUOUS
 10
0.843610
 20
-4.632512
  0
VERTEX
  8
LAYER_1
 62
     7
  6
CONTINUOUS
 10
0.839581
 20
-4.684340
  0
VERTEX
  8
LAYER_1
 62
     7
  6
CONTINUOUS
 10
0.824900
 20
-4.736172
  0
VERTEX
  8
LAYER_1
 62
     7
  6
CONTINUOUS
 10
0.790138
 20
-4.759732
  0
SEQEND
  8
0
  0
POLYLINE
  8
LAYER_1
 62
     7
  6
CONTINUOUS
 66
     1
 40
0.003000
 41
0.003000
  0
VERTEX
  8
LAYER_1
 62
     7
  6
CONTINUOUS
 10
0.790138
 20
-4.759732
  0
VERTEX
  8
LAYER_1
 62
     7
  6
CONTINUOUS
 10
0.729163
 20
-4.736923
  0
VERTEX
  8
LAYER_1
 62
     7
  6
CONTINUOUS
 10
0.648930
 20
-4.690349
  0
VERTEX
  8
LAYER_1
 62
     7
  6
CONTINUOUS
 10
0.559677
 20
-4.652791
  0
SEQEND
  8
0
  0
POLYLINE
  8
LAYER_1
 62
     7
  6
CONTINUOUS
 66
     1
 40
0.003000
 41
0.003000
  0
VERTEX
  8
LAYER_1
 62
     7
  6
CONTINUOUS
 10
0.559677
 20
-4.652791
  0
VERTEX
  8
LAYER_1
 62
     7
  6
CONTINUOUS
 10
0.471528
 20
-4.648490
  0
VERTEX
  8
LAYER_1
 62
     7
  6
CONTINUOUS
 10
0.394025
 20
-4.667543
  0
VERTEX
  8
LAYER_1
 62
     7
  6
CONTINUOUS
 10
0.336594
 20
-4.691512
  0
SEQEND
  8
0
  0
POLYLINE
  8
LAYER_1
 62
     7
  6
CONTINUOUS
 66
     1
 40
0.003000
 41
0.003000
  0
VERTEX
  8
LAYER_1
 62
     7
  6
CONTINUOUS
 10
0.336594
 20
-4.691512
  0
VERTEX
  8
LAYER_1
 62
     7
  6
CONTINUOUS
 10
0.305457
 20
-4.705783
  0
VERTEX
  8
LAYER_1
 62
     7
  6
CONTINUOUS
 10
0.293985
 20
-4.711040
  0
VERTEX
  8
LAYER_1
 62
     7
  6
CONTINUOUS
 10
0.292346
 20
-4.711791
  0
SEQEND
  8
0
  0
TEXT
  8
LAYER_1
 62
     7
 10
0.835917
 20
-4.517933
 40
0.094437
  1
use generous glue fillets
 50
90.000660
 41
1.000000
  7
SN0
 71
     0
 72
     5
 11
0.835917
 21
-3.278037
  0
TEXT
  8
LAYER_1
 62
     7
 10
0.951516
 20
-4.517933
 40
0.094437
  1
for all ribLE joints
 50
90.000660
 41
1.000000
  7
SN0
 71
     0
 72
     5
 11
0.951516
 21
-3.634921
  0
TEXT
  8
LAYER_1
 62
     7
 10
-0.618472
 20
-5.191528
 40
0.094437
  1
1/4" sheet
 50
90.000660
 41
1.000000
  7
SN0
 71
     0
 72
     5
 11
-0.618472
 21
-4.678890
  0
TEXT
  8
LAYER_1
 62
     7
 10
-0.502874
 20
-5.191528
 40
0.094437
  1
Cgrain gives stronger
 50
90.000660
 41
1.000000
  7
SN0
 71
     0
 72
     5
 11
-0.502874
 21
-4.100027
  0
TEXT
  8
LAYER_1
 62
     7
 10
-0.387276
 20
-5.191528
 40
0.094437
  1
ribLE joints
 50
90.000660
 41
1.000000
  7
SN0
 71
     0
 72
     5
 11
-0.387276
 21
-4.622475
  0
TEXT
  8
LAYER_1
 62
     7
 10
3.492075
 20
-5.404606
 40
0.094437
  1
1/16" TE thickness everywhere
 50
88.707739
 41
1.000000
  7
SN0
 71
     0
 72
     5
 11
3.527634
 21
-3.829077
  0
TEXT
  8
LAYER_1
 62
     7
 10
-2.365165
 20
-3.502980
 40
0.127040
  1
LE tangentslope
 50
90.000660
 41
1.000000
  7
SN0
 71
     0
 72
     5
 11
-2.365165
 21
-2.386951
  0
TEXT
  8
LAYER_1
 62
     7
 10
-2.210295
 20
-3.502980
 40
0.127040
  1
shaping data
 50
90.000660
 41
1.000000
  7
SN0
 71
     0
 72
     5
 11
-2.210295
 21
-2.618742
  0
TEXT
  8
LAYER_1
 62
     7
 10
-2.829654
 20
-1.980835
 40
0.100058
  1
HT21  5.0%t
 50
90.000660
 41
1.000000
  7
SN2
 71
     0
 72
     5
 11
-2.829654
 21
-1.303859
  0
ENDSEC
  0
EOF
