  0
SECTION
  2
HEADER
  9
$ACADVER
  1
AC1006
  9
$EXTMIN
 10
-4.251413
 20
-7.764858
  9
$EXTMAX
 10
4.742083
 20
24.704555
  9
$LTSCALE
 40
0.000394
  9
$PDMODE
 70
    35
  9
$PDSIZE
 40
0.000315
  0
ENDSEC
  0
SECTION
  2
TABLES
  0
TABLE
  2
LTYPE
 70
     9
  0
LTYPE
  2
CONTINUOUS
 70
    64
  3
Solid line
 72
    65
 73
     0
 40
0.000000
  0
LTYPE
  2
DASHED
 70
    64
  3
__ __ __ __ __ __ __ __ __ __ __ __ __ __ __
 72
    65
 73
     2
 40
0.000003
 49
0.000002
 49
-0.000001
  0
LTYPE
  2
HIDDEN
 70
    64
  3
 _ _ _ _ _ _ _ _ _ _ _ _ _ _ _ _ _ _ _ _ _ _
 72
    65
 73
     2
 40
0.000001
 49
0.000001
 49
-0.000000
  0
LTYPE
  2
CENTER
 70
    64
  3
____ _ ____ _ ____ _ ____ _ ____ _ ____ _ ____
 72
    65
 73
     4
 40
0.000008
 49
0.000005
 49
-0.000001
 49
0.000001
 49
-0.000001
  0
LTYPE
  2
PHANTOM
 70
    64
  3
_____ _ _ _____ _ _ _____ _ _ _____ _ _ ____
 72
    65
 73
     6
 40
0.000010
 49
0.000005
 49
-0.000001
 49
0.000001
 49
-0.000001
 49
0.000001
 49
-0.000001
  0
LTYPE
  2
DOT
 70
    64
  3
...............................................
 72
    65
 73
     2
 40
0.000001
 49
0.000000
 49
-0.000001
  0
LTYPE
  2
DASHDOT
 70
    64
  3
__ . __ . __ . __ . __ . __ . __ . __ . __ . __
 72
    65
 73
     4
 40
0.000004
 49
0.000002
 49
-0.000001
 49
0.000000
 49
-0.000001
  0
LTYPE
  2
BORDER
 70
    64
  3
__ __ . __ __ . __ __ . __ __ . __ __ . __ __
 72
    65
 73
     6
 40
0.000007
 49
0.000002
 49
-0.000001
 49
0.000002
 49
-0.000001
 49
0.000000
 49
-0.000001
  0
LTYPE
  2
DIVIDE
 70
    64
  3
__ . . __ . . __ . . __ . . __ . . __ . . __
 72
    65
 73
     6
 40
0.000005
 49
0.000002
 49
-0.000001
 49
0.000000
 49
-0.000001
 49
0.000000
 49
-0.000001
  0
LTYPE
  2
DOTDOT
 70
    64
  3
 . .  . .  . .  . .  . .  . . 
 72
    65
 73
     5
 40
0.000002
 49
-0.000001
 49
0.000000
 49
-0.000001
 49
0.000000
 49
-0.000001
  0
ENDTAB
  0
TABLE
  2
STYLE
 70
     6
  0
STYLE
 70
     0
  2
SN0
 40
0.000000
 41
0.000004
 50
0.000000
 71
     0
 42
0.000000
  3
ROMAND
  0
STYLE
 70
    68
  2
SV0
 40
0.000000
 41
0.000004
 50
0.000000
 71
     0
 42
0.000000
  3
ROMAND
  0
STYLE
 70
     0
  2
SN1
 40
0.000000
 41
0.000004
 50
0.000000
 71
     0
 42
0.000000
  3
ROMAND
  0
STYLE
 70
    68
  2
SV1
 40
0.000000
 41
0.000004
 50
0.000000
 71
     0
 42
0.000000
  3
ROMAND
  0
STYLE
 70
     0
  2
SN2
 40
0.000000
 41
0.000004
 50
0.000000
 71
     0
 42
0.000000
  3
ROMAND
  0
STYLE
 70
    68
  2
SV2
 40
0.000000
 41
0.000004
 50
0.000000
 71
     0
 42
0.000000
  3
ROMAND
  0
ENDTAB
  0
TABLE
  2
LAYER
 70
     3
  0
LAYER
  2
FOREGROUND
 70
    64
 62
     7
  6
CONTINUOUS
  0
LAYER
  2
BACKGROUND
 70
    65
 62
    -7
  6
CONTINUOUS
  0
LAYER
  2
LAYER_1
 70
    64
 62
     7
  6
CONTINUOUS
  0
ENDTAB
  0
ENDSEC
  0
SECTION
  2
ENTITIES
  0
POLYLINE
  8
LAYER_1
 62
     7
  6
CONTINUOUS
 66
     1
 40
0.011055
 41
0.011055
  0
VERTEX
  8
LAYER_1
 62
     7
  6
CONTINUOUS
 10
-0.277346
 20
19.255594
  0
VERTEX
  8
LAYER_1
 62
     7
  6
CONTINUOUS
 10
-0.277859
 20
19.251787
  0
VERTEX
  8
LAYER_1
 62
     7
  6
CONTINUOUS
 10
-0.281444
 20
19.225138
  0
VERTEX
  8
LAYER_1
 62
     7
  6
CONTINUOUS
 10
-0.291177
 20
19.152803
  0
SEQEND
  8
0
  0
POLYLINE
  8
LAYER_1
 62
     7
  6
CONTINUOUS
 66
     1
 40
0.011055
 41
0.011055
  0
VERTEX
  8
LAYER_1
 62
     7
  6
CONTINUOUS
 10
-0.291177
 20
19.152803
  0
VERTEX
  8
LAYER_1
 62
     7
  6
CONTINUOUS
 10
-0.309133
 20
19.018815
  0
VERTEX
  8
LAYER_1
 62
     7
  6
CONTINUOUS
 10
-0.333444
 20
18.834630
  0
VERTEX
  8
LAYER_1
 62
     7
  6
CONTINUOUS
 10
-0.361232
 20
18.618594
  0
SEQEND
  8
0
  0
POLYLINE
  8
LAYER_1
 62
     7
  6
CONTINUOUS
 66
     1
 40
0.011055
 41
0.011055
  0
VERTEX
  8
LAYER_1
 62
     7
  6
CONTINUOUS
 10
-0.361232
 20
18.618594
  0
VERTEX
  8
LAYER_1
 62
     7
  6
CONTINUOUS
 10
-0.390072
 20
18.386617
  0
VERTEX
  8
LAYER_1
 62
     7
  6
CONTINUOUS
 10
-0.419213
 20
18.144908
  0
VERTEX
  8
LAYER_1
 62
     7
  6
CONTINUOUS
 10
-0.448346
 20
17.897264
  0
SEQEND
  8
0
  0
POLYLINE
  8
LAYER_1
 62
     7
  6
CONTINUOUS
 66
     1
 40
0.011055
 41
0.011055
  0
VERTEX
  8
LAYER_1
 62
     7
  6
CONTINUOUS
 10
-0.448346
 20
17.897264
  0
VERTEX
  8
LAYER_1
 62
     7
  6
CONTINUOUS
 10
-0.477182
 20
17.646947
  0
VERTEX
  8
LAYER_1
 62
     7
  6
CONTINUOUS
 10
-0.505401
 20
17.395195
  0
VERTEX
  8
LAYER_1
 62
     7
  6
CONTINUOUS
 10
-0.532693
 20
17.142720
  0
SEQEND
  8
0
  0
POLYLINE
  8
LAYER_1
 62
     7
  6
CONTINUOUS
 66
     1
 40
0.011055
 41
0.011055
  0
VERTEX
  8
LAYER_1
 62
     7
  6
CONTINUOUS
 10
-0.532693
 20
17.142720
  0
VERTEX
  8
LAYER_1
 62
     7
  6
CONTINUOUS
 10
-0.558848
 20
16.890104
  0
VERTEX
  8
LAYER_1
 62
     7
  6
CONTINUOUS
 10
-0.583979
 20
16.637283
  0
VERTEX
  8
LAYER_1
 62
     7
  6
CONTINUOUS
 10
-0.608291
 20
16.384055
  0
SEQEND
  8
0
  0
POLYLINE
  8
LAYER_1
 62
     7
  6
CONTINUOUS
 66
     1
 40
0.011055
 41
0.011055
  0
VERTEX
  8
LAYER_1
 62
     7
  6
CONTINUOUS
 10
-0.608291
 20
16.384055
  0
VERTEX
  8
LAYER_1
 62
     7
  6
CONTINUOUS
 10
-0.631936
 20
16.130255
  0
VERTEX
  8
LAYER_1
 62
     7
  6
CONTINUOUS
 10
-0.654861
 20
15.875949
  0
VERTEX
  8
LAYER_1
 62
     7
  6
CONTINUOUS
 10
-0.676969
 20
15.621232
  0
SEQEND
  8
0
  0
POLYLINE
  8
LAYER_1
 62
     7
  6
CONTINUOUS
 66
     1
 40
0.011055
 41
0.011055
  0
VERTEX
  8
LAYER_1
 62
     7
  6
CONTINUOUS
 10
-0.676969
 20
15.621232
  0
VERTEX
  8
LAYER_1
 62
     7
  6
CONTINUOUS
 10
-0.698191
 20
15.366182
  0
VERTEX
  8
LAYER_1
 62
     7
  6
CONTINUOUS
 10
-0.718591
 20
15.110831
  0
VERTEX
  8
LAYER_1
 62
     7
  6
CONTINUOUS
 10
-0.738276
 20
14.855177
  0
SEQEND
  8
0
  0
POLYLINE
  8
LAYER_1
 62
     7
  6
CONTINUOUS
 66
     1
 40
0.011055
 41
0.011055
  0
VERTEX
  8
LAYER_1
 62
     7
  6
CONTINUOUS
 10
-0.738276
 20
14.855177
  0
VERTEX
  8
LAYER_1
 62
     7
  6
CONTINUOUS
 10
-0.757303
 20
14.599209
  0
VERTEX
  8
LAYER_1
 62
     7
  6
CONTINUOUS
 10
-0.775622
 20
14.342938
  0
VERTEX
  8
LAYER_1
 62
     7
  6
CONTINUOUS
 10
-0.793122
 20
14.086358
  0
SEQEND
  8
0
  0
POLYLINE
  8
LAYER_1
 62
     7
  6
CONTINUOUS
 66
     1
 40
0.011055
 41
0.011055
  0
VERTEX
  8
LAYER_1
 62
     7
  6
CONTINUOUS
 10
-0.793122
 20
14.086358
  0
VERTEX
  8
LAYER_1
 62
     7
  6
CONTINUOUS
 10
-0.809716
 20
13.829487
  0
VERTEX
  8
LAYER_1
 62
     7
  6
CONTINUOUS
 10
-0.825387
 20
13.572411
  0
VERTEX
  8
LAYER_1
 62
     7
  6
CONTINUOUS
 10
-0.840138
 20
13.315232
  0
SEQEND
  8
0
  0
POLYLINE
  8
LAYER_1
 62
     7
  6
CONTINUOUS
 66
     1
 40
0.011055
 41
0.011055
  0
VERTEX
  8
LAYER_1
 62
     7
  6
CONTINUOUS
 10
-0.840138
 20
13.315232
  0
VERTEX
  8
LAYER_1
 62
     7
  6
CONTINUOUS
 10
-0.853993
 20
13.058005
  0
VERTEX
  8
LAYER_1
 62
     7
  6
CONTINUOUS
 10
-0.867140
 20
12.800573
  0
VERTEX
  8
LAYER_1
 62
     7
  6
CONTINUOUS
 10
-0.879776
 20
12.542732
  0
SEQEND
  8
0
  0
POLYLINE
  8
LAYER_1
 62
     7
  6
CONTINUOUS
 66
     1
 40
0.011055
 41
0.011055
  0
VERTEX
  8
LAYER_1
 62
     7
  6
CONTINUOUS
 10
-0.879776
 20
12.542732
  0
VERTEX
  8
LAYER_1
 62
     7
  6
CONTINUOUS
 10
-0.892050
 20
12.284347
  0
VERTEX
  8
LAYER_1
 62
     7
  6
CONTINUOUS
 10
-0.903914
 20
12.025547
  0
VERTEX
  8
LAYER_1
 62
     7
  6
CONTINUOUS
 10
-0.915264
 20
11.766539
  0
SEQEND
  8
0
  0
POLYLINE
  8
LAYER_1
 62
     7
  6
CONTINUOUS
 66
     1
 40
0.011055
 41
0.011055
  0
VERTEX
  8
LAYER_1
 62
     7
  6
CONTINUOUS
 10
-0.915264
 20
11.766539
  0
VERTEX
  8
LAYER_1
 62
     7
  6
CONTINUOUS
 10
-0.926021
 20
11.507466
  0
VERTEX
  8
LAYER_1
 62
     7
  6
CONTINUOUS
 10
-0.936159
 20
11.248194
  0
VERTEX
  8
LAYER_1
 62
     7
  6
CONTINUOUS
 10
-0.945677
 20
10.988512
  0
SEQEND
  8
0
  0
POLYLINE
  8
LAYER_1
 62
     7
  6
CONTINUOUS
 66
     1
 40
0.011055
 41
0.011055
  0
VERTEX
  8
LAYER_1
 62
     7
  6
CONTINUOUS
 10
-0.945677
 20
10.988512
  0
VERTEX
  8
LAYER_1
 62
     7
  6
CONTINUOUS
 10
-0.954609
 20
10.728272
  0
VERTEX
  8
LAYER_1
 62
     7
  6
CONTINUOUS
 10
-0.963027
 20
10.467632
  0
VERTEX
  8
LAYER_1
 62
     7
  6
CONTINUOUS
 10
-0.971039
 20
10.206791
  0
SEQEND
  8
0
  0
POLYLINE
  8
LAYER_1
 62
     7
  6
CONTINUOUS
 66
     1
 40
0.011055
 41
0.011055
  0
VERTEX
  8
LAYER_1
 62
     7
  6
CONTINUOUS
 10
-0.971039
 20
10.206791
  0
VERTEX
  8
LAYER_1
 62
     7
  6
CONTINUOUS
 10
-0.978703
 20
9.945906
  0
VERTEX
  8
LAYER_1
 62
     7
  6
CONTINUOUS
 10
-0.985956
 20
9.685023
  0
VERTEX
  8
LAYER_1
 62
     7
  6
CONTINUOUS
 10
-0.992693
 20
9.424138
  0
SEQEND
  8
0
  0
POLYLINE
  8
LAYER_1
 62
     7
  6
CONTINUOUS
 66
     1
 40
0.011055
 41
0.011055
  0
VERTEX
  8
LAYER_1
 62
     7
  6
CONTINUOUS
 10
-0.992693
 20
9.424138
  0
VERTEX
  8
LAYER_1
 62
     7
  6
CONTINUOUS
 10
-0.998874
 20
9.163243
  0
VERTEX
  8
LAYER_1
 62
     7
  6
CONTINUOUS
 10
-1.004643
 20
8.902242
  0
VERTEX
  8
LAYER_1
 62
     7
  6
CONTINUOUS
 10
-1.010205
 20
8.641039
  0
SEQEND
  8
0
  0
POLYLINE
  8
LAYER_1
 62
     7
  6
CONTINUOUS
 66
     1
 40
0.011055
 41
0.011055
  0
VERTEX
  8
LAYER_1
 62
     7
  6
CONTINUOUS
 10
-1.010205
 20
8.641039
  0
VERTEX
  8
LAYER_1
 62
     7
  6
CONTINUOUS
 10
-1.015692
 20
8.379557
  0
VERTEX
  8
LAYER_1
 62
     7
  6
CONTINUOUS
 10
-1.020868
 20
8.117870
  0
VERTEX
  8
LAYER_1
 62
     7
  6
CONTINUOUS
 10
-1.025429
 20
7.856083
  0
SEQEND
  8
0
  0
POLYLINE
  8
LAYER_1
 62
     7
  6
CONTINUOUS
 66
     1
 40
0.011055
 41
0.011055
  0
VERTEX
  8
LAYER_1
 62
     7
  6
CONTINUOUS
 10
-1.025429
 20
7.856083
  0
VERTEX
  8
LAYER_1
 62
     7
  6
CONTINUOUS
 10
-1.029160
 20
7.594280
  0
VERTEX
  8
LAYER_1
 62
     7
  6
CONTINUOUS
 10
-1.032284
 20
7.332480
  0
VERTEX
  8
LAYER_1
 62
     7
  6
CONTINUOUS
 10
-1.035110
 20
7.070677
  0
SEQEND
  8
0
  0
POLYLINE
  8
LAYER_1
 62
     7
  6
CONTINUOUS
 66
     1
 40
0.011055
 41
0.011055
  0
VERTEX
  8
LAYER_1
 62
     7
  6
CONTINUOUS
 10
-1.035110
 20
7.070677
  0
VERTEX
  8
LAYER_1
 62
     7
  6
CONTINUOUS
 10
-1.037840
 20
6.808873
  0
VERTEX
  8
LAYER_1
 62
     7
  6
CONTINUOUS
 10
-1.040366
 20
6.547068
  0
VERTEX
  8
LAYER_1
 62
     7
  6
CONTINUOUS
 10
-1.042484
 20
6.285264
  0
SEQEND
  8
0
  0
POLYLINE
  8
LAYER_1
 62
     7
  6
CONTINUOUS
 66
     1
 40
0.011055
 41
0.011055
  0
VERTEX
  8
LAYER_1
 62
     7
  6
CONTINUOUS
 10
-1.042484
 20
6.285264
  0
VERTEX
  8
LAYER_1
 62
     7
  6
CONTINUOUS
 10
-1.044033
 20
6.023474
  0
VERTEX
  8
LAYER_1
 62
     7
  6
CONTINUOUS
 10
-1.045075
 20
5.761791
  0
VERTEX
  8
LAYER_1
 62
     7
  6
CONTINUOUS
 10
-1.045705
 20
5.500319
  0
SEQEND
  8
0
  0
POLYLINE
  8
LAYER_1
 62
     7
  6
CONTINUOUS
 66
     1
 40
0.011055
 41
0.011055
  0
VERTEX
  8
LAYER_1
 62
     7
  6
CONTINUOUS
 10
-1.045705
 20
5.500319
  0
VERTEX
  8
LAYER_1
 62
     7
  6
CONTINUOUS
 10
-1.046012
 20
5.239109
  0
VERTEX
  8
LAYER_1
 62
     7
  6
CONTINUOUS
 10
-1.046012
 20
4.978107
  0
VERTEX
  8
LAYER_1
 62
     7
  6
CONTINUOUS
 10
-1.045705
 20
4.717205
  0
SEQEND
  8
0
  0
POLYLINE
  8
LAYER_1
 62
     7
  6
CONTINUOUS
 66
     1
 40
0.011055
 41
0.011055
  0
VERTEX
  8
LAYER_1
 62
     7
  6
CONTINUOUS
 10
-1.045705
 20
4.717205
  0
VERTEX
  8
LAYER_1
 62
     7
  6
CONTINUOUS
 10
-1.045075
 20
4.456344
  0
VERTEX
  8
LAYER_1
 62
     7
  6
CONTINUOUS
 10
-1.044033
 20
4.195582
  0
VERTEX
  8
LAYER_1
 62
     7
  6
CONTINUOUS
 10
-1.042484
 20
3.935028
  0
SEQEND
  8
0
  0
POLYLINE
  8
LAYER_1
 62
     7
  6
CONTINUOUS
 66
     1
 40
0.011055
 41
0.011055
  0
VERTEX
  8
LAYER_1
 62
     7
  6
CONTINUOUS
 10
-1.042484
 20
3.935028
  0
VERTEX
  8
LAYER_1
 62
     7
  6
CONTINUOUS
 10
-1.040331
 20
3.674780
  0
VERTEX
  8
LAYER_1
 62
     7
  6
CONTINUOUS
 10
-1.037564
 20
3.414939
  0
VERTEX
  8
LAYER_1
 62
     7
  6
CONTINUOUS
 10
-1.034177
 20
3.155610
  0
SEQEND
  8
0
  0
POLYLINE
  8
LAYER_1
 62
     7
  6
CONTINUOUS
 66
     1
 40
0.011055
 41
0.011055
  0
VERTEX
  8
LAYER_1
 62
     7
  6
CONTINUOUS
 10
-1.034177
 20
3.155610
  0
VERTEX
  8
LAYER_1
 62
     7
  6
CONTINUOUS
 10
-1.030171
 20
2.896843
  0
VERTEX
  8
LAYER_1
 62
     7
  6
CONTINUOUS
 10
-1.025441
 20
2.638491
  0
VERTEX
  8
LAYER_1
 62
     7
  6
CONTINUOUS
 10
-1.019886
 20
2.380346
  0
SEQEND
  8
0
  0
POLYLINE
  8
LAYER_1
 62
     7
  6
CONTINUOUS
 66
     1
 40
0.011055
 41
0.011055
  0
VERTEX
  8
LAYER_1
 62
     7
  6
CONTINUOUS
 10
-1.019886
 20
2.380346
  0
VERTEX
  8
LAYER_1
 62
     7
  6
CONTINUOUS
 10
-1.013473
 20
2.122259
  0
VERTEX
  8
LAYER_1
 62
     7
  6
CONTINUOUS
 10
-1.006340
 20
1.864381
  0
VERTEX
  8
LAYER_1
 62
     7
  6
CONTINUOUS
 10
-0.998693
 20
1.606913
  0
SEQEND
  8
0
  0
POLYLINE
  8
LAYER_1
 62
     7
  6
CONTINUOUS
 66
     1
 40
0.011055
 41
0.011055
  0
VERTEX
  8
LAYER_1
 62
     7
  6
CONTINUOUS
 10
-0.998693
 20
1.606913
  0
VERTEX
  8
LAYER_1
 62
     7
  6
CONTINUOUS
 10
-0.990668
 20
1.350026
  0
VERTEX
  8
LAYER_1
 62
     7
  6
CONTINUOUS
 10
-0.982129
 20
1.093751
  0
VERTEX
  8
LAYER_1
 62
     7
  6
CONTINUOUS
 10
-0.972874
 20
0.838094
  0
SEQEND
  8
0
  0
POLYLINE
  8
LAYER_1
 62
     7
  6
CONTINUOUS
 66
     1
 40
0.011055
 41
0.011055
  0
VERTEX
  8
LAYER_1
 62
     7
  6
CONTINUOUS
 10
-0.972874
 20
0.838094
  0
VERTEX
  8
LAYER_1
 62
     7
  6
CONTINUOUS
 10
-0.962717
 20
0.583088
  0
VERTEX
  8
LAYER_1
 62
     7
  6
CONTINUOUS
 10
-0.951539
 20
0.328899
  0
VERTEX
  8
LAYER_1
 62
     7
  6
CONTINUOUS
 10
-0.939232
 20
0.075732
  0
SEQEND
  8
0
  0
POLYLINE
  8
LAYER_1
 62
     7
  6
CONTINUOUS
 66
     1
 40
0.011055
 41
0.011055
  0
VERTEX
  8
LAYER_1
 62
     7
  6
CONTINUOUS
 10
-0.939232
 20
0.075732
  0
VERTEX
  8
LAYER_1
 62
     7
  6
CONTINUOUS
 10
-0.925715
 20
-0.176252
  0
VERTEX
  8
LAYER_1
 62
     7
  6
CONTINUOUS
 10
-0.910966
 20
-0.427111
  0
VERTEX
  8
LAYER_1
 62
     7
  6
CONTINUOUS
 10
-0.894984
 20
-0.676941
  0
SEQEND
  8
0
  0
POLYLINE
  8
LAYER_1
 62
     7
  6
CONTINUOUS
 66
     1
 40
0.011055
 41
0.011055
  0
VERTEX
  8
LAYER_1
 62
     7
  6
CONTINUOUS
 10
-0.894984
 20
-0.676941
  0
VERTEX
  8
LAYER_1
 62
     7
  6
CONTINUOUS
 10
-0.877775
 20
-0.925759
  0
VERTEX
  8
LAYER_1
 62
     7
  6
CONTINUOUS
 10
-0.859341
 20
-1.173140
  0
VERTEX
  8
LAYER_1
 62
     7
  6
CONTINUOUS
 10
-0.839677
 20
-1.418567
  0
SEQEND
  8
0
  0
POLYLINE
  8
LAYER_1
 62
     7
  6
CONTINUOUS
 66
     1
 40
0.011055
 41
0.011055
  0
VERTEX
  8
LAYER_1
 62
     7
  6
CONTINUOUS
 10
-0.839677
 20
-1.418567
  0
VERTEX
  8
LAYER_1
 62
     7
  6
CONTINUOUS
 10
-0.818741
 20
-1.661542
  0
VERTEX
  8
LAYER_1
 62
     7
  6
CONTINUOUS
 10
-0.796376
 20
-1.901546
  0
VERTEX
  8
LAYER_1
 62
     7
  6
CONTINUOUS
 10
-0.772374
 20
-2.138067
  0
SEQEND
  8
0
  0
POLYLINE
  8
LAYER_1
 62
     7
  6
CONTINUOUS
 66
     1
 40
0.011055
 41
0.011055
  0
VERTEX
  8
LAYER_1
 62
     7
  6
CONTINUOUS
 10
-0.772374
 20
-2.138067
  0
VERTEX
  8
LAYER_1
 62
     7
  6
CONTINUOUS
 10
-0.746563
 20
-2.370559
  0
VERTEX
  8
LAYER_1
 62
     7
  6
CONTINUOUS
 10
-0.718909
 20
-2.598340
  0
VERTEX
  8
LAYER_1
 62
     7
  6
CONTINUOUS
 10
-0.689413
 20
-2.820693
  0
SEQEND
  8
0
  0
POLYLINE
  8
LAYER_1
 62
     7
  6
CONTINUOUS
 66
     1
 40
0.011055
 41
0.011055
  0
VERTEX
  8
LAYER_1
 62
     7
  6
CONTINUOUS
 10
-0.689413
 20
-2.820693
  0
VERTEX
  8
LAYER_1
 62
     7
  6
CONTINUOUS
 10
-0.658117
 20
-3.036679
  0
VERTEX
  8
LAYER_1
 62
     7
  6
CONTINUOUS
 10
-0.625289
 20
-3.244469
  0
VERTEX
  8
LAYER_1
 62
     7
  6
CONTINUOUS
 10
-0.591232
 20
-3.442012
  0
SEQEND
  8
0
  0
POLYLINE
  8
LAYER_1
 62
     7
  6
CONTINUOUS
 66
     1
 40
0.011055
 41
0.011055
  0
VERTEX
  8
LAYER_1
 62
     7
  6
CONTINUOUS
 10
-0.591232
 20
-3.442012
  0
VERTEX
  8
LAYER_1
 62
     7
  6
CONTINUOUS
 10
-0.556290
 20
-3.627376
  0
VERTEX
  8
LAYER_1
 62
     7
  6
CONTINUOUS
 10
-0.520937
 20
-3.799010
  0
VERTEX
  8
LAYER_1
 62
     7
  6
CONTINUOUS
 10
-0.485677
 20
-3.955484
  0
SEQEND
  8
0
  0
POLYLINE
  8
LAYER_1
 62
     7
  6
CONTINUOUS
 66
     1
 40
0.011055
 41
0.011055
  0
VERTEX
  8
LAYER_1
 62
     7
  6
CONTINUOUS
 10
-0.485677
 20
-3.955484
  0
VERTEX
  8
LAYER_1
 62
     7
  6
CONTINUOUS
 10
-0.451041
 20
-4.095724
  0
VERTEX
  8
LAYER_1
 62
     7
  6
CONTINUOUS
 10
-0.417532
 20
-4.220088
  0
VERTEX
  8
LAYER_1
 62
     7
  6
CONTINUOUS
 10
-0.385665
 20
-4.329291
  0
SEQEND
  8
0
  0
POLYLINE
  8
LAYER_1
 62
     7
  6
CONTINUOUS
 66
     1
 40
0.011055
 41
0.011055
  0
VERTEX
  8
LAYER_1
 62
     7
  6
CONTINUOUS
 10
-0.385665
 20
-4.329291
  0
VERTEX
  8
LAYER_1
 62
     7
  6
CONTINUOUS
 10
-0.355803
 20
-4.424236
  0
VERTEX
  8
LAYER_1
 62
     7
  6
CONTINUOUS
 10
-0.327790
 20
-4.506584
  0
VERTEX
  8
LAYER_1
 62
     7
  6
CONTINUOUS
 10
-0.301319
 20
-4.578177
  0
SEQEND
  8
0
  0
POLYLINE
  8
LAYER_1
 62
     7
  6
CONTINUOUS
 66
     1
 40
0.011055
 41
0.011055
  0
VERTEX
  8
LAYER_1
 62
     7
  6
CONTINUOUS
 10
-0.301319
 20
-4.578177
  0
VERTEX
  8
LAYER_1
 62
     7
  6
CONTINUOUS
 10
-0.276102
 20
-4.640745
  0
VERTEX
  8
LAYER_1
 62
     7
  6
CONTINUOUS
 10
-0.252016
 20
-4.695528
  0
VERTEX
  8
LAYER_1
 62
     7
  6
CONTINUOUS
 10
-0.228957
 20
-4.743650
  0
SEQEND
  8
0
  0
POLYLINE
  8
LAYER_1
 62
     7
  6
CONTINUOUS
 66
     1
 40
0.011055
 41
0.011055
  0
VERTEX
  8
LAYER_1
 62
     7
  6
CONTINUOUS
 10
-0.228957
 20
-4.743650
  0
VERTEX
  8
LAYER_1
 62
     7
  6
CONTINUOUS
 10
-0.206809
 20
-4.786164
  0
VERTEX
  8
LAYER_1
 62
     7
  6
CONTINUOUS
 10
-0.185488
 20
-4.823756
  0
VERTEX
  8
LAYER_1
 62
     7
  6
CONTINUOUS
 10
-0.164886
 20
-4.857039
  0
SEQEND
  8
0
  0
POLYLINE
  8
LAYER_1
 62
     7
  6
CONTINUOUS
 66
     1
 40
0.011055
 41
0.011055
  0
VERTEX
  8
LAYER_1
 62
     7
  6
CONTINUOUS
 10
-0.164886
 20
-4.857039
  0
VERTEX
  8
LAYER_1
 62
     7
  6
CONTINUOUS
 10
-0.144864
 20
-4.886557
  0
VERTEX
  8
LAYER_1
 62
     7
  6
CONTINUOUS
 10
-0.125147
 20
-4.912489
  0
VERTEX
  8
LAYER_1
 62
     7
  6
CONTINUOUS
 10
-0.105429
 20
-4.934941
  0
SEQEND
  8
0
  0
POLYLINE
  8
LAYER_1
 62
     7
  6
CONTINUOUS
 66
     1
 40
0.011055
 41
0.011055
  0
VERTEX
  8
LAYER_1
 62
     7
  6
CONTINUOUS
 10
-0.105429
 20
-4.934941
  0
VERTEX
  8
LAYER_1
 62
     7
  6
CONTINUOUS
 10
-0.085488
 20
-4.954039
  0
VERTEX
  8
LAYER_1
 62
     7
  6
CONTINUOUS
 10
-0.065441
 20
-4.970067
  0
VERTEX
  8
LAYER_1
 62
     7
  6
CONTINUOUS
 10
-0.045500
 20
-4.983331
  0
SEQEND
  8
0
  0
POLYLINE
  8
LAYER_1
 62
     7
  6
CONTINUOUS
 66
     1
 40
0.011055
 41
0.011055
  0
VERTEX
  8
LAYER_1
 62
     7
  6
CONTINUOUS
 10
-0.045500
 20
-4.983331
  0
VERTEX
  8
LAYER_1
 62
     7
  6
CONTINUOUS
 10
-0.025818
 20
-4.994070
  0
VERTEX
  8
LAYER_1
 62
     7
  6
CONTINUOUS
 10
-0.006345
 20
-5.002247
  0
VERTEX
  8
LAYER_1
 62
     7
  6
CONTINUOUS
 10
0.013028
 20
-5.007764
  0
SEQEND
  8
0
  0
POLYLINE
  8
LAYER_1
 62
     7
  6
CONTINUOUS
 66
     1
 40
0.011055
 41
0.011055
  0
VERTEX
  8
LAYER_1
 62
     7
  6
CONTINUOUS
 10
0.013028
 20
-5.007764
  0
VERTEX
  8
LAYER_1
 62
     7
  6
CONTINUOUS
 10
0.032404
 20
-5.010530
  0
VERTEX
  8
LAYER_1
 62
     7
  6
CONTINUOUS
 10
0.051883
 20
-5.010530
  0
VERTEX
  8
LAYER_1
 62
     7
  6
CONTINUOUS
 10
0.071567
 20
-5.007764
  0
SEQEND
  8
0
  0
POLYLINE
  8
LAYER_1
 62
     7
  6
CONTINUOUS
 66
     1
 40
0.011055
 41
0.011055
  0
VERTEX
  8
LAYER_1
 62
     7
  6
CONTINUOUS
 10
0.071567
 20
-5.007764
  0
VERTEX
  8
LAYER_1
 62
     7
  6
CONTINUOUS
 10
0.091522
 20
-5.002247
  0
VERTEX
  8
LAYER_1
 62
     7
  6
CONTINUOUS
 10
0.111681
 20
-4.994070
  0
VERTEX
  8
LAYER_1
 62
     7
  6
CONTINUOUS
 10
0.131941
 20
-4.983331
  0
SEQEND
  8
0
  0
POLYLINE
  8
LAYER_1
 62
     7
  6
CONTINUOUS
 66
     1
 40
0.011055
 41
0.011055
  0
VERTEX
  8
LAYER_1
 62
     7
  6
CONTINUOUS
 10
0.131941
 20
-4.983331
  0
VERTEX
  8
LAYER_1
 62
     7
  6
CONTINUOUS
 10
0.152206
 20
-4.970067
  0
VERTEX
  8
LAYER_1
 62
     7
  6
CONTINUOUS
 10
0.172372
 20
-4.954039
  0
VERTEX
  8
LAYER_1
 62
     7
  6
CONTINUOUS
 10
0.192331
 20
-4.934941
  0
SEQEND
  8
0
  0
POLYLINE
  8
LAYER_1
 62
     7
  6
CONTINUOUS
 66
     1
 40
0.011055
 41
0.011055
  0
VERTEX
  8
LAYER_1
 62
     7
  6
CONTINUOUS
 10
0.192331
 20
-4.934941
  0
VERTEX
  8
LAYER_1
 62
     7
  6
CONTINUOUS
 10
0.212048
 20
-4.912489
  0
VERTEX
  8
LAYER_1
 62
     7
  6
CONTINUOUS
 10
0.231767
 20
-4.886557
  0
VERTEX
  8
LAYER_1
 62
     7
  6
CONTINUOUS
 10
0.251791
 20
-4.857039
  0
SEQEND
  8
0
  0
POLYLINE
  8
LAYER_1
 62
     7
  6
CONTINUOUS
 66
     1
 40
0.011055
 41
0.011055
  0
VERTEX
  8
LAYER_1
 62
     7
  6
CONTINUOUS
 10
0.251791
 20
-4.857039
  0
VERTEX
  8
LAYER_1
 62
     7
  6
CONTINUOUS
 10
0.272392
 20
-4.823756
  0
VERTEX
  8
LAYER_1
 62
     7
  6
CONTINUOUS
 10
0.293712
 20
-4.786164
  0
VERTEX
  8
LAYER_1
 62
     7
  6
CONTINUOUS
 10
0.315858
 20
-4.743650
  0
SEQEND
  8
0
  0
POLYLINE
  8
LAYER_1
 62
     7
  6
CONTINUOUS
 66
     1
 40
0.011055
 41
0.011055
  0
VERTEX
  8
LAYER_1
 62
     7
  6
CONTINUOUS
 10
0.315858
 20
-4.743650
  0
VERTEX
  8
LAYER_1
 62
     7
  6
CONTINUOUS
 10
0.338918
 20
-4.695528
  0
VERTEX
  8
LAYER_1
 62
     7
  6
CONTINUOUS
 10
0.363003
 20
-4.640745
  0
VERTEX
  8
LAYER_1
 62
     7
  6
CONTINUOUS
 10
0.388220
 20
-4.578177
  0
SEQEND
  8
0
  0
POLYLINE
  8
LAYER_1
 62
     7
  6
CONTINUOUS
 66
     1
 40
0.011055
 41
0.011055
  0
VERTEX
  8
LAYER_1
 62
     7
  6
CONTINUOUS
 10
0.388220
 20
-4.578177
  0
VERTEX
  8
LAYER_1
 62
     7
  6
CONTINUOUS
 10
0.414693
 20
-4.506584
  0
VERTEX
  8
LAYER_1
 62
     7
  6
CONTINUOUS
 10
0.442705
 20
-4.424236
  0
VERTEX
  8
LAYER_1
 62
     7
  6
CONTINUOUS
 10
0.472567
 20
-4.329291
  0
SEQEND
  8
0
  0
POLYLINE
  8
LAYER_1
 62
     7
  6
CONTINUOUS
 66
     1
 40
0.011055
 41
0.011055
  0
VERTEX
  8
LAYER_1
 62
     7
  6
CONTINUOUS
 10
0.472567
 20
-4.329291
  0
VERTEX
  8
LAYER_1
 62
     7
  6
CONTINUOUS
 10
0.504435
 20
-4.220088
  0
VERTEX
  8
LAYER_1
 62
     7
  6
CONTINUOUS
 10
0.537946
 20
-4.095724
  0
VERTEX
  8
LAYER_1
 62
     7
  6
CONTINUOUS
 10
0.572583
 20
-3.955484
  0
SEQEND
  8
0
  0
POLYLINE
  8
LAYER_1
 62
     7
  6
CONTINUOUS
 66
     1
 40
0.011055
 41
0.011055
  0
VERTEX
  8
LAYER_1
 62
     7
  6
CONTINUOUS
 10
0.572583
 20
-3.955484
  0
VERTEX
  8
LAYER_1
 62
     7
  6
CONTINUOUS
 10
0.607839
 20
-3.799010
  0
VERTEX
  8
LAYER_1
 62
     7
  6
CONTINUOUS
 10
0.643193
 20
-3.627376
  0
VERTEX
  8
LAYER_1
 62
     7
  6
CONTINUOUS
 10
0.678138
 20
-3.442012
  0
SEQEND
  8
0
  0
POLYLINE
  8
LAYER_1
 62
     7
  6
CONTINUOUS
 66
     1
 40
0.011055
 41
0.011055
  0
VERTEX
  8
LAYER_1
 62
     7
  6
CONTINUOUS
 10
0.678138
 20
-3.442012
  0
VERTEX
  8
LAYER_1
 62
     7
  6
CONTINUOUS
 10
0.712192
 20
-3.244469
  0
VERTEX
  8
LAYER_1
 62
     7
  6
CONTINUOUS
 10
0.745020
 20
-3.036679
  0
VERTEX
  8
LAYER_1
 62
     7
  6
CONTINUOUS
 10
0.776319
 20
-2.820693
  0
SEQEND
  8
0
  0
POLYLINE
  8
LAYER_1
 62
     7
  6
CONTINUOUS
 66
     1
 40
0.011055
 41
0.011055
  0
VERTEX
  8
LAYER_1
 62
     7
  6
CONTINUOUS
 10
0.776319
 20
-2.820693
  0
VERTEX
  8
LAYER_1
 62
     7
  6
CONTINUOUS
 10
0.805812
 20
-2.598340
  0
VERTEX
  8
LAYER_1
 62
     7
  6
CONTINUOUS
 10
0.833465
 20
-2.370559
  0
VERTEX
  8
LAYER_1
 62
     7
  6
CONTINUOUS
 10
0.859276
 20
-2.138067
  0
SEQEND
  8
0
  0
POLYLINE
  8
LAYER_1
 62
     7
  6
CONTINUOUS
 66
     1
 40
0.011055
 41
0.011055
  0
VERTEX
  8
LAYER_1
 62
     7
  6
CONTINUOUS
 10
0.859276
 20
-2.138067
  0
VERTEX
  8
LAYER_1
 62
     7
  6
CONTINUOUS
 10
0.883279
 20
-1.901546
  0
VERTEX
  8
LAYER_1
 62
     7
  6
CONTINUOUS
 10
0.905645
 20
-1.661542
  0
VERTEX
  8
LAYER_1
 62
     7
  6
CONTINUOUS
 10
0.926583
 20
-1.418567
  0
SEQEND
  8
0
  0
POLYLINE
  8
LAYER_1
 62
     7
  6
CONTINUOUS
 66
     1
 40
0.011055
 41
0.011055
  0
VERTEX
  8
LAYER_1
 62
     7
  6
CONTINUOUS
 10
0.926583
 20
-1.418567
  0
VERTEX
  8
LAYER_1
 62
     7
  6
CONTINUOUS
 10
0.946244
 20
-1.173140
  0
VERTEX
  8
LAYER_1
 62
     7
  6
CONTINUOUS
 10
0.964678
 20
-0.925759
  0
VERTEX
  8
LAYER_1
 62
     7
  6
CONTINUOUS
 10
0.981886
 20
-0.676941
  0
SEQEND
  8
0
  0
POLYLINE
  8
LAYER_1
 62
     7
  6
CONTINUOUS
 66
     1
 40
0.011055
 41
0.011055
  0
VERTEX
  8
LAYER_1
 62
     7
  6
CONTINUOUS
 10
0.981886
 20
-0.676941
  0
VERTEX
  8
LAYER_1
 62
     7
  6
CONTINUOUS
 10
0.997868
 20
-0.427111
  0
VERTEX
  8
LAYER_1
 62
     7
  6
CONTINUOUS
 10
1.012618
 20
-0.176252
  0
VERTEX
  8
LAYER_1
 62
     7
  6
CONTINUOUS
 10
1.026138
 20
0.075732
  0
SEQEND
  8
0
  0
POLYLINE
  8
LAYER_1
 62
     7
  6
CONTINUOUS
 66
     1
 40
0.011055
 41
0.011055
  0
VERTEX
  8
LAYER_1
 62
     7
  6
CONTINUOUS
 10
1.026138
 20
0.075732
  0
VERTEX
  8
LAYER_1
 62
     7
  6
CONTINUOUS
 10
1.038441
 20
0.328899
  0
VERTEX
  8
LAYER_1
 62
     7
  6
CONTINUOUS
 10
1.049619
 20
0.583088
  0
VERTEX
  8
LAYER_1
 62
     7
  6
CONTINUOUS
 10
1.059776
 20
0.838094
  0
SEQEND
  8
0
  0
POLYLINE
  8
LAYER_1
 62
     7
  6
CONTINUOUS
 66
     1
 40
0.011055
 41
0.011055
  0
VERTEX
  8
LAYER_1
 62
     7
  6
CONTINUOUS
 10
1.059776
 20
0.838094
  0
VERTEX
  8
LAYER_1
 62
     7
  6
CONTINUOUS
 10
1.069032
 20
1.093751
  0
VERTEX
  8
LAYER_1
 62
     7
  6
CONTINUOUS
 10
1.077572
 20
1.350026
  0
VERTEX
  8
LAYER_1
 62
     7
  6
CONTINUOUS
 10
1.085594
 20
1.606913
  0
SEQEND
  8
0
  0
POLYLINE
  8
LAYER_1
 62
     7
  6
CONTINUOUS
 66
     1
 40
0.011055
 41
0.011055
  0
VERTEX
  8
LAYER_1
 62
     7
  6
CONTINUOUS
 10
1.085594
 20
1.606913
  0
VERTEX
  8
LAYER_1
 62
     7
  6
CONTINUOUS
 10
1.093241
 20
1.864381
  0
VERTEX
  8
LAYER_1
 62
     7
  6
CONTINUOUS
 10
1.100375
 20
2.122259
  0
VERTEX
  8
LAYER_1
 62
     7
  6
CONTINUOUS
 10
1.106791
 20
2.380346
  0
SEQEND
  8
0
  0
POLYLINE
  8
LAYER_1
 62
     7
  6
CONTINUOUS
 66
     1
 40
0.011055
 41
0.011055
  0
VERTEX
  8
LAYER_1
 62
     7
  6
CONTINUOUS
 10
1.106791
 20
2.380346
  0
VERTEX
  8
LAYER_1
 62
     7
  6
CONTINUOUS
 10
1.112345
 20
2.638491
  0
VERTEX
  8
LAYER_1
 62
     7
  6
CONTINUOUS
 10
1.117075
 20
2.896843
  0
VERTEX
  8
LAYER_1
 62
     7
  6
CONTINUOUS
 10
1.121083
 20
3.155610
  0
SEQEND
  8
0
  0
POLYLINE
  8
LAYER_1
 62
     7
  6
CONTINUOUS
 66
     1
 40
0.011055
 41
0.011055
  0
VERTEX
  8
LAYER_1
 62
     7
  6
CONTINUOUS
 10
1.121083
 20
3.155610
  0
VERTEX
  8
LAYER_1
 62
     7
  6
CONTINUOUS
 10
1.124466
 20
3.414939
  0
VERTEX
  8
LAYER_1
 62
     7
  6
CONTINUOUS
 10
1.127230
 20
3.674780
  0
VERTEX
  8
LAYER_1
 62
     7
  6
CONTINUOUS
 10
1.129374
 20
3.935028
  0
SEQEND
  8
0
  0
POLYLINE
  8
LAYER_1
 62
     7
  6
CONTINUOUS
 66
     1
 40
0.011055
 41
0.011055
  0
VERTEX
  8
LAYER_1
 62
     7
  6
CONTINUOUS
 10
1.129374
 20
3.935028
  0
VERTEX
  8
LAYER_1
 62
     7
  6
CONTINUOUS
 10
1.130931
 20
4.195582
  0
VERTEX
  8
LAYER_1
 62
     7
  6
CONTINUOUS
 10
1.131977
 20
4.456344
  0
VERTEX
  8
LAYER_1
 62
     7
  6
CONTINUOUS
 10
1.132610
 20
4.717205
  0
SEQEND
  8
0
  0
POLYLINE
  8
LAYER_1
 62
     7
  6
CONTINUOUS
 66
     1
 40
0.011055
 41
0.011055
  0
VERTEX
  8
LAYER_1
 62
     7
  6
CONTINUOUS
 10
1.132610
 20
4.717205
  0
VERTEX
  8
LAYER_1
 62
     7
  6
CONTINUOUS
 10
1.132915
 20
4.978107
  0
VERTEX
  8
LAYER_1
 62
     7
  6
CONTINUOUS
 10
1.132915
 20
5.239109
  0
VERTEX
  8
LAYER_1
 62
     7
  6
CONTINUOUS
 10
1.132610
 20
5.500319
  0
SEQEND
  8
0
  0
POLYLINE
  8
LAYER_1
 62
     7
  6
CONTINUOUS
 66
     1
 40
0.011055
 41
0.011055
  0
VERTEX
  8
LAYER_1
 62
     7
  6
CONTINUOUS
 10
1.132610
 20
5.500319
  0
VERTEX
  8
LAYER_1
 62
     7
  6
CONTINUOUS
 10
1.131977
 20
5.761791
  0
VERTEX
  8
LAYER_1
 62
     7
  6
CONTINUOUS
 10
1.130931
 20
6.023474
  0
VERTEX
  8
LAYER_1
 62
     7
  6
CONTINUOUS
 10
1.129374
 20
6.285264
  0
SEQEND
  8
0
  0
POLYLINE
  8
LAYER_1
 62
     7
  6
CONTINUOUS
 66
     1
 40
0.011055
 41
0.011055
  0
VERTEX
  8
LAYER_1
 62
     7
  6
CONTINUOUS
 10
1.129374
 20
6.285264
  0
VERTEX
  8
LAYER_1
 62
     7
  6
CONTINUOUS
 10
1.127264
 20
6.547068
  0
VERTEX
  8
LAYER_1
 62
     7
  6
CONTINUOUS
 10
1.124741
 20
6.808873
  0
VERTEX
  8
LAYER_1
 62
     7
  6
CONTINUOUS
 10
1.122012
 20
7.070677
  0
SEQEND
  8
0
  0
POLYLINE
  8
LAYER_1
 62
     7
  6
CONTINUOUS
 66
     1
 40
0.011055
 41
0.011055
  0
VERTEX
  8
LAYER_1
 62
     7
  6
CONTINUOUS
 10
1.122012
 20
7.070677
  0
VERTEX
  8
LAYER_1
 62
     7
  6
CONTINUOUS
 10
1.119186
 20
7.332480
  0
VERTEX
  8
LAYER_1
 62
     7
  6
CONTINUOUS
 10
1.116062
 20
7.594280
  0
VERTEX
  8
LAYER_1
 62
     7
  6
CONTINUOUS
 10
1.112331
 20
7.856083
  0
SEQEND
  8
0
  0
POLYLINE
  8
LAYER_1
 62
     7
  6
CONTINUOUS
 66
     1
 40
0.011055
 41
0.011055
  0
VERTEX
  8
LAYER_1
 62
     7
  6
CONTINUOUS
 10
1.112331
 20
7.856083
  0
VERTEX
  8
LAYER_1
 62
     7
  6
CONTINUOUS
 10
1.107770
 20
8.117870
  0
VERTEX
  8
LAYER_1
 62
     7
  6
CONTINUOUS
 10
1.102595
 20
8.379557
  0
VERTEX
  8
LAYER_1
 62
     7
  6
CONTINUOUS
 10
1.097110
 20
8.641039
  0
SEQEND
  8
0
  0
POLYLINE
  8
LAYER_1
 62
     7
  6
CONTINUOUS
 66
     1
 40
0.011055
 41
0.011055
  0
VERTEX
  8
LAYER_1
 62
     7
  6
CONTINUOUS
 10
1.097110
 20
8.641039
  0
VERTEX
  8
LAYER_1
 62
     7
  6
CONTINUOUS
 10
1.091548
 20
8.902242
  0
VERTEX
  8
LAYER_1
 62
     7
  6
CONTINUOUS
 10
1.085779
 20
9.163243
  0
VERTEX
  8
LAYER_1
 62
     7
  6
CONTINUOUS
 10
1.079594
 20
9.424138
  0
SEQEND
  8
0
  0
POLYLINE
  8
LAYER_1
 62
     7
  6
CONTINUOUS
 66
     1
 40
0.011055
 41
0.011055
  0
VERTEX
  8
LAYER_1
 62
     7
  6
CONTINUOUS
 10
1.079594
 20
9.424138
  0
VERTEX
  8
LAYER_1
 62
     7
  6
CONTINUOUS
 10
1.072857
 20
9.685023
  0
VERTEX
  8
LAYER_1
 62
     7
  6
CONTINUOUS
 10
1.065605
 20
9.945906
  0
VERTEX
  8
LAYER_1
 62
     7
  6
CONTINUOUS
 10
1.057941
 20
10.206791
  0
SEQEND
  8
0
  0
POLYLINE
  8
LAYER_1
 62
     7
  6
CONTINUOUS
 66
     1
 40
0.011055
 41
0.011055
  0
VERTEX
  8
LAYER_1
 62
     7
  6
CONTINUOUS
 10
1.057941
 20
10.206791
  0
VERTEX
  8
LAYER_1
 62
     7
  6
CONTINUOUS
 10
1.049928
 20
10.467632
  0
VERTEX
  8
LAYER_1
 62
     7
  6
CONTINUOUS
 10
1.041511
 20
10.728272
  0
VERTEX
  8
LAYER_1
 62
     7
  6
CONTINUOUS
 10
1.032583
 20
10.988512
  0
SEQEND
  8
0
  0
POLYLINE
  8
LAYER_1
 62
     7
  6
CONTINUOUS
 66
     1
 40
0.011055
 41
0.011055
  0
VERTEX
  8
LAYER_1
 62
     7
  6
CONTINUOUS
 10
1.032583
 20
10.988512
  0
VERTEX
  8
LAYER_1
 62
     7
  6
CONTINUOUS
 10
1.023063
 20
11.248194
  0
VERTEX
  8
LAYER_1
 62
     7
  6
CONTINUOUS
 10
1.012924
 20
11.507466
  0
VERTEX
  8
LAYER_1
 62
     7
  6
CONTINUOUS
 10
1.002165
 20
11.766539
  0
SEQEND
  8
0
  0
POLYLINE
  8
LAYER_1
 62
     7
  6
CONTINUOUS
 66
     1
 40
0.011055
 41
0.011055
  0
VERTEX
  8
LAYER_1
 62
     7
  6
CONTINUOUS
 10
1.002165
 20
11.766539
  0
VERTEX
  8
LAYER_1
 62
     7
  6
CONTINUOUS
 10
0.990817
 20
12.025547
  0
VERTEX
  8
LAYER_1
 62
     7
  6
CONTINUOUS
 10
0.978952
 20
12.284347
  0
VERTEX
  8
LAYER_1
 62
     7
  6
CONTINUOUS
 10
0.966677
 20
12.542732
  0
SEQEND
  8
0
  0
POLYLINE
  8
LAYER_1
 62
     7
  6
CONTINUOUS
 66
     1
 40
0.011055
 41
0.011055
  0
VERTEX
  8
LAYER_1
 62
     7
  6
CONTINUOUS
 10
0.966677
 20
12.542732
  0
VERTEX
  8
LAYER_1
 62
     7
  6
CONTINUOUS
 10
0.954026
 20
12.800573
  0
VERTEX
  8
LAYER_1
 62
     7
  6
CONTINUOUS
 10
0.940761
 20
13.058005
  0
VERTEX
  8
LAYER_1
 62
     7
  6
CONTINUOUS
 10
0.926583
 20
13.315232
  0
SEQEND
  8
0
  0
POLYLINE
  8
LAYER_1
 62
     7
  6
CONTINUOUS
 66
     1
 40
0.011055
 41
0.011055
  0
VERTEX
  8
LAYER_1
 62
     7
  6
CONTINUOUS
 10
0.926583
 20
13.315232
  0
VERTEX
  8
LAYER_1
 62
     7
  6
CONTINUOUS
 10
0.911267
 20
13.572411
  0
VERTEX
  8
LAYER_1
 62
     7
  6
CONTINUOUS
 10
0.895029
 20
13.829487
  0
VERTEX
  8
LAYER_1
 62
     7
  6
CONTINUOUS
 10
0.878177
 20
14.086358
  0
SEQEND
  8
0
  0
POLYLINE
  8
LAYER_1
 62
     7
  6
CONTINUOUS
 66
     1
 40
0.011055
 41
0.011055
  0
VERTEX
  8
LAYER_1
 62
     7
  6
CONTINUOUS
 10
0.878177
 20
14.086358
  0
VERTEX
  8
LAYER_1
 62
     7
  6
CONTINUOUS
 10
0.860935
 20
14.342938
  0
VERTEX
  8
LAYER_1
 62
     7
  6
CONTINUOUS
 10
0.843180
 20
14.599209
  0
VERTEX
  8
LAYER_1
 62
     7
  6
CONTINUOUS
 10
0.824705
 20
14.855177
  0
SEQEND
  8
0
  0
POLYLINE
  8
LAYER_1
 62
     7
  6
CONTINUOUS
 66
     1
 40
0.011055
 41
0.011055
  0
VERTEX
  8
LAYER_1
 62
     7
  6
CONTINUOUS
 10
0.824705
 20
14.855177
  0
VERTEX
  8
LAYER_1
 62
     7
  6
CONTINUOUS
 10
0.805355
 20
15.110831
  0
VERTEX
  8
LAYER_1
 62
     7
  6
CONTINUOUS
 10
0.785077
 20
15.366182
  0
VERTEX
  8
LAYER_1
 62
     7
  6
CONTINUOUS
 10
0.763874
 20
15.621232
  0
SEQEND
  8
0
  0
POLYLINE
  8
LAYER_1
 62
     7
  6
CONTINUOUS
 66
     1
 40
0.011055
 41
0.011055
  0
VERTEX
  8
LAYER_1
 62
     7
  6
CONTINUOUS
 10
0.763874
 20
15.621232
  0
VERTEX
  8
LAYER_1
 62
     7
  6
CONTINUOUS
 10
0.741764
 20
15.875949
  0
VERTEX
  8
LAYER_1
 62
     7
  6
CONTINUOUS
 10
0.718838
 20
16.130255
  0
VERTEX
  8
LAYER_1
 62
     7
  6
CONTINUOUS
 10
0.695193
 20
16.384055
  0
SEQEND
  8
0
  0
POLYLINE
  8
LAYER_1
 62
     7
  6
CONTINUOUS
 66
     1
 40
0.011055
 41
0.011055
  0
VERTEX
  8
LAYER_1
 62
     7
  6
CONTINUOUS
 10
0.695193
 20
16.384055
  0
VERTEX
  8
LAYER_1
 62
     7
  6
CONTINUOUS
 10
0.670880
 20
16.637283
  0
VERTEX
  8
LAYER_1
 62
     7
  6
CONTINUOUS
 10
0.645750
 20
16.890104
  0
VERTEX
  8
LAYER_1
 62
     7
  6
CONTINUOUS
 10
0.619594
 20
17.142720
  0
SEQEND
  8
0
  0
POLYLINE
  8
LAYER_1
 62
     7
  6
CONTINUOUS
 66
     1
 40
0.011055
 41
0.011055
  0
VERTEX
  8
LAYER_1
 62
     7
  6
CONTINUOUS
 10
0.619594
 20
17.142720
  0
VERTEX
  8
LAYER_1
 62
     7
  6
CONTINUOUS
 10
0.592305
 20
17.395195
  0
VERTEX
  8
LAYER_1
 62
     7
  6
CONTINUOUS
 10
0.564086
 20
17.646947
  0
VERTEX
  8
LAYER_1
 62
     7
  6
CONTINUOUS
 10
0.535248
 20
17.897264
  0
SEQEND
  8
0
  0
POLYLINE
  8
LAYER_1
 62
     7
  6
CONTINUOUS
 66
     1
 40
0.011055
 41
0.011055
  0
VERTEX
  8
LAYER_1
 62
     7
  6
CONTINUOUS
 10
0.535248
 20
17.897264
  0
VERTEX
  8
LAYER_1
 62
     7
  6
CONTINUOUS
 10
0.506131
 20
18.144943
  0
VERTEX
  8
LAYER_1
 62
     7
  6
CONTINUOUS
 10
0.477110
 20
18.386893
  0
VERTEX
  8
LAYER_1
 62
     7
  6
CONTINUOUS
 10
0.448594
 20
18.619528
  0
SEQEND
  8
0
  0
POLYLINE
  8
LAYER_1
 62
     7
  6
CONTINUOUS
 66
     1
 40
0.011055
 41
0.011055
  0
VERTEX
  8
LAYER_1
 62
     7
  6
CONTINUOUS
 10
0.448594
 20
18.619528
  0
VERTEX
  8
LAYER_1
 62
     7
  6
CONTINUOUS
 10
0.421387
 20
18.836717
  0
VERTEX
  8
LAYER_1
 62
     7
  6
CONTINUOUS
 10
0.397762
 20
19.022261
  0
VERTEX
  8
LAYER_1
 62
     7
  6
CONTINUOUS
 10
0.380386
 20
19.157413
  0
SEQEND
  8
0
  0
POLYLINE
  8
LAYER_1
 62
     7
  6
CONTINUOUS
 66
     1
 40
0.011055
 41
0.011055
  0
VERTEX
  8
LAYER_1
 62
     7
  6
CONTINUOUS
 10
0.380386
 20
19.157413
  0
VERTEX
  8
LAYER_1
 62
     7
  6
CONTINUOUS
 10
0.370974
 20
19.230394
  0
VERTEX
  8
LAYER_1
 62
     7
  6
CONTINUOUS
 10
0.367507
 20
19.257281
  0
VERTEX
  8
LAYER_1
 62
     7
  6
CONTINUOUS
 10
0.367012
 20
19.261122
  0
SEQEND
  8
0
  0
SOLID
  8
LAYER_1
 62
   253
  6
CONTINUOUS
 10
1.937831
 20
1.639177
 11
1.915705
 21
2.114846
 12
3.541846
 22
1.644705
 13
3.558429
 23
2.120374
  0
POLYLINE
  8
LAYER_1
 62
   253
  6
CONTINUOUS
 66
     1
 40
0.003000
 41
0.003000
 70
     1
  0
VERTEX
  8
LAYER_1
 62
   253
  6
CONTINUOUS
 10
1.937831
 20
1.639177
  0
VERTEX
  8
LAYER_1
 62
   253
  6
CONTINUOUS
 10
1.915705
 20
2.114846
  0
VERTEX
  8
LAYER_1
 62
   253
  6
CONTINUOUS
 10
3.558429
 20
2.120374
  0
VERTEX
  8
LAYER_1
 62
   253
  6
CONTINUOUS
 10
3.541846
 20
1.644705
  0
SEQEND
  8
0
  0
POLYLINE
  8
LAYER_1
 62
     7
  6
CONTINUOUS
 66
     1
 40
0.003000
 41
0.003000
 70
     1
  0
VERTEX
  8
LAYER_1
 62
     7
  6
CONTINUOUS
 10
1.937831
 20
1.639177
  0
VERTEX
  8
LAYER_1
 62
     7
  6
CONTINUOUS
 10
1.915705
 20
2.114846
  0
VERTEX
  8
LAYER_1
 62
     7
  6
CONTINUOUS
 10
3.558429
 20
2.120374
  0
VERTEX
  8
LAYER_1
 62
     7
  6
CONTINUOUS
 10
3.541846
 20
1.644705
  0
SEQEND
  8
0
  0
SOLID
  8
LAYER_1
 62
   253
  6
CONTINUOUS
 10
1.888055
 20
3.243177
 11
1.871457
 21
3.740984
 12
3.591622
 22
3.243177
 13
3.613748
 23
3.740984
  0
POLYLINE
  8
LAYER_1
 62
   253
  6
CONTINUOUS
 66
     1
 40
0.003000
 41
0.003000
 70
     1
  0
VERTEX
  8
LAYER_1
 62
   253
  6
CONTINUOUS
 10
1.888055
 20
3.243177
  0
VERTEX
  8
LAYER_1
 62
   253
  6
CONTINUOUS
 10
1.871457
 20
3.740984
  0
VERTEX
  8
LAYER_1
 62
   253
  6
CONTINUOUS
 10
3.613748
 20
3.740984
  0
VERTEX
  8
LAYER_1
 62
   253
  6
CONTINUOUS
 10
3.591622
 20
3.243177
  0
SEQEND
  8
0
  0
POLYLINE
  8
LAYER_1
 62
     7
  6
CONTINUOUS
 66
     1
 40
0.003000
 41
0.003000
 70
     1
  0
VERTEX
  8
LAYER_1
 62
     7
  6
CONTINUOUS
 10
1.888055
 20
3.243177
  0
VERTEX
  8
LAYER_1
 62
     7
  6
CONTINUOUS
 10
1.871457
 20
3.740984
  0
VERTEX
  8
LAYER_1
 62
     7
  6
CONTINUOUS
 10
3.613748
 20
3.740984
  0
VERTEX
  8
LAYER_1
 62
     7
  6
CONTINUOUS
 10
3.591622
 20
3.243177
  0
SEQEND
  8
0
  0
POLYLINE
  8
LAYER_1
 62
   253
  6
CONTINUOUS
 66
     1
 40
0.003000
 41
0.003000
 70
     1
  0
VERTEX
  8
LAYER_1
 62
   253
  6
CONTINUOUS
 10
-2.870028
 20
2.973539
  0
VERTEX
  8
LAYER_1
 62
   253
  6
CONTINUOUS
 10
-2.805039
 20
2.984610
  0
VERTEX
  8
LAYER_1
 62
   253
  6
CONTINUOUS
 10
-2.733138
 20
2.991528
  0
VERTEX
  8
LAYER_1
 62
   253
  6
CONTINUOUS
 10
-2.633583
 20
2.991528
  0
VERTEX
  8
LAYER_1
 62
   253
  6
CONTINUOUS
 10
-2.564441
 20
2.985984
  0
VERTEX
  8
LAYER_1
 62
   253
  6
CONTINUOUS
 10
-2.493913
 20
2.973539
  0
VERTEX
  8
LAYER_1
 62
   253
  6
CONTINUOUS
 10
-2.428929
 20
2.956957
  0
VERTEX
  8
LAYER_1
 62
   253
  6
CONTINUOUS
 10
-2.428929
 20
2.757831
  0
VERTEX
  8
LAYER_1
 62
   253
  6
CONTINUOUS
 10
-2.928110
 20
2.757831
  0
VERTEX
  8
LAYER_1
 62
   253
  6
CONTINUOUS
 10
-2.926720
 20
2.958331
  0
SEQEND
  8
0
  0
POLYLINE
  8
LAYER_1
 62
     7
  6
CONTINUOUS
 66
     1
 40
0.003000
 41
0.003000
 70
     1
  0
VERTEX
  8
LAYER_1
 62
     7
  6
CONTINUOUS
 10
-2.870028
 20
2.973539
  0
VERTEX
  8
LAYER_1
 62
     7
  6
CONTINUOUS
 10
-2.805039
 20
2.984610
  0
VERTEX
  8
LAYER_1
 62
     7
  6
CONTINUOUS
 10
-2.733138
 20
2.991528
  0
VERTEX
  8
LAYER_1
 62
     7
  6
CONTINUOUS
 10
-2.633583
 20
2.991528
  0
VERTEX
  8
LAYER_1
 62
     7
  6
CONTINUOUS
 10
-2.564441
 20
2.985984
  0
VERTEX
  8
LAYER_1
 62
     7
  6
CONTINUOUS
 10
-2.493913
 20
2.973539
  0
VERTEX
  8
LAYER_1
 62
     7
  6
CONTINUOUS
 10
-2.428929
 20
2.956957
  0
VERTEX
  8
LAYER_1
 62
     7
  6
CONTINUOUS
 10
-2.428929
 20
2.757831
  0
VERTEX
  8
LAYER_1
 62
     7
  6
CONTINUOUS
 10
-2.928110
 20
2.757831
  0
VERTEX
  8
LAYER_1
 62
     7
  6
CONTINUOUS
 10
-2.926720
 20
2.958331
  0
SEQEND
  8
0
  0
SOLID
  8
LAYER_1
  6
CONTINUOUS
 10
-0.901969
 20
6.118957
 11
-0.841122
 21
6.088539
 12
-0.899205
 22
4.902122
 13
-0.835594
 23
4.844055
  0
POLYLINE
  8
LAYER_1
  6
CONTINUOUS
 66
     1
 40
0.003000
 41
0.003000
 70
     1
  0
VERTEX
  8
LAYER_1
  6
CONTINUOUS
 10
-0.901969
 20
6.118957
  0
VERTEX
  8
LAYER_1
  6
CONTINUOUS
 10
-0.841122
 20
6.088539
  0
VERTEX
  8
LAYER_1
  6
CONTINUOUS
 10
-0.835594
 20
4.844055
  0
VERTEX
  8
LAYER_1
  6
CONTINUOUS
 10
-0.899205
 20
4.902122
  0
SEQEND
  8
0
  0
POLYLINE
  8
LAYER_1
 62
     7
  6
CONTINUOUS
 66
     1
 40
0.003000
 41
0.003000
 70
     1
  0
VERTEX
  8
LAYER_1
 62
     7
  6
CONTINUOUS
 10
2.131000
 20
-0.500638
  0
VERTEX
  8
LAYER_1
 62
     7
  6
CONTINUOUS
 10
3.286984
 20
-0.500638
  0
VERTEX
  8
LAYER_1
 62
     7
  6
CONTINUOUS
 10
3.286984
 20
1.180803
  0
VERTEX
  8
LAYER_1
 62
     7
  6
CONTINUOUS
 10
2.131000
 20
1.180803
  0
SEQEND
  8
0
  0
POLYLINE
  8
LAYER_1
 62
     7
  6
CONTINUOUS
 66
     1
 40
0.003000
 41
0.003000
 70
     1
  0
VERTEX
  8
LAYER_1
 62
     7
  6
CONTINUOUS
 10
-2.980276
 20
-2.108457
  0
VERTEX
  8
LAYER_1
 62
     7
  6
CONTINUOUS
 10
-3.129810
 20
-2.149796
  0
VERTEX
  8
LAYER_1
 62
     7
  6
CONTINUOUS
 10
-3.236143
 20
-2.258391
  0
VERTEX
  8
LAYER_1
 62
     7
  6
CONTINUOUS
 10
-3.276622
 20
-2.411110
  0
VERTEX
  8
LAYER_1
 62
     7
  6
CONTINUOUS
 10
-3.236143
 20
-2.563828
  0
VERTEX
  8
LAYER_1
 62
     7
  6
CONTINUOUS
 10
-3.129810
 20
-2.672424
  0
VERTEX
  8
LAYER_1
 62
     7
  6
CONTINUOUS
 10
-2.980276
 20
-2.713764
  0
VERTEX
  8
LAYER_1
 62
     7
  6
CONTINUOUS
 10
-2.830742
 20
-2.672424
  0
VERTEX
  8
LAYER_1
 62
     7
  6
CONTINUOUS
 10
-2.724408
 20
-2.563828
  0
VERTEX
  8
LAYER_1
 62
     7
  6
CONTINUOUS
 10
-2.683929
 20
-2.411110
  0
VERTEX
  8
LAYER_1
 62
     7
  6
CONTINUOUS
 10
-2.724408
 20
-2.258391
  0
VERTEX
  8
LAYER_1
 62
     7
  6
CONTINUOUS
 10
-2.830742
 20
-2.149796
  0
SEQEND
  8
0
  0
POLYLINE
  8
LAYER_1
 62
     7
  6
CONTINUOUS
 66
     1
 40
0.003000
 41
0.003000
 70
     1
  0
VERTEX
  8
LAYER_1
 62
     7
  6
CONTINUOUS
 10
-2.980276
 20
-1.500122
  0
VERTEX
  8
LAYER_1
 62
     7
  6
CONTINUOUS
 10
-3.129810
 20
-1.541461
  0
VERTEX
  8
LAYER_1
 62
     7
  6
CONTINUOUS
 10
-3.236143
 20
-1.650056
  0
VERTEX
  8
LAYER_1
 62
     7
  6
CONTINUOUS
 10
-3.276622
 20
-1.802776
  0
VERTEX
  8
LAYER_1
 62
     7
  6
CONTINUOUS
 10
-3.236143
 20
-1.955495
  0
VERTEX
  8
LAYER_1
 62
     7
  6
CONTINUOUS
 10
-3.129810
 20
-2.064090
  0
VERTEX
  8
LAYER_1
 62
     7
  6
CONTINUOUS
 10
-2.980276
 20
-2.105429
  0
VERTEX
  8
LAYER_1
 62
     7
  6
CONTINUOUS
 10
-2.830742
 20
-2.064090
  0
VERTEX
  8
LAYER_1
 62
     7
  6
CONTINUOUS
 10
-2.724408
 20
-1.955495
  0
VERTEX
  8
LAYER_1
 62
     7
  6
CONTINUOUS
 10
-2.683929
 20
-1.802776
  0
VERTEX
  8
LAYER_1
 62
     7
  6
CONTINUOUS
 10
-2.724408
 20
-1.650056
  0
VERTEX
  8
LAYER_1
 62
     7
  6
CONTINUOUS
 10
-2.830742
 20
-1.541461
  0
SEQEND
  8
0
  0
POLYLINE
  8
LAYER_1
 62
     7
  6
CONTINUOUS
 66
     1
 40
0.003000
 41
0.003000
 70
     1
  0
VERTEX
  8
LAYER_1
 62
     7
  6
CONTINUOUS
 10
-2.386110
 20
-2.105957
  0
VERTEX
  8
LAYER_1
 62
     7
  6
CONTINUOUS
 10
-2.535644
 20
-2.147296
  0
VERTEX
  8
LAYER_1
 62
     7
  6
CONTINUOUS
 10
-2.641978
 20
-2.255891
  0
VERTEX
  8
LAYER_1
 62
     7
  6
CONTINUOUS
 10
-2.682457
 20
-2.408610
  0
VERTEX
  8
LAYER_1
 62
     7
  6
CONTINUOUS
 10
-2.641978
 20
-2.561328
  0
VERTEX
  8
LAYER_1
 62
     7
  6
CONTINUOUS
 10
-2.535644
 20
-2.669924
  0
VERTEX
  8
LAYER_1
 62
     7
  6
CONTINUOUS
 10
-2.386110
 20
-2.711264
  0
VERTEX
  8
LAYER_1
 62
     7
  6
CONTINUOUS
 10
-2.236576
 20
-2.669924
  0
VERTEX
  8
LAYER_1
 62
     7
  6
CONTINUOUS
 10
-2.130243
 20
-2.561328
  0
VERTEX
  8
LAYER_1
 62
     7
  6
CONTINUOUS
 10
-2.089764
 20
-2.408610
  0
VERTEX
  8
LAYER_1
 62
     7
  6
CONTINUOUS
 10
-2.130243
 20
-2.255891
  0
VERTEX
  8
LAYER_1
 62
     7
  6
CONTINUOUS
 10
-2.236576
 20
-2.147296
  0
SEQEND
  8
0
  0
POLYLINE
  8
LAYER_1
 62
     7
  6
CONTINUOUS
 66
     1
 40
0.003000
 41
0.003000
 70
     1
  0
VERTEX
  8
LAYER_1
 62
     7
  6
CONTINUOUS
 10
-2.386110
 20
-1.496791
  0
VERTEX
  8
LAYER_1
 62
     7
  6
CONTINUOUS
 10
-2.535644
 20
-1.538130
  0
VERTEX
  8
LAYER_1
 62
     7
  6
CONTINUOUS
 10
-2.641978
 20
-1.646724
  0
VERTEX
  8
LAYER_1
 62
     7
  6
CONTINUOUS
 10
-2.682457
 20
-1.799441
  0
VERTEX
  8
LAYER_1
 62
     7
  6
CONTINUOUS
 10
-2.641978
 20
-1.952160
  0
VERTEX
  8
LAYER_1
 62
     7
  6
CONTINUOUS
 10
-2.535644
 20
-2.060756
  0
VERTEX
  8
LAYER_1
 62
     7
  6
CONTINUOUS
 10
-2.386110
 20
-2.102094
  0
VERTEX
  8
LAYER_1
 62
     7
  6
CONTINUOUS
 10
-2.236576
 20
-2.060756
  0
VERTEX
  8
LAYER_1
 62
     7
  6
CONTINUOUS
 10
-2.130243
 20
-1.952160
  0
VERTEX
  8
LAYER_1
 62
     7
  6
CONTINUOUS
 10
-2.089764
 20
-1.799441
  0
VERTEX
  8
LAYER_1
 62
     7
  6
CONTINUOUS
 10
-2.130243
 20
-1.646724
  0
VERTEX
  8
LAYER_1
 62
     7
  6
CONTINUOUS
 10
-2.236576
 20
-1.538130
  0
SEQEND
  8
0
  0
POLYLINE
  8
LAYER_1
 62
     7
  6
CONTINUOUS
 66
     1
 40
0.003000
 41
0.003000
 70
     1
  0
VERTEX
  8
LAYER_1
 62
     7
  6
CONTINUOUS
 10
2.134094
 20
-2.705496
  0
VERTEX
  8
LAYER_1
 62
     7
  6
CONTINUOUS
 10
2.733110
 20
-2.705496
  0
VERTEX
  8
LAYER_1
 62
     7
  6
CONTINUOUS
 10
2.733110
 20
-0.597386
  0
VERTEX
  8
LAYER_1
 62
     7
  6
CONTINUOUS
 10
2.134094
 20
-0.597386
  0
SEQEND
  8
0
  0
POLYLINE
  8
LAYER_1
 62
     7
  6
CONTINUOUS
 66
     1
 40
0.003000
 41
0.003000
 70
     1
  0
VERTEX
  8
LAYER_1
 62
     7
  6
CONTINUOUS
 10
2.742512
 20
-2.705496
  0
VERTEX
  8
LAYER_1
 62
     7
  6
CONTINUOUS
 10
3.341528
 20
-2.705496
  0
VERTEX
  8
LAYER_1
 62
     7
  6
CONTINUOUS
 10
3.341528
 20
-0.597386
  0
VERTEX
  8
LAYER_1
 62
     7
  6
CONTINUOUS
 10
2.742512
 20
-0.597386
  0
SEQEND
  8
0
  0
POLYLINE
  8
LAYER_1
 62
     7
  6
CONTINUOUS
 66
     1
 40
0.003000
 41
0.003000
 70
     1
  0
VERTEX
  8
LAYER_1
 62
     7
  6
CONTINUOUS
 10
-0.558969
 20
-2.755720
  0
VERTEX
  8
LAYER_1
 62
     7
  6
CONTINUOUS
 10
0.040039
 20
-2.755720
  0
VERTEX
  8
LAYER_1
 62
     7
  6
CONTINUOUS
 10
0.040039
 20
-0.647610
  0
VERTEX
  8
LAYER_1
 62
     7
  6
CONTINUOUS
 10
-0.558969
 20
-0.647610
  0
SEQEND
  8
0
  0
POLYLINE
  8
LAYER_1
 62
     7
  6
CONTINUOUS
 66
     1
 40
0.003000
 41
0.003000
 70
     1
  0
VERTEX
  8
LAYER_1
 62
     7
  6
CONTINUOUS
 10
0.049441
 20
-2.755720
  0
VERTEX
  8
LAYER_1
 62
     7
  6
CONTINUOUS
 10
0.648457
 20
-2.755720
  0
VERTEX
  8
LAYER_1
 62
     7
  6
CONTINUOUS
 10
0.648457
 20
-0.647610
  0
VERTEX
  8
LAYER_1
 62
     7
  6
CONTINUOUS
 10
0.049441
 20
-0.647610
  0
SEQEND
  8
0
  0
POLYLINE
  8
LAYER_1
 62
     7
  6
CONTINUOUS
 66
     1
 40
0.003000
 41
0.003000
 70
     1
  0
VERTEX
  8
LAYER_1
 62
     7
  6
CONTINUOUS
 10
0.077165
 20
1.178705
  0
VERTEX
  8
LAYER_1
 62
     7
  6
CONTINUOUS
 10
0.812791
 20
1.180067
  0
VERTEX
  8
LAYER_1
 62
     7
  6
CONTINUOUS
 10
0.815913
 20
-0.501358
  0
VERTEX
  8
LAYER_1
 62
     7
  6
CONTINUOUS
 10
0.080291
 20
-0.502720
  0
SEQEND
  8
0
  0
TEXT
  8
LAYER_1
 62
     7
 10
0.421882
 20
-0.212079
 40
0.126500
  1
Hitec 555
 50
91.277661
 41
1.000000
  7
SN0
 71
     0
 72
     5
 11
0.407337
 21
0.440394
  0
TEXT
  8
LAYER_1
 62
     7
 10
0.576709
 20
-0.208626
 40
0.126500
  1
0.8 oz
 50
91.277661
 41
1.000000
  7
SN0
 71
     0
 72
     5
 11
0.567374
 21
0.210125
  0
POLYLINE
  8
LAYER_1
 62
     7
  6
CONTINUOUS
 66
     1
 40
0.003000
 41
0.003000
  0
VERTEX
  8
LAYER_1
 62
     7
  6
CONTINUOUS
 10
-2.679902
 20
-7.764858
  0
VERTEX
  8
LAYER_1
 62
     7
  6
CONTINUOUS
 10
-2.679902
 20
24.704555
  0
SEQEND
  8
0
  0
TEXT
  8
LAYER_1
 62
     7
 10
1.574689
 20
3.587173
 40
0.226212
  1
  
 50
90.000660
 41
1.000000
  7
SN1
 71
     0
 72
     5
 11
1.574689
 21
3.739779
  0
POLYLINE
  8
LAYER_1
 62
     7
  6
DASHED
 66
     1
 40
0.003000
 41
0.003000
  0
VERTEX
  8
LAYER_1
 62
     7
  6
DASHED
 10
2.728457
 20
-1.725374
  0
VERTEX
  8
LAYER_1
 62
     7
  6
DASHED
 10
2.586570
 20
-1.698617
  0
VERTEX
  8
LAYER_1
 62
     7
  6
DASHED
 10
2.452565
 20
-1.632590
  0
VERTEX
  8
LAYER_1
 62
     7
  6
DASHED
 10
2.335012
 20
-1.533067
  0
SEQEND
  8
0
  0
POLYLINE
  8
LAYER_1
 62
     7
  6
DASHED
 66
     1
 40
0.003000
 41
0.003000
  0
VERTEX
  8
LAYER_1
 62
     7
  6
DASHED
 10
2.335012
 20
-1.533067
  0
VERTEX
  8
LAYER_1
 62
     7
  6
DASHED
 10
2.240409
 20
-1.403320
  0
VERTEX
  8
LAYER_1
 62
     7
  6
DASHED
 10
2.166988
 20
-1.236612
  0
VERTEX
  8
LAYER_1
 62
     7
  6
DASHED
 10
2.110913
 20
-1.023705
  0
SEQEND
  8
0
  0
POLYLINE
  8
LAYER_1
 62
     7
  6
DASHED
 66
     1
 40
0.003000
 41
0.003000
  0
VERTEX
  8
LAYER_1
 62
     7
  6
DASHED
 10
2.110913
 20
-1.023705
  0
VERTEX
  8
LAYER_1
 62
     7
  6
DASHED
 10
2.084105
 20
-0.868903
  0
VERTEX
  8
LAYER_1
 62
     7
  6
DASHED
 10
2.061919
 20
-0.685909
  0
VERTEX
  8
LAYER_1
 62
     7
  6
DASHED
 10
2.044111
 20
-0.466490
  0
VERTEX
  8
LAYER_1
 62
     7
  6
DASHED
 10
2.030441
 20
-0.202413
  0
VERTEX
  8
LAYER_1
 62
     7
  6
DASHED
 10
2.020665
 20
0.114555
  0
SEQEND
  8
0
  0
POLYLINE
  8
LAYER_1
 62
     7
  6
DASHED
 66
     1
 40
0.003000
 41
0.003000
  0
VERTEX
  8
LAYER_1
 62
     7
  6
DASHED
 10
2.020665
 20
0.114555
  0
VERTEX
  8
LAYER_1
 62
     7
  6
DASHED
 10
2.017674
 20
0.263974
  0
VERTEX
  8
LAYER_1
 62
     7
  6
DASHED
 10
2.015239
 20
0.423293
  0
VERTEX
  8
LAYER_1
 62
     7
  6
DASHED
 10
2.013283
 20
0.591797
  0
VERTEX
  8
LAYER_1
 62
     7
  6
DASHED
 10
2.011728
 20
0.768774
  0
VERTEX
  8
LAYER_1
 62
     7
  6
DASHED
 10
2.010497
 20
0.953512
  0
VERTEX
  8
LAYER_1
 62
     7
  6
DASHED
 10
2.009512
 20
1.145297
  0
VERTEX
  8
LAYER_1
 62
     7
  6
DASHED
 10
2.008696
 20
1.343416
  0
VERTEX
  8
LAYER_1
 62
     7
  6
DASHED
 10
2.007972
 20
1.547158
  0
VERTEX
  8
LAYER_1
 62
     7
  6
DASHED
 10
2.007262
 20
1.755808
  0
VERTEX
  8
LAYER_1
 62
     7
  6
DASHED
 10
2.006488
 20
1.968654
  0
VERTEX
  8
LAYER_1
 62
     7
  6
DASHED
 10
2.005574
 20
2.184983
  0
VERTEX
  8
LAYER_1
 62
     7
  6
DASHED
 10
2.004441
 20
2.404083
  0
SEQEND
  8
0
  0
POLYLINE
  8
LAYER_1
 62
     7
  6
DASHED
 66
     1
 40
0.003000
 41
0.003000
  0
VERTEX
  8
LAYER_1
 62
     7
  6
DASHED
 10
2.004441
 20
2.404083
  0
VERTEX
  8
LAYER_1
 62
     7
  6
DASHED
 10
2.003174
 20
2.608107
  0
VERTEX
  8
LAYER_1
 62
     7
  6
DASHED
 10
2.001827
 20
2.812925
  0
VERTEX
  8
LAYER_1
 62
     7
  6
DASHED
 10
2.000571
 20
3.017580
  0
VERTEX
  8
LAYER_1
 62
     7
  6
DASHED
 10
1.999578
 20
3.221113
  0
VERTEX
  8
LAYER_1
 62
     7
  6
DASHED
 10
1.999020
 20
3.422566
  0
VERTEX
  8
LAYER_1
 62
     7
  6
DASHED
 10
1.999068
 20
3.620981
  0
VERTEX
  8
LAYER_1
 62
     7
  6
DASHED
 10
1.999894
 20
3.815400
  0
VERTEX
  8
LAYER_1
 62
     7
  6
DASHED
 10
2.001669
 20
4.004865
  0
VERTEX
  8
LAYER_1
 62
     7
  6
DASHED
 10
2.004566
 20
4.188418
  0
VERTEX
  8
LAYER_1
 62
     7
  6
DASHED
 10
2.008757
 20
4.365101
  0
VERTEX
  8
LAYER_1
 62
     7
  6
DASHED
 10
2.014412
 20
4.533955
  0
VERTEX
  8
LAYER_1
 62
     7
  6
DASHED
 10
2.021703
 20
4.694023
  0
VERTEX
  8
LAYER_1
 62
     7
  6
DASHED
 10
2.030803
 20
4.844346
  0
SEQEND
  8
0
  0
POLYLINE
  8
LAYER_1
 62
     7
  6
DASHED
 66
     1
 40
0.003000
 41
0.003000
  0
VERTEX
  8
LAYER_1
 62
     7
  6
DASHED
 10
2.030803
 20
4.844346
  0
VERTEX
  8
LAYER_1
 62
     7
  6
DASHED
 10
2.057152
 20
5.134399
  0
VERTEX
  8
LAYER_1
 62
     7
  6
DASHED
 10
2.092176
 20
5.378540
  0
VERTEX
  8
LAYER_1
 62
     7
  6
DASHED
 10
2.135255
 20
5.581102
  0
VERTEX
  8
LAYER_1
 62
     7
  6
DASHED
 10
2.185769
 20
5.746414
  0
VERTEX
  8
LAYER_1
 62
     7
  6
DASHED
 10
2.243098
 20
5.878806
  0
VERTEX
  8
LAYER_1
 62
     7
  6
DASHED
 10
2.306622
 20
5.982610
  0
SEQEND
  8
0
  0
POLYLINE
  8
LAYER_1
 62
     7
  6
DASHED
 66
     1
 40
0.003000
 41
0.003000
  0
VERTEX
  8
LAYER_1
 62
     7
  6
DASHED
 10
2.306622
 20
5.982610
  0
VERTEX
  8
LAYER_1
 62
     7
  6
DASHED
 10
2.449224
 20
6.119867
  0
VERTEX
  8
LAYER_1
 62
     7
  6
DASHED
 10
2.605801
 20
6.183204
  0
VERTEX
  8
LAYER_1
 62
     7
  6
DASHED
 10
2.768012
 20
6.195720
  0
SEQEND
  8
0
  0
POLYLINE
  8
LAYER_1
 62
     7
  6
DASHED
 66
     1
 40
0.003000
 41
0.003000
  0
VERTEX
  8
LAYER_1
 62
     7
  6
DASHED
 10
2.768012
 20
6.195720
  0
VERTEX
  8
LAYER_1
 62
     7
  6
DASHED
 10
2.927886
 20
6.173190
  0
VERTEX
  8
LAYER_1
 62
     7
  6
DASHED
 10
3.078975
 20
6.102156
  0
VERTEX
  8
LAYER_1
 62
     7
  6
DASHED
 10
3.215193
 20
5.961831
  0
SEQEND
  8
0
  0
POLYLINE
  8
LAYER_1
 62
     7
  6
DASHED
 66
     1
 40
0.003000
 41
0.003000
  0
VERTEX
  8
LAYER_1
 62
     7
  6
DASHED
 10
3.215193
 20
5.961831
  0
VERTEX
  8
LAYER_1
 62
     7
  6
DASHED
 10
3.287292
 20
5.835112
  0
VERTEX
  8
LAYER_1
 62
     7
  6
DASHED
 10
3.350778
 20
5.667853
  0
VERTEX
  8
LAYER_1
 62
     7
  6
DASHED
 10
3.404580
 20
5.451945
  0
VERTEX
  8
LAYER_1
 62
     7
  6
DASHED
 10
3.447627
 20
5.179279
  0
VERTEX
  8
LAYER_1
 62
     7
  6
DASHED
 10
3.478846
 20
4.841748
  0
SEQEND
  8
0
  0
POLYLINE
  8
LAYER_1
 62
     7
  6
DASHED
 66
     1
 40
0.003000
 41
0.003000
  0
VERTEX
  8
LAYER_1
 62
     7
  6
DASHED
 10
3.478846
 20
4.841748
  0
VERTEX
  8
LAYER_1
 62
     7
  6
DASHED
 10
3.487510
 20
4.693170
  0
VERTEX
  8
LAYER_1
 62
     7
  6
DASHED
 10
3.494419
 20
4.534713
  0
VERTEX
  8
LAYER_1
 62
     7
  6
DASHED
 10
3.499724
 20
4.367291
  0
VERTEX
  8
LAYER_1
 62
     7
  6
DASHED
 10
3.503579
 20
4.191821
  0
VERTEX
  8
LAYER_1
 62
     7
  6
DASHED
 10
3.506135
 20
4.009219
  0
VERTEX
  8
LAYER_1
 62
     7
  6
DASHED
 10
3.507545
 20
3.820399
  0
VERTEX
  8
LAYER_1
 62
     7
  6
DASHED
 10
3.507961
 20
3.626278
  0
VERTEX
  8
LAYER_1
 62
     7
  6
DASHED
 10
3.507535
 20
3.427770
  0
VERTEX
  8
LAYER_1
 62
     7
  6
DASHED
 10
3.506420
 20
3.225792
  0
VERTEX
  8
LAYER_1
 62
     7
  6
DASHED
 10
3.504767
 20
3.021259
  0
VERTEX
  8
LAYER_1
 62
     7
  6
DASHED
 10
3.502730
 20
2.815086
  0
VERTEX
  8
LAYER_1
 62
     7
  6
DASHED
 10
3.500460
 20
2.608189
  0
VERTEX
  8
LAYER_1
 62
     7
  6
DASHED
 10
3.498110
 20
2.401484
  0
SEQEND
  8
0
  0
POLYLINE
  8
LAYER_1
 62
     7
  6
DASHED
 66
     1
 40
0.003000
 41
0.003000
  0
VERTEX
  8
LAYER_1
 62
     7
  6
DASHED
 10
3.498110
 20
2.401484
  0
VERTEX
  8
LAYER_1
 62
     7
  6
DASHED
 10
3.495612
 20
2.178785
  0
VERTEX
  8
LAYER_1
 62
     7
  6
DASHED
 10
3.493166
 20
1.958250
  0
VERTEX
  8
LAYER_1
 62
     7
  6
DASHED
 10
3.490742
 20
1.740747
  0
VERTEX
  8
LAYER_1
 62
     7
  6
DASHED
 10
3.488307
 20
1.527142
  0
VERTEX
  8
LAYER_1
 62
     7
  6
DASHED
 10
3.485830
 20
1.318300
  0
VERTEX
  8
LAYER_1
 62
     7
  6
DASHED
 10
3.483279
 20
1.115090
  0
VERTEX
  8
LAYER_1
 62
     7
  6
DASHED
 10
3.480621
 20
0.918376
  0
VERTEX
  8
LAYER_1
 62
     7
  6
DASHED
 10
3.477827
 20
0.729025
  0
VERTEX
  8
LAYER_1
 62
     7
  6
DASHED
 10
3.474863
 20
0.547904
  0
VERTEX
  8
LAYER_1
 62
     7
  6
DASHED
 10
3.471698
 20
0.375879
  0
VERTEX
  8
LAYER_1
 62
     7
  6
DASHED
 10
3.468300
 20
0.213816
  0
VERTEX
  8
LAYER_1
 62
     7
  6
DASHED
 10
3.464638
 20
0.062583
  0
SEQEND
  8
0
  0
POLYLINE
  8
LAYER_1
 62
     7
  6
DASHED
 66
     1
 40
0.003000
 41
0.003000
  0
VERTEX
  8
LAYER_1
 62
     7
  6
DASHED
 10
3.464638
 20
0.062583
  0
VERTEX
  8
LAYER_1
 62
     7
  6
DASHED
 10
3.454474
 20
-0.254695
  0
VERTEX
  8
LAYER_1
 62
     7
  6
DASHED
 10
3.441488
 20
-0.514718
  0
VERTEX
  8
LAYER_1
 62
     7
  6
DASHED
 10
3.424560
 20
-0.727589
  0
VERTEX
  8
LAYER_1
 62
     7
  6
DASHED
 10
3.402571
 20
-0.903412
  0
VERTEX
  8
LAYER_1
 62
     7
  6
DASHED
 10
3.374402
 20
-1.052291
  0
SEQEND
  8
0
  0
POLYLINE
  8
LAYER_1
 62
     7
  6
DASHED
 66
     1
 40
0.003000
 41
0.003000
  0
VERTEX
  8
LAYER_1
 62
     7
  6
DASHED
 10
3.374402
 20
-1.052291
  0
VERTEX
  8
LAYER_1
 62
     7
  6
DASHED
 10
3.311564
 20
-1.260963
  0
VERTEX
  8
LAYER_1
 62
     7
  6
DASHED
 10
3.228674
 20
-1.427478
  0
VERTEX
  8
LAYER_1
 62
     7
  6
DASHED
 10
3.125957
 20
-1.556457
  0
SEQEND
  8
0
  0
POLYLINE
  8
LAYER_1
 62
     7
  6
DASHED
 66
     1
 40
0.003000
 41
0.003000
  0
VERTEX
  8
LAYER_1
 62
     7
  6
DASHED
 10
3.125957
 20
-1.556457
  0
VERTEX
  8
LAYER_1
 62
     7
  6
DASHED
 10
3.004651
 20
-1.651073
  0
VERTEX
  8
LAYER_1
 62
     7
  6
DASHED
 10
2.870049
 20
-1.708728
  0
VERTEX
  8
LAYER_1
 62
     7
  6
DASHED
 10
2.728457
 20
-1.725374
  0
SEQEND
  8
0
  0
POLYLINE
  8
LAYER_1
 62
     7
  6
CONTINUOUS
 66
     1
 40
0.011055
 41
0.011055
  0
VERTEX
  8
LAYER_1
 62
     7
  6
CONTINUOUS
 10
-2.684441
 20
-1.325055
  0
VERTEX
  8
LAYER_1
 62
     7
  6
CONTINUOUS
 10
-2.868619
 20
-1.346289
  0
VERTEX
  8
LAYER_1
 62
     7
  6
CONTINUOUS
 10
-3.037728
 20
-1.406768
  0
VERTEX
  8
LAYER_1
 62
     7
  6
CONTINUOUS
 10
-3.186931
 20
-1.501657
  0
VERTEX
  8
LAYER_1
 62
     7
  6
CONTINUOUS
 10
-3.311395
 20
-1.626120
  0
VERTEX
  8
LAYER_1
 62
     7
  6
CONTINUOUS
 10
-3.406283
 20
-1.775323
  0
VERTEX
  8
LAYER_1
 62
     7
  6
CONTINUOUS
 10
-3.466762
 20
-1.944432
  0
VERTEX
  8
LAYER_1
 62
     7
  6
CONTINUOUS
 10
-3.487996
 20
-2.128610
  0
SEQEND
  8
0
  0
POLYLINE
  8
LAYER_1
 62
     7
  6
CONTINUOUS
 66
     1
 40
0.011055
 41
0.011055
  0
VERTEX
  8
LAYER_1
 62
     7
  6
CONTINUOUS
 10
-3.487996
 20
-2.128610
  0
VERTEX
  8
LAYER_1
 62
     7
  6
CONTINUOUS
 10
-3.466762
 20
-2.312787
  0
VERTEX
  8
LAYER_1
 62
     7
  6
CONTINUOUS
 10
-3.406283
 20
-2.481895
  0
VERTEX
  8
LAYER_1
 62
     7
  6
CONTINUOUS
 10
-3.311395
 20
-2.631099
  0
VERTEX
  8
LAYER_1
 62
     7
  6
CONTINUOUS
 10
-3.186931
 20
-2.755563
  0
VERTEX
  8
LAYER_1
 62
     7
  6
CONTINUOUS
 10
-3.037728
 20
-2.850452
  0
VERTEX
  8
LAYER_1
 62
     7
  6
CONTINUOUS
 10
-2.868619
 20
-2.910931
  0
VERTEX
  8
LAYER_1
 62
     7
  6
CONTINUOUS
 10
-2.684441
 20
-2.932165
  0
SEQEND
  8
0
  0
POLYLINE
  8
LAYER_1
 62
     7
  6
CONTINUOUS
 66
     1
 40
0.011055
 41
0.011055
  0
VERTEX
  8
LAYER_1
 62
     7
  6
CONTINUOUS
 10
-2.684441
 20
-2.932165
  0
VERTEX
  8
LAYER_1
 62
     7
  6
CONTINUOUS
 10
-2.500264
 20
-2.910931
  0
VERTEX
  8
LAYER_1
 62
     7
  6
CONTINUOUS
 10
-2.331156
 20
-2.850452
  0
VERTEX
  8
LAYER_1
 62
     7
  6
CONTINUOUS
 10
-2.181952
 20
-2.755563
  0
VERTEX
  8
LAYER_1
 62
     7
  6
CONTINUOUS
 10
-2.057488
 20
-2.631099
  0
VERTEX
  8
LAYER_1
 62
     7
  6
CONTINUOUS
 10
-1.962599
 20
-2.481895
  0
VERTEX
  8
LAYER_1
 62
     7
  6
CONTINUOUS
 10
-1.902120
 20
-2.312787
  0
VERTEX
  8
LAYER_1
 62
     7
  6
CONTINUOUS
 10
-1.880886
 20
-2.128610
  0
SEQEND
  8
0
  0
POLYLINE
  8
LAYER_1
 62
     7
  6
CONTINUOUS
 66
     1
 40
0.011055
 41
0.011055
  0
VERTEX
  8
LAYER_1
 62
     7
  6
CONTINUOUS
 10
-1.880886
 20
-2.128610
  0
VERTEX
  8
LAYER_1
 62
     7
  6
CONTINUOUS
 10
-1.902120
 20
-1.944432
  0
VERTEX
  8
LAYER_1
 62
     7
  6
CONTINUOUS
 10
-1.962599
 20
-1.775323
  0
VERTEX
  8
LAYER_1
 62
     7
  6
CONTINUOUS
 10
-2.057488
 20
-1.626120
  0
VERTEX
  8
LAYER_1
 62
     7
  6
CONTINUOUS
 10
-2.181952
 20
-1.501657
  0
VERTEX
  8
LAYER_1
 62
     7
  6
CONTINUOUS
 10
-2.331156
 20
-1.406768
  0
VERTEX
  8
LAYER_1
 62
     7
  6
CONTINUOUS
 10
-2.500264
 20
-1.346289
  0
VERTEX
  8
LAYER_1
 62
     7
  6
CONTINUOUS
 10
-2.684441
 20
-1.325055
  0
SEQEND
  8
0
  0
POLYLINE
  8
LAYER_1
 62
   253
  6
CONTINUOUS
 66
     1
 40
0.003000
 41
0.003000
 70
     1
  0
VERTEX
  8
LAYER_1
 62
   253
  6
CONTINUOUS
 10
-2.987232
 20
-2.863984
  0
VERTEX
  8
LAYER_1
 62
   253
  6
CONTINUOUS
 10
-2.784583
 20
-2.916858
  0
VERTEX
  8
LAYER_1
 62
   253
  6
CONTINUOUS
 10
-2.581929
 20
-2.919791
  0
VERTEX
  8
LAYER_1
 62
   253
  6
CONTINUOUS
 10
-2.399831
 20
-2.872803
  0
VERTEX
  8
LAYER_1
 62
   253
  6
CONTINUOUS
 10
-2.341094
 20
-2.843429
  0
VERTEX
  8
LAYER_1
 62
   253
  6
CONTINUOUS
 10
-3.040094
 20
-2.840496
  0
SEQEND
  8
0
  0
POLYLINE
  8
LAYER_1
 62
     7
  6
CONTINUOUS
 66
     1
 40
0.003000
 41
0.003000
 70
     1
  0
VERTEX
  8
LAYER_1
 62
     7
  6
CONTINUOUS
 10
-2.987232
 20
-2.863984
  0
VERTEX
  8
LAYER_1
 62
     7
  6
CONTINUOUS
 10
-2.784583
 20
-2.916858
  0
VERTEX
  8
LAYER_1
 62
     7
  6
CONTINUOUS
 10
-2.581929
 20
-2.919791
  0
VERTEX
  8
LAYER_1
 62
     7
  6
CONTINUOUS
 10
-2.399831
 20
-2.872803
  0
VERTEX
  8
LAYER_1
 62
     7
  6
CONTINUOUS
 10
-2.341094
 20
-2.843429
  0
VERTEX
  8
LAYER_1
 62
     7
  6
CONTINUOUS
 10
-3.040094
 20
-2.840496
  0
SEQEND
  8
0
  0
POLYLINE
  8
LAYER_1
 62
   253
  6
CONTINUOUS
 66
     1
 40
0.003000
 41
0.003000
 70
     1
  0
VERTEX
  8
LAYER_1
 62
   253
  6
CONTINUOUS
 10
-2.987232
 20
-1.392555
  0
VERTEX
  8
LAYER_1
 62
   253
  6
CONTINUOUS
 10
-2.784583
 20
-1.339693
  0
VERTEX
  8
LAYER_1
 62
   253
  6
CONTINUOUS
 10
-2.581929
 20
-1.336748
  0
VERTEX
  8
LAYER_1
 62
   253
  6
CONTINUOUS
 10
-2.399831
 20
-1.383748
  0
VERTEX
  8
LAYER_1
 62
   253
  6
CONTINUOUS
 10
-2.335220
 20
-1.421929
  0
VERTEX
  8
LAYER_1
 62
   253
  6
CONTINUOUS
 10
-3.037165
 20
-1.421929
  0
SEQEND
  8
0
  0
POLYLINE
  8
LAYER_1
 62
     7
  6
CONTINUOUS
 66
     1
 40
0.003000
 41
0.003000
 70
     1
  0
VERTEX
  8
LAYER_1
 62
     7
  6
CONTINUOUS
 10
-2.987232
 20
-1.392555
  0
VERTEX
  8
LAYER_1
 62
     7
  6
CONTINUOUS
 10
-2.784583
 20
-1.339693
  0
VERTEX
  8
LAYER_1
 62
     7
  6
CONTINUOUS
 10
-2.581929
 20
-1.336748
  0
VERTEX
  8
LAYER_1
 62
     7
  6
CONTINUOUS
 10
-2.399831
 20
-1.383748
  0
VERTEX
  8
LAYER_1
 62
     7
  6
CONTINUOUS
 10
-2.335220
 20
-1.421929
  0
VERTEX
  8
LAYER_1
 62
     7
  6
CONTINUOUS
 10
-3.037165
 20
-1.421929
  0
SEQEND
  8
0
  0
TEXT
  8
LAYER_1
 62
     7
 10
3.863717
 20
-0.472886
 40
0.099712
  1
15 deg elevator servo horn bias
 50
90.000660
 41
1.000000
  7
SN2
 71
     0
 72
     5
 11
3.863717
 21
1.243123
  0
TEXT
  8
LAYER_1
 62
     7
 10
3.985398
 20
-0.472886
 40
0.099712
  1
gives more upelevator throw
 50
90.000660
 41
1.000000
  7
SN2
 71
     0
 72
     5
 11
3.985398
 21
1.062917
  0
TEXT
  8
LAYER_1
 62
     7
 10
4.107083
 20
-0.472886
 40
0.099712
  1
to allow for spoilertoelevator mix
 50
90.000660
 41
1.000000
  7
SN2
 71
     0
 72
     5
 11
4.107083
 21
1.273969
  0
SOLID
  8
LAYER_1
 62
   137
  6
CONTINUOUS
 10
-2.060563
 20
4.954122
 11
-1.934453
 21
4.954122
 12
-2.060563
 22
5.080232
 13
-1.934453
 23
5.080232
  0
POLYLINE
  8
LAYER_1
 62
   137
  6
CONTINUOUS
 66
     1
 40
0.003000
 41
0.003000
 70
     1
  0
VERTEX
  8
LAYER_1
 62
   137
  6
CONTINUOUS
 10
-2.060563
 20
4.954122
  0
VERTEX
  8
LAYER_1
 62
   137
  6
CONTINUOUS
 10
-1.934453
 20
4.954122
  0
VERTEX
  8
LAYER_1
 62
   137
  6
CONTINUOUS
 10
-1.934453
 20
5.080232
  0
VERTEX
  8
LAYER_1
 62
   137
  6
CONTINUOUS
 10
-2.060563
 20
5.080232
  0
SEQEND
  8
0
  0
POLYLINE
  8
LAYER_1
 62
     7
  6
CONTINUOUS
 66
     1
 40
0.003000
 41
0.003000
 70
     1
  0
VERTEX
  8
LAYER_1
 62
     7
  6
CONTINUOUS
 10
-2.060563
 20
4.954122
  0
VERTEX
  8
LAYER_1
 62
     7
  6
CONTINUOUS
 10
-1.934453
 20
4.954122
  0
VERTEX
  8
LAYER_1
 62
     7
  6
CONTINUOUS
 10
-1.934453
 20
5.080232
  0
VERTEX
  8
LAYER_1
 62
     7
  6
CONTINUOUS
 10
-2.060563
 20
5.080232
  0
SEQEND
  8
0
  0
SOLID
  8
LAYER_1
  6
CONTINUOUS
 10
-2.060551
 20
4.985650
 11
-1.934441
 21
4.985650
 12
-2.060551
 22
5.048705
 13
-1.934441
 23
5.048705
  0
POLYLINE
  8
LAYER_1
  6
CONTINUOUS
 66
     1
 40
0.003000
 41
0.003000
 70
     1
  0
VERTEX
  8
LAYER_1
  6
CONTINUOUS
 10
-2.060551
 20
4.985650
  0
VERTEX
  8
LAYER_1
  6
CONTINUOUS
 10
-1.934441
 20
4.985650
  0
VERTEX
  8
LAYER_1
  6
CONTINUOUS
 10
-1.934441
 20
5.048705
  0
VERTEX
  8
LAYER_1
  6
CONTINUOUS
 10
-2.060551
 20
5.048705
  0
SEQEND
  8
0
  0
POLYLINE
  8
LAYER_1
 62
     7
  6
CONTINUOUS
 66
     1
 40
0.003000
 41
0.003000
 70
     1
  0
VERTEX
  8
LAYER_1
 62
     7
  6
CONTINUOUS
 10
-2.060551
 20
4.985650
  0
VERTEX
  8
LAYER_1
 62
     7
  6
CONTINUOUS
 10
-1.934441
 20
4.985650
  0
VERTEX
  8
LAYER_1
 62
     7
  6
CONTINUOUS
 10
-1.934441
 20
5.048705
  0
VERTEX
  8
LAYER_1
 62
     7
  6
CONTINUOUS
 10
-2.060551
 20
5.048705
  0
SEQEND
  8
0
  0
POLYLINE
  8
LAYER_1
 62
     7
  6
CONTINUOUS
 66
     1
 40
0.011055
 41
0.011055
  0
VERTEX
  8
LAYER_1
 62
     7
  6
CONTINUOUS
 10
-2.060205
 20
4.455776
  0
VERTEX
  8
LAYER_1
 62
     7
  6
CONTINUOUS
 10
-2.060205
 20
5.163748
  0
VERTEX
  8
LAYER_1
 62
     7
  6
CONTINUOUS
 10
-1.932996
 20
5.163748
  0
VERTEX
  8
LAYER_1
 62
     7
  6
CONTINUOUS
 10
-1.932996
 20
4.455776
  0
SEQEND
  8
0
  0
TEXT
  8
LAYER_1
 62
     7
 10
-2.323661
 20
3.309402
 40
0.099712
  1
1/16" brass tube
 50
90.000660
 41
1.000000
  7
SN2
 71
     0
 72
     5
 11
-2.323661
 21
4.199064
  0
TEXT
  8
LAYER_1
 62
     7
 10
-2.201980
 20
3.309402
 40
0.099712
  1
soldered to pushrod
 50
90.000660
 41
1.000000
  7
SN2
 71
     0
 72
     5
 11
-2.201980
 21
4.393880
  0
POLYLINE
  8
LAYER_1
 62
     7
  6
CONTINUOUS
 66
     1
 40
0.003000
 41
0.003000
  0
VERTEX
  8
LAYER_1
 62
     7
  6
CONTINUOUS
 10
-2.299886
 20
4.621220
  0
VERTEX
  8
LAYER_1
 62
     7
  6
CONTINUOUS
 10
-2.299749
 20
4.622330
  0
VERTEX
  8
LAYER_1
 62
     7
  6
CONTINUOUS
 10
-2.298795
 20
4.630097
  0
VERTEX
  8
LAYER_1
 62
     7
  6
CONTINUOUS
 10
-2.296205
 20
4.651177
  0
SEQEND
  8
0
  0
POLYLINE
  8
LAYER_1
 62
     7
  6
CONTINUOUS
 66
     1
 40
0.003000
 41
0.003000
  0
VERTEX
  8
LAYER_1
 62
     7
  6
CONTINUOUS
 10
-2.296205
 20
4.651177
  0
VERTEX
  8
LAYER_1
 62
     7
  6
CONTINUOUS
 10
-2.290687
 20
4.688737
  0
VERTEX
  8
LAYER_1
 62
     7
  6
CONTINUOUS
 10
-2.279128
 20
4.731930
  0
VERTEX
  8
LAYER_1
 62
     7
  6
CONTINUOUS
 10
-2.257941
 20
4.766413
  0
SEQEND
  8
0
  0
POLYLINE
  8
LAYER_1
 62
     7
  6
CONTINUOUS
 66
     1
 40
0.003000
 41
0.003000
  0
VERTEX
  8
LAYER_1
 62
     7
  6
CONTINUOUS
 10
-2.257941
 20
4.766413
  0
VERTEX
  8
LAYER_1
 62
     7
  6
CONTINUOUS
 10
-2.225404
 20
4.782613
  0
VERTEX
  8
LAYER_1
 62
     7
  6
CONTINUOUS
 10
-2.187234
 20
4.790004
  0
VERTEX
  8
LAYER_1
 62
     7
  6
CONTINUOUS
 10
-2.151012
 20
4.802831
  0
SEQEND
  8
0
  0
POLYLINE
  8
LAYER_1
 62
     7
  6
CONTINUOUS
 66
     1
 40
0.003000
 41
0.003000
  0
VERTEX
  8
LAYER_1
 62
     7
  6
CONTINUOUS
 10
-2.151012
 20
4.802831
  0
VERTEX
  8
LAYER_1
 62
     7
  6
CONTINUOUS
 10
-2.122863
 20
4.830928
  0
VERTEX
  8
LAYER_1
 62
     7
  6
CONTINUOUS
 10
-2.103112
 20
4.866605
  0
VERTEX
  8
LAYER_1
 62
     7
  6
CONTINUOUS
 10
-2.090638
 20
4.897776
  0
SEQEND
  8
0
  0
POLYLINE
  8
LAYER_1
 62
     7
  6
CONTINUOUS
 66
     1
 40
0.003000
 41
0.003000
  0
VERTEX
  8
LAYER_1
 62
     7
  6
CONTINUOUS
 10
-2.090638
 20
4.897776
  0
VERTEX
  8
LAYER_1
 62
     7
  6
CONTINUOUS
 10
-2.084147
 20
4.915291
  0
VERTEX
  8
LAYER_1
 62
     7
  6
CONTINUOUS
 10
-2.081755
 20
4.921744
  0
VERTEX
  8
LAYER_1
 62
     7
  6
CONTINUOUS
 10
-2.081413
 20
4.922665
  0
SEQEND
  8
0
  0
SOLID
  8
LAYER_1
 62
   137
  6
CONTINUOUS
 10
-1.691079
 20
4.954122
 11
-1.564969
 21
4.954122
 12
-1.691079
 22
5.080232
 13
-1.564969
 23
5.080232
  0
POLYLINE
  8
LAYER_1
 62
   137
  6
CONTINUOUS
 66
     1
 40
0.003000
 41
0.003000
 70
     1
  0
VERTEX
  8
LAYER_1
 62
   137
  6
CONTINUOUS
 10
-1.691079
 20
4.954122
  0
VERTEX
  8
LAYER_1
 62
   137
  6
CONTINUOUS
 10
-1.564969
 20
4.954122
  0
VERTEX
  8
LAYER_1
 62
   137
  6
CONTINUOUS
 10
-1.564969
 20
5.080232
  0
VERTEX
  8
LAYER_1
 62
   137
  6
CONTINUOUS
 10
-1.691079
 20
5.080232
  0
SEQEND
  8
0
  0
POLYLINE
  8
LAYER_1
 62
     7
  6
CONTINUOUS
 66
     1
 40
0.003000
 41
0.003000
 70
     1
  0
VERTEX
  8
LAYER_1
 62
     7
  6
CONTINUOUS
 10
-1.691079
 20
4.954122
  0
VERTEX
  8
LAYER_1
 62
     7
  6
CONTINUOUS
 10
-1.564969
 20
4.954122
  0
VERTEX
  8
LAYER_1
 62
     7
  6
CONTINUOUS
 10
-1.564969
 20
5.080232
  0
VERTEX
  8
LAYER_1
 62
     7
  6
CONTINUOUS
 10
-1.691079
 20
5.080232
  0
SEQEND
  8
0
  0
SOLID
  8
LAYER_1
  6
CONTINUOUS
 10
-1.691079
 20
4.985650
 11
-1.564969
 21
4.985650
 12
-1.691079
 22
5.048705
 13
-1.564969
 23
5.048705
  0
POLYLINE
  8
LAYER_1
  6
CONTINUOUS
 66
     1
 40
0.003000
 41
0.003000
 70
     1
  0
VERTEX
  8
LAYER_1
  6
CONTINUOUS
 10
-1.691079
 20
4.985650
  0
VERTEX
  8
LAYER_1
  6
CONTINUOUS
 10
-1.564969
 20
4.985650
  0
VERTEX
  8
LAYER_1
  6
CONTINUOUS
 10
-1.564969
 20
5.048705
  0
VERTEX
  8
LAYER_1
  6
CONTINUOUS
 10
-1.691079
 20
5.048705
  0
SEQEND
  8
0
  0
POLYLINE
  8
LAYER_1
 62
     7
  6
CONTINUOUS
 66
     1
 40
0.003000
 41
0.003000
 70
     1
  0
VERTEX
  8
LAYER_1
 62
     7
  6
CONTINUOUS
 10
-1.691079
 20
4.985650
  0
VERTEX
  8
LAYER_1
 62
     7
  6
CONTINUOUS
 10
-1.564969
 20
4.985650
  0
VERTEX
  8
LAYER_1
 62
     7
  6
CONTINUOUS
 10
-1.564969
 20
5.048705
  0
VERTEX
  8
LAYER_1
 62
     7
  6
CONTINUOUS
 10
-1.691079
 20
5.048705
  0
SEQEND
  8
0
  0
SOLID
  8
LAYER_1
 62
     7
  6
CONTINUOUS
 10
-1.690319
 20
6.292984
 11
-1.690319
 21
5.374831
 12
-1.604594
 22
6.292984
 13
-1.604594
 23
5.374831
  0
POLYLINE
  8
LAYER_1
 62
     7
  6
CONTINUOUS
 66
     1
 40
0.003000
 41
0.003000
 70
     1
  0
VERTEX
  8
LAYER_1
 62
     7
  6
CONTINUOUS
 10
-1.690319
 20
6.292984
  0
VERTEX
  8
LAYER_1
 62
     7
  6
CONTINUOUS
 10
-1.690319
 20
5.374831
  0
VERTEX
  8
LAYER_1
 62
     7
  6
CONTINUOUS
 10
-1.604594
 20
5.374831
  0
VERTEX
  8
LAYER_1
 62
     7
  6
CONTINUOUS
 10
-1.604594
 20
6.292984
  0
SEQEND
  8
0
  0
POLYLINE
  8
LAYER_1
 62
     7
  6
CONTINUOUS
 66
     1
 40
0.003000
 41
0.003000
  0
VERTEX
  8
LAYER_1
 62
     7
  6
CONTINUOUS
 10
-1.690319
 20
6.292984
  0
VERTEX
  8
LAYER_1
 62
     7
  6
CONTINUOUS
 10
-1.690319
 20
5.374831
  0
VERTEX
  8
LAYER_1
 62
     7
  6
CONTINUOUS
 10
-1.604594
 20
5.374831
  0
VERTEX
  8
LAYER_1
 62
     7
  6
CONTINUOUS
 10
-1.604594
 20
6.292984
  0
SEQEND
  8
0
  0
POLYLINE
  8
LAYER_1
 62
     7
  6
CONTINUOUS
 66
     1
 40
0.011055
 41
0.011055
  0
VERTEX
  8
LAYER_1
 62
     7
  6
CONTINUOUS
 10
-1.690319
 20
4.456677
  0
VERTEX
  8
LAYER_1
 62
     7
  6
CONTINUOUS
 10
-1.690319
 20
5.164650
  0
VERTEX
  8
LAYER_1
 62
     7
  6
CONTINUOUS
 10
-1.563110
 20
5.164650
  0
VERTEX
  8
LAYER_1
 62
     7
  6
CONTINUOUS
 10
-1.563110
 20
4.456677
  0
SEQEND
  8
0
  0
POLYLINE
  8
LAYER_1
 62
   253
  6
CONTINUOUS
 66
     1
 40
0.003000
 41
0.003000
 70
     1
  0
VERTEX
  8
LAYER_1
 62
   253
  6
CONTINUOUS
 10
-2.028402
 20
6.292984
  0
VERTEX
  8
LAYER_1
 62
   253
  6
CONTINUOUS
 10
-2.028402
 20
6.289595
  0
VERTEX
  8
LAYER_1
 62
   253
  6
CONTINUOUS
 10
-2.028402
 20
6.265873
  0
VERTEX
  8
LAYER_1
 62
   253
  6
CONTINUOUS
 10
-2.028402
 20
6.201484
  0
VERTEX
  8
LAYER_1
 62
   253
  6
CONTINUOUS
 10
-2.028397
 20
6.085361
  0
VERTEX
  8
LAYER_1
 62
   253
  6
CONTINUOUS
 10
-2.028369
 20
5.943425
  0
VERTEX
  8
LAYER_1
 62
   253
  6
CONTINUOUS
 10
-2.028291
 20
5.810858
  0
VERTEX
  8
LAYER_1
 62
   253
  6
CONTINUOUS
 10
-2.028278
 20
5.714969
  0
VERTEX
  8
LAYER_1
 62
   253
  6
CONTINUOUS
 10
-2.029032
 20
5.651549
  0
VERTEX
  8
LAYER_1
 62
   253
  6
CONTINUOUS
 10
-2.031402
 20
5.608512
  0
VERTEX
  8
LAYER_1
 62
   253
  6
CONTINUOUS
 10
-2.036082
 20
5.574932
  0
VERTEX
  8
LAYER_1
 62
   253
  6
CONTINUOUS
 10
-2.043195
 20
5.544526
  0
VERTEX
  8
LAYER_1
 62
   253
  6
CONTINUOUS
 10
-2.052720
 20
5.512177
  0
VERTEX
  8
LAYER_1
 62
   253
  6
CONTINUOUS
 10
-2.064354
 20
5.474391
  0
VERTEX
  8
LAYER_1
 62
   253
  6
CONTINUOUS
 10
-2.076759
 20
5.434197
  0
VERTEX
  8
LAYER_1
 62
   253
  6
CONTINUOUS
 10
-2.088319
 20
5.396264
  0
VERTEX
  8
LAYER_1
 62
   253
  6
CONTINUOUS
 10
-2.097703
 20
5.363167
  0
VERTEX
  8
LAYER_1
 62
   253
  6
CONTINUOUS
 10
-2.104674
 20
5.329255
  0
VERTEX
  8
LAYER_1
 62
   253
  6
CONTINUOUS
 10
-2.109291
 20
5.286791
  0
VERTEX
  8
LAYER_1
 62
   253
  6
CONTINUOUS
 10
-2.111698
 20
5.231230
  0
VERTEX
  8
LAYER_1
 62
   253
  6
CONTINUOUS
 10
-2.112415
 20
5.170807
  0
VERTEX
  8
LAYER_1
 62
   253
  6
CONTINUOUS
 10
-2.112055
 20
5.116941
  0
VERTEX
  8
LAYER_1
 62
   253
  6
CONTINUOUS
 10
-2.111036
 20
5.078389
  0
VERTEX
  8
LAYER_1
 62
   253
  6
CONTINUOUS
 10
-2.108937
 20
5.053313
  0
VERTEX
  8
LAYER_1
 62
   253
  6
CONTINUOUS
 10
-2.105150
 20
5.037205
  0
VERTEX
  8
LAYER_1
 62
   253
  6
CONTINUOUS
 10
-2.099282
 20
5.026089
  0
VERTEX
  8
LAYER_1
 62
   253
  6
CONTINUOUS
 10
-2.091880
 20
5.018198
  0
VERTEX
  8
LAYER_1
 62
   253
  6
CONTINUOUS
 10
-2.083705
 20
5.012303
  0
VERTEX
  8
LAYER_1
 62
   253
  6
CONTINUOUS
 10
-2.074782
 20
5.007392
  0
VERTEX
  8
LAYER_1
 62
   253
  6
CONTINUOUS
 10
-2.062069
 20
5.003242
  0
VERTEX
  8
LAYER_1
 62
   253
  6
CONTINUOUS
 10
-2.041776
 20
4.999858
  0
VERTEX
  8
LAYER_1
 62
   253
  6
CONTINUOUS
 10
-2.012056
 20
4.997151
  0
VERTEX
  8
LAYER_1
 62
   253
  6
CONTINUOUS
 10
-1.978911
 20
4.994591
  0
VERTEX
  8
LAYER_1
 62
   253
  6
CONTINUOUS
 10
-1.950276
 20
4.991567
  0
VERTEX
  8
LAYER_1
 62
   253
  6
CONTINUOUS
 10
-1.932078
 20
4.987598
  0
VERTEX
  8
LAYER_1
 62
   253
  6
CONTINUOUS
 10
-1.922226
 20
4.982709
  0
VERTEX
  8
LAYER_1
 62
   253
  6
CONTINUOUS
 10
-1.916622
 20
4.977055
  0
VERTEX
  8
LAYER_1
 62
   253
  6
CONTINUOUS
 10
-1.911864
 20
4.970735
  0
VERTEX
  8
LAYER_1
 62
   253
  6
CONTINUOUS
 10
-1.907256
 20
4.963702
  0
VERTEX
  8
LAYER_1
 62
   253
  6
CONTINUOUS
 10
-1.902803
 20
4.955846
  0
VERTEX
  8
LAYER_1
 62
   253
  6
CONTINUOUS
 10
-1.898512
 20
4.947280
  0
VERTEX
  8
LAYER_1
 62
   253
  6
CONTINUOUS
 10
-1.894420
 20
4.938913
  0
VERTEX
  8
LAYER_1
 62
   253
  6
CONTINUOUS
 10
-1.890583
 20
4.931874
  0
VERTEX
  8
LAYER_1
 62
   253
  6
CONTINUOUS
 10
-1.887003
 20
4.927055
  0
VERTEX
  8
LAYER_1
 62
   253
  6
CONTINUOUS
 10
-1.883420
 20
4.924335
  0
VERTEX
  8
LAYER_1
 62
   253
  6
CONTINUOUS
 10
-1.879528
 20
4.923358
  0
VERTEX
  8
LAYER_1
 62
   253
  6
CONTINUOUS
 10
-1.875094
 20
4.923713
  0
VERTEX
  8
LAYER_1
 62
   253
  6
CONTINUOUS
 10
-1.870204
 20
4.924840
  0
VERTEX
  8
LAYER_1
 62
   253
  6
CONTINUOUS
 10
-1.865012
 20
4.926122
  0
VERTEX
  8
LAYER_1
 62
   253
  6
CONTINUOUS
 10
-1.859733
 20
4.927138
  0
VERTEX
  8
LAYER_1
 62
   253
  6
CONTINUOUS
 10
-1.854918
 20
4.928255
  0
VERTEX
  8
LAYER_1
 62
   253
  6
CONTINUOUS
 10
-1.851177
 20
4.930039
  0
VERTEX
  8
LAYER_1
 62
   253
  6
CONTINUOUS
 10
-1.849024
 20
4.932984
  0
VERTEX
  8
LAYER_1
 62
   253
  6
CONTINUOUS
 10
-1.848564
 20
4.937309
  0
VERTEX
  8
LAYER_1
 62
   253
  6
CONTINUOUS
 10
-1.849791
 20
4.943177
  0
VERTEX
  8
LAYER_1
 62
   253
  6
CONTINUOUS
 10
-1.852665
 20
4.950642
  0
VERTEX
  8
LAYER_1
 62
   253
  6
CONTINUOUS
 10
-1.856915
 20
4.959441
  0
VERTEX
  8
LAYER_1
 62
   253
  6
CONTINUOUS
 10
-1.862232
 20
4.969220
  0
VERTEX
  8
LAYER_1
 62
   253
  6
CONTINUOUS
 10
-1.868331
 20
4.979554
  0
VERTEX
  8
LAYER_1
 62
   253
  6
CONTINUOUS
 10
-1.874887
 20
4.989835
  0
VERTEX
  8
LAYER_1
 62
   253
  6
CONTINUOUS
 10
-1.881594
 20
4.999402
  0
VERTEX
  8
LAYER_1
 62
   253
  6
CONTINUOUS
 10
-1.888217
 20
5.007688
  0
VERTEX
  8
LAYER_1
 62
   253
  6
CONTINUOUS
 10
-1.894790
 20
5.014543
  0
VERTEX
  8
LAYER_1
 62
   253
  6
CONTINUOUS
 10
-1.901413
 20
5.019913
  0
VERTEX
  8
LAYER_1
 62
   253
  6
CONTINUOUS
 10
-1.908147
 20
5.023826
  0
VERTEX
  8
LAYER_1
 62
   253
  6
CONTINUOUS
 10
-1.914884
 20
5.026610
  0
VERTEX
  8
LAYER_1
 62
   253
  6
CONTINUOUS
 10
-1.921469
 20
5.028677
  0
VERTEX
  8
LAYER_1
 62
   253
  6
CONTINUOUS
 10
-1.928334
 20
5.030397
  0
VERTEX
  8
LAYER_1
 62
   253
  6
CONTINUOUS
 10
-1.938267
 20
5.032020
  0
VERTEX
  8
LAYER_1
 62
   253
  6
CONTINUOUS
 10
-1.954650
 20
5.033748
  0
VERTEX
  8
LAYER_1
 62
   253
  6
CONTINUOUS
 10
-1.979220
 20
5.035722
  0
VERTEX
  8
LAYER_1
 62
   253
  6
CONTINUOUS
 10
-2.007062
 20
5.037904
  0
VERTEX
  8
LAYER_1
 62
   253
  6
CONTINUOUS
 10
-2.031622
 20
5.040193
  0
VERTEX
  8
LAYER_1
 62
   253
  6
CONTINUOUS
 10
-2.047922
 20
5.042523
  0
VERTEX
  8
LAYER_1
 62
   253
  6
CONTINUOUS
 10
-2.057199
 20
5.045009
  0
VERTEX
  8
LAYER_1
 62
   253
  6
CONTINUOUS
 10
-2.062276
 20
5.047803
  0
VERTEX
  8
LAYER_1
 62
   253
  6
CONTINUOUS
 10
-2.065550
 20
5.052435
  0
VERTEX
  8
LAYER_1
 62
   253
  6
CONTINUOUS
 10
-2.067725
 20
5.065950
  0
VERTEX
  8
LAYER_1
 62
   253
  6
CONTINUOUS
 10
-2.069083
 20
5.096776
  0
VERTEX
  8
LAYER_1
 62
   253
  6
CONTINUOUS
 10
-2.069744
 20
5.149462
  0
VERTEX
  8
LAYER_1
 62
   253
  6
CONTINUOUS
 10
-2.069224
 20
5.213056
  0
VERTEX
  8
LAYER_1
 62
   253
  6
CONTINUOUS
 10
-2.066886
 20
5.272732
  0
VERTEX
  8
LAYER_1
 62
   253
  6
CONTINUOUS
 10
-2.062214
 20
5.317567
  0
VERTEX
  8
LAYER_1
 62
   253
  6
CONTINUOUS
 10
-2.055162
 20
5.352235
  0
VERTEX
  8
LAYER_1
 62
   253
  6
CONTINUOUS
 10
-2.045803
 20
5.385319
  0
VERTEX
  8
LAYER_1
 62
   253
  6
CONTINUOUS
 10
-2.034446
 20
5.423176
  0
VERTEX
  8
LAYER_1
 62
   253
  6
CONTINUOUS
 10
-2.022319
 20
5.463367
  0
VERTEX
  8
LAYER_1
 62
   253
  6
CONTINUOUS
 10
-2.010886
 20
5.501232
  0
VERTEX
  8
LAYER_1
 62
   253
  6
CONTINUOUS
 10
-2.001381
 20
5.533790
  0
VERTEX
  8
LAYER_1
 62
   253
  6
CONTINUOUS
 10
-1.994124
 20
5.564812
  0
VERTEX
  8
LAYER_1
 62
   253
  6
CONTINUOUS
 10
-1.989220
 20
5.599748
  0
VERTEX
  8
LAYER_1
 62
   253
  6
CONTINUOUS
 10
-1.986630
 20
5.645045
  0
VERTEX
  8
LAYER_1
 62
   253
  6
CONTINUOUS
 10
-1.985676
 20
5.711056
  0
VERTEX
  8
LAYER_1
 62
   253
  6
CONTINUOUS
 10
-1.985539
 20
5.809122
  0
VERTEX
  8
LAYER_1
 62
   253
  6
CONTINUOUS
 10
-1.985539
 20
5.942910
  0
VERTEX
  8
LAYER_1
 62
   253
  6
CONTINUOUS
 10
-1.985539
 20
6.085297
  0
VERTEX
  8
LAYER_1
 62
   253
  6
CONTINUOUS
 10
-1.985539
 20
6.201484
  0
VERTEX
  8
LAYER_1
 62
   253
  6
CONTINUOUS
 10
-1.985539
 20
6.265873
  0
VERTEX
  8
LAYER_1
 62
   253
  6
CONTINUOUS
 10
-1.985539
 20
6.289595
  0
VERTEX
  8
LAYER_1
 62
   253
  6
CONTINUOUS
 10
-1.985539
 20
6.292984
  0
SEQEND
  8
0
  0
POLYLINE
  8
LAYER_1
 62
     7
  6
CONTINUOUS
 66
     1
 40
0.003000
 41
0.003000
  0
VERTEX
  8
LAYER_1
 62
     7
  6
CONTINUOUS
 10
-2.028402
 20
6.292984
  0
VERTEX
  8
LAYER_1
 62
     7
  6
CONTINUOUS
 10
-2.028402
 20
6.289595
  0
VERTEX
  8
LAYER_1
 62
     7
  6
CONTINUOUS
 10
-2.028402
 20
6.265873
  0
VERTEX
  8
LAYER_1
 62
     7
  6
CONTINUOUS
 10
-2.028402
 20
6.201484
  0
SEQEND
  8
0
  0
POLYLINE
  8
LAYER_1
 62
     7
  6
CONTINUOUS
 66
     1
 40
0.003000
 41
0.003000
  0
VERTEX
  8
LAYER_1
 62
     7
  6
CONTINUOUS
 10
-2.028402
 20
6.201484
  0
VERTEX
  8
LAYER_1
 62
     7
  6
CONTINUOUS
 10
-2.028397
 20
6.085361
  0
VERTEX
  8
LAYER_1
 62
     7
  6
CONTINUOUS
 10
-2.028369
 20
5.943425
  0
VERTEX
  8
LAYER_1
 62
     7
  6
CONTINUOUS
 10
-2.028291
 20
5.810858
  0
SEQEND
  8
0
  0
POLYLINE
  8
LAYER_1
 62
     7
  6
CONTINUOUS
 66
     1
 40
0.003000
 41
0.003000
  0
VERTEX
  8
LAYER_1
 62
     7
  6
CONTINUOUS
 10
-2.028291
 20
5.810858
  0
VERTEX
  8
LAYER_1
 62
     7
  6
CONTINUOUS
 10
-2.028278
 20
5.714969
  0
VERTEX
  8
LAYER_1
 62
     7
  6
CONTINUOUS
 10
-2.029032
 20
5.651549
  0
VERTEX
  8
LAYER_1
 62
     7
  6
CONTINUOUS
 10
-2.031402
 20
5.608512
  0
SEQEND
  8
0
  0
POLYLINE
  8
LAYER_1
 62
     7
  6
CONTINUOUS
 66
     1
 40
0.003000
 41
0.003000
  0
VERTEX
  8
LAYER_1
 62
     7
  6
CONTINUOUS
 10
-2.031402
 20
5.608512
  0
VERTEX
  8
LAYER_1
 62
     7
  6
CONTINUOUS
 10
-2.036082
 20
5.574932
  0
VERTEX
  8
LAYER_1
 62
     7
  6
CONTINUOUS
 10
-2.043195
 20
5.544526
  0
VERTEX
  8
LAYER_1
 62
     7
  6
CONTINUOUS
 10
-2.052720
 20
5.512177
  0
SEQEND
  8
0
  0
POLYLINE
  8
LAYER_1
 62
     7
  6
CONTINUOUS
 66
     1
 40
0.003000
 41
0.003000
  0
VERTEX
  8
LAYER_1
 62
     7
  6
CONTINUOUS
 10
-2.052720
 20
5.512177
  0
VERTEX
  8
LAYER_1
 62
     7
  6
CONTINUOUS
 10
-2.064354
 20
5.474391
  0
VERTEX
  8
LAYER_1
 62
     7
  6
CONTINUOUS
 10
-2.076759
 20
5.434197
  0
VERTEX
  8
LAYER_1
 62
     7
  6
CONTINUOUS
 10
-2.088319
 20
5.396264
  0
SEQEND
  8
0
  0
POLYLINE
  8
LAYER_1
 62
     7
  6
CONTINUOUS
 66
     1
 40
0.003000
 41
0.003000
  0
VERTEX
  8
LAYER_1
 62
     7
  6
CONTINUOUS
 10
-2.088319
 20
5.396264
  0
VERTEX
  8
LAYER_1
 62
     7
  6
CONTINUOUS
 10
-2.097703
 20
5.363167
  0
VERTEX
  8
LAYER_1
 62
     7
  6
CONTINUOUS
 10
-2.104674
 20
5.329255
  0
VERTEX
  8
LAYER_1
 62
     7
  6
CONTINUOUS
 10
-2.109291
 20
5.286791
  0
SEQEND
  8
0
  0
POLYLINE
  8
LAYER_1
 62
     7
  6
CONTINUOUS
 66
     1
 40
0.003000
 41
0.003000
  0
VERTEX
  8
LAYER_1
 62
     7
  6
CONTINUOUS
 10
-2.109291
 20
5.286791
  0
VERTEX
  8
LAYER_1
 62
     7
  6
CONTINUOUS
 10
-2.111698
 20
5.231230
  0
VERTEX
  8
LAYER_1
 62
     7
  6
CONTINUOUS
 10
-2.112415
 20
5.170807
  0
VERTEX
  8
LAYER_1
 62
     7
  6
CONTINUOUS
 10
-2.112055
 20
5.116941
  0
SEQEND
  8
0
  0
POLYLINE
  8
LAYER_1
 62
     7
  6
CONTINUOUS
 66
     1
 40
0.003000
 41
0.003000
  0
VERTEX
  8
LAYER_1
 62
     7
  6
CONTINUOUS
 10
-2.112055
 20
5.116941
  0
VERTEX
  8
LAYER_1
 62
     7
  6
CONTINUOUS
 10
-2.111036
 20
5.078389
  0
VERTEX
  8
LAYER_1
 62
     7
  6
CONTINUOUS
 10
-2.108937
 20
5.053313
  0
VERTEX
  8
LAYER_1
 62
     7
  6
CONTINUOUS
 10
-2.105150
 20
5.037205
  0
SEQEND
  8
0
  0
POLYLINE
  8
LAYER_1
 62
     7
  6
CONTINUOUS
 66
     1
 40
0.003000
 41
0.003000
  0
VERTEX
  8
LAYER_1
 62
     7
  6
CONTINUOUS
 10
-2.105150
 20
5.037205
  0
VERTEX
  8
LAYER_1
 62
     7
  6
CONTINUOUS
 10
-2.099282
 20
5.026089
  0
VERTEX
  8
LAYER_1
 62
     7
  6
CONTINUOUS
 10
-2.091880
 20
5.018198
  0
VERTEX
  8
LAYER_1
 62
     7
  6
CONTINUOUS
 10
-2.083705
 20
5.012303
  0
SEQEND
  8
0
  0
POLYLINE
  8
LAYER_1
 62
     7
  6
CONTINUOUS
 66
     1
 40
0.003000
 41
0.003000
  0
VERTEX
  8
LAYER_1
 62
     7
  6
CONTINUOUS
 10
-2.083705
 20
5.012303
  0
VERTEX
  8
LAYER_1
 62
     7
  6
CONTINUOUS
 10
-2.074782
 20
5.007392
  0
VERTEX
  8
LAYER_1
 62
     7
  6
CONTINUOUS
 10
-2.062069
 20
5.003242
  0
VERTEX
  8
LAYER_1
 62
     7
  6
CONTINUOUS
 10
-2.041776
 20
4.999858
  0
SEQEND
  8
0
  0
POLYLINE
  8
LAYER_1
 62
     7
  6
CONTINUOUS
 66
     1
 40
0.003000
 41
0.003000
  0
VERTEX
  8
LAYER_1
 62
     7
  6
CONTINUOUS
 10
-2.041776
 20
4.999858
  0
VERTEX
  8
LAYER_1
 62
     7
  6
CONTINUOUS
 10
-2.012056
 20
4.997151
  0
VERTEX
  8
LAYER_1
 62
     7
  6
CONTINUOUS
 10
-1.978911
 20
4.994591
  0
VERTEX
  8
LAYER_1
 62
     7
  6
CONTINUOUS
 10
-1.950276
 20
4.991567
  0
SEQEND
  8
0
  0
POLYLINE
  8
LAYER_1
 62
     7
  6
CONTINUOUS
 66
     1
 40
0.003000
 41
0.003000
  0
VERTEX
  8
LAYER_1
 62
     7
  6
CONTINUOUS
 10
-1.950276
 20
4.991567
  0
VERTEX
  8
LAYER_1
 62
     7
  6
CONTINUOUS
 10
-1.932078
 20
4.987598
  0
VERTEX
  8
LAYER_1
 62
     7
  6
CONTINUOUS
 10
-1.922226
 20
4.982709
  0
VERTEX
  8
LAYER_1
 62
     7
  6
CONTINUOUS
 10
-1.916622
 20
4.977055
  0
SEQEND
  8
0
  0
POLYLINE
  8
LAYER_1
 62
     7
  6
CONTINUOUS
 66
     1
 40
0.003000
 41
0.003000
  0
VERTEX
  8
LAYER_1
 62
     7
  6
CONTINUOUS
 10
-1.916622
 20
4.977055
  0
VERTEX
  8
LAYER_1
 62
     7
  6
CONTINUOUS
 10
-1.911864
 20
4.970735
  0
VERTEX
  8
LAYER_1
 62
     7
  6
CONTINUOUS
 10
-1.907256
 20
4.963702
  0
VERTEX
  8
LAYER_1
 62
     7
  6
CONTINUOUS
 10
-1.902803
 20
4.955846
  0
SEQEND
  8
0
  0
POLYLINE
  8
LAYER_1
 62
     7
  6
CONTINUOUS
 66
     1
 40
0.003000
 41
0.003000
  0
VERTEX
  8
LAYER_1
 62
     7
  6
CONTINUOUS
 10
-1.902803
 20
4.955846
  0
VERTEX
  8
LAYER_1
 62
     7
  6
CONTINUOUS
 10
-1.898512
 20
4.947280
  0
VERTEX
  8
LAYER_1
 62
     7
  6
CONTINUOUS
 10
-1.894420
 20
4.938913
  0
VERTEX
  8
LAYER_1
 62
     7
  6
CONTINUOUS
 10
-1.890583
 20
4.931874
  0
SEQEND
  8
0
  0
POLYLINE
  8
LAYER_1
 62
     7
  6
CONTINUOUS
 66
     1
 40
0.003000
 41
0.003000
  0
VERTEX
  8
LAYER_1
 62
     7
  6
CONTINUOUS
 10
-1.890583
 20
4.931874
  0
VERTEX
  8
LAYER_1
 62
     7
  6
CONTINUOUS
 10
-1.887003
 20
4.927055
  0
VERTEX
  8
LAYER_1
 62
     7
  6
CONTINUOUS
 10
-1.883420
 20
4.924335
  0
VERTEX
  8
LAYER_1
 62
     7
  6
CONTINUOUS
 10
-1.879528
 20
4.923358
  0
SEQEND
  8
0
  0
POLYLINE
  8
LAYER_1
 62
     7
  6
CONTINUOUS
 66
     1
 40
0.003000
 41
0.003000
  0
VERTEX
  8
LAYER_1
 62
     7
  6
CONTINUOUS
 10
-1.879528
 20
4.923358
  0
VERTEX
  8
LAYER_1
 62
     7
  6
CONTINUOUS
 10
-1.875094
 20
4.923713
  0
VERTEX
  8
LAYER_1
 62
     7
  6
CONTINUOUS
 10
-1.870204
 20
4.924840
  0
VERTEX
  8
LAYER_1
 62
     7
  6
CONTINUOUS
 10
-1.865012
 20
4.926122
  0
SEQEND
  8
0
  0
POLYLINE
  8
LAYER_1
 62
     7
  6
CONTINUOUS
 66
     1
 40
0.003000
 41
0.003000
  0
VERTEX
  8
LAYER_1
 62
     7
  6
CONTINUOUS
 10
-1.865012
 20
4.926122
  0
VERTEX
  8
LAYER_1
 62
     7
  6
CONTINUOUS
 10
-1.859733
 20
4.927138
  0
VERTEX
  8
LAYER_1
 62
     7
  6
CONTINUOUS
 10
-1.854918
 20
4.928255
  0
VERTEX
  8
LAYER_1
 62
     7
  6
CONTINUOUS
 10
-1.851177
 20
4.930039
  0
SEQEND
  8
0
  0
POLYLINE
  8
LAYER_1
 62
     7
  6
CONTINUOUS
 66
     1
 40
0.003000
 41
0.003000
  0
VERTEX
  8
LAYER_1
 62
     7
  6
CONTINUOUS
 10
-1.851177
 20
4.930039
  0
VERTEX
  8
LAYER_1
 62
     7
  6
CONTINUOUS
 10
-1.849024
 20
4.932984
  0
VERTEX
  8
LAYER_1
 62
     7
  6
CONTINUOUS
 10
-1.848564
 20
4.937309
  0
VERTEX
  8
LAYER_1
 62
     7
  6
CONTINUOUS
 10
-1.849791
 20
4.943177
  0
SEQEND
  8
0
  0
POLYLINE
  8
LAYER_1
 62
     7
  6
CONTINUOUS
 66
     1
 40
0.003000
 41
0.003000
  0
VERTEX
  8
LAYER_1
 62
     7
  6
CONTINUOUS
 10
-1.849791
 20
4.943177
  0
VERTEX
  8
LAYER_1
 62
     7
  6
CONTINUOUS
 10
-1.852665
 20
4.950642
  0
VERTEX
  8
LAYER_1
 62
     7
  6
CONTINUOUS
 10
-1.856915
 20
4.959441
  0
VERTEX
  8
LAYER_1
 62
     7
  6
CONTINUOUS
 10
-1.862232
 20
4.969220
  0
SEQEND
  8
0
  0
POLYLINE
  8
LAYER_1
 62
     7
  6
CONTINUOUS
 66
     1
 40
0.003000
 41
0.003000
  0
VERTEX
  8
LAYER_1
 62
     7
  6
CONTINUOUS
 10
-1.862232
 20
4.969220
  0
VERTEX
  8
LAYER_1
 62
     7
  6
CONTINUOUS
 10
-1.868331
 20
4.979554
  0
VERTEX
  8
LAYER_1
 62
     7
  6
CONTINUOUS
 10
-1.874887
 20
4.989835
  0
VERTEX
  8
LAYER_1
 62
     7
  6
CONTINUOUS
 10
-1.881594
 20
4.999402
  0
SEQEND
  8
0
  0
POLYLINE
  8
LAYER_1
 62
     7
  6
CONTINUOUS
 66
     1
 40
0.003000
 41
0.003000
  0
VERTEX
  8
LAYER_1
 62
     7
  6
CONTINUOUS
 10
-1.881594
 20
4.999402
  0
VERTEX
  8
LAYER_1
 62
     7
  6
CONTINUOUS
 10
-1.888217
 20
5.007688
  0
VERTEX
  8
LAYER_1
 62
     7
  6
CONTINUOUS
 10
-1.894790
 20
5.014543
  0
VERTEX
  8
LAYER_1
 62
     7
  6
CONTINUOUS
 10
-1.901413
 20
5.019913
  0
SEQEND
  8
0
  0
POLYLINE
  8
LAYER_1
 62
     7
  6
CONTINUOUS
 66
     1
 40
0.003000
 41
0.003000
  0
VERTEX
  8
LAYER_1
 62
     7
  6
CONTINUOUS
 10
-1.901413
 20
5.019913
  0
VERTEX
  8
LAYER_1
 62
     7
  6
CONTINUOUS
 10
-1.908147
 20
5.023826
  0
VERTEX
  8
LAYER_1
 62
     7
  6
CONTINUOUS
 10
-1.914884
 20
5.026610
  0
VERTEX
  8
LAYER_1
 62
     7
  6
CONTINUOUS
 10
-1.921469
 20
5.028677
  0
SEQEND
  8
0
  0
POLYLINE
  8
LAYER_1
 62
     7
  6
CONTINUOUS
 66
     1
 40
0.003000
 41
0.003000
  0
VERTEX
  8
LAYER_1
 62
     7
  6
CONTINUOUS
 10
-1.921469
 20
5.028677
  0
VERTEX
  8
LAYER_1
 62
     7
  6
CONTINUOUS
 10
-1.928334
 20
5.030397
  0
VERTEX
  8
LAYER_1
 62
     7
  6
CONTINUOUS
 10
-1.938267
 20
5.032020
  0
VERTEX
  8
LAYER_1
 62
     7
  6
CONTINUOUS
 10
-1.954650
 20
5.033748
  0
SEQEND
  8
0
  0
POLYLINE
  8
LAYER_1
 62
     7
  6
CONTINUOUS
 66
     1
 40
0.003000
 41
0.003000
  0
VERTEX
  8
LAYER_1
 62
     7
  6
CONTINUOUS
 10
-1.954650
 20
5.033748
  0
VERTEX
  8
LAYER_1
 62
     7
  6
CONTINUOUS
 10
-1.979220
 20
5.035722
  0
VERTEX
  8
LAYER_1
 62
     7
  6
CONTINUOUS
 10
-2.007062
 20
5.037904
  0
VERTEX
  8
LAYER_1
 62
     7
  6
CONTINUOUS
 10
-2.031622
 20
5.040193
  0
SEQEND
  8
0
  0
POLYLINE
  8
LAYER_1
 62
     7
  6
CONTINUOUS
 66
     1
 40
0.003000
 41
0.003000
  0
VERTEX
  8
LAYER_1
 62
     7
  6
CONTINUOUS
 10
-2.031622
 20
5.040193
  0
VERTEX
  8
LAYER_1
 62
     7
  6
CONTINUOUS
 10
-2.047922
 20
5.042523
  0
VERTEX
  8
LAYER_1
 62
     7
  6
CONTINUOUS
 10
-2.057199
 20
5.045009
  0
VERTEX
  8
LAYER_1
 62
     7
  6
CONTINUOUS
 10
-2.062276
 20
5.047803
  0
SEQEND
  8
0
  0
POLYLINE
  8
LAYER_1
 62
     7
  6
CONTINUOUS
 66
     1
 40
0.003000
 41
0.003000
  0
VERTEX
  8
LAYER_1
 62
     7
  6
CONTINUOUS
 10
-2.062276
 20
5.047803
  0
VERTEX
  8
LAYER_1
 62
     7
  6
CONTINUOUS
 10
-2.065550
 20
5.052435
  0
VERTEX
  8
LAYER_1
 62
     7
  6
CONTINUOUS
 10
-2.067725
 20
5.065950
  0
VERTEX
  8
LAYER_1
 62
     7
  6
CONTINUOUS
 10
-2.069083
 20
5.096776
  0
SEQEND
  8
0
  0
POLYLINE
  8
LAYER_1
 62
     7
  6
CONTINUOUS
 66
     1
 40
0.003000
 41
0.003000
  0
VERTEX
  8
LAYER_1
 62
     7
  6
CONTINUOUS
 10
-2.069083
 20
5.096776
  0
VERTEX
  8
LAYER_1
 62
     7
  6
CONTINUOUS
 10
-2.069744
 20
5.149462
  0
VERTEX
  8
LAYER_1
 62
     7
  6
CONTINUOUS
 10
-2.069224
 20
5.213056
  0
VERTEX
  8
LAYER_1
 62
     7
  6
CONTINUOUS
 10
-2.066886
 20
5.272732
  0
SEQEND
  8
0
  0
POLYLINE
  8
LAYER_1
 62
     7
  6
CONTINUOUS
 66
     1
 40
0.003000
 41
0.003000
  0
VERTEX
  8
LAYER_1
 62
     7
  6
CONTINUOUS
 10
-2.066886
 20
5.272732
  0
VERTEX
  8
LAYER_1
 62
     7
  6
CONTINUOUS
 10
-2.062214
 20
5.317567
  0
VERTEX
  8
LAYER_1
 62
     7
  6
CONTINUOUS
 10
-2.055162
 20
5.352235
  0
VERTEX
  8
LAYER_1
 62
     7
  6
CONTINUOUS
 10
-2.045803
 20
5.385319
  0
SEQEND
  8
0
  0
POLYLINE
  8
LAYER_1
 62
     7
  6
CONTINUOUS
 66
     1
 40
0.003000
 41
0.003000
  0
VERTEX
  8
LAYER_1
 62
     7
  6
CONTINUOUS
 10
-2.045803
 20
5.385319
  0
VERTEX
  8
LAYER_1
 62
     7
  6
CONTINUOUS
 10
-2.034446
 20
5.423176
  0
VERTEX
  8
LAYER_1
 62
     7
  6
CONTINUOUS
 10
-2.022319
 20
5.463367
  0
VERTEX
  8
LAYER_1
 62
     7
  6
CONTINUOUS
 10
-2.010886
 20
5.501232
  0
SEQEND
  8
0
  0
POLYLINE
  8
LAYER_1
 62
     7
  6
CONTINUOUS
 66
     1
 40
0.003000
 41
0.003000
  0
VERTEX
  8
LAYER_1
 62
     7
  6
CONTINUOUS
 10
-2.010886
 20
5.501232
  0
VERTEX
  8
LAYER_1
 62
     7
  6
CONTINUOUS
 10
-2.001381
 20
5.533790
  0
VERTEX
  8
LAYER_1
 62
     7
  6
CONTINUOUS
 10
-1.994124
 20
5.564812
  0
VERTEX
  8
LAYER_1
 62
     7
  6
CONTINUOUS
 10
-1.989220
 20
5.599748
  0
SEQEND
  8
0
  0
POLYLINE
  8
LAYER_1
 62
     7
  6
CONTINUOUS
 66
     1
 40
0.003000
 41
0.003000
  0
VERTEX
  8
LAYER_1
 62
     7
  6
CONTINUOUS
 10
-1.989220
 20
5.599748
  0
VERTEX
  8
LAYER_1
 62
     7
  6
CONTINUOUS
 10
-1.986630
 20
5.645045
  0
VERTEX
  8
LAYER_1
 62
     7
  6
CONTINUOUS
 10
-1.985676
 20
5.711056
  0
VERTEX
  8
LAYER_1
 62
     7
  6
CONTINUOUS
 10
-1.985539
 20
5.809122
  0
SEQEND
  8
0
  0
POLYLINE
  8
LAYER_1
 62
     7
  6
CONTINUOUS
 66
     1
 40
0.003000
 41
0.003000
  0
VERTEX
  8
LAYER_1
 62
     7
  6
CONTINUOUS
 10
-1.985539
 20
5.809122
  0
VERTEX
  8
LAYER_1
 62
     7
  6
CONTINUOUS
 10
-1.985539
 20
5.942910
  0
VERTEX
  8
LAYER_1
 62
     7
  6
CONTINUOUS
 10
-1.985539
 20
6.085297
  0
VERTEX
  8
LAYER_1
 62
     7
  6
CONTINUOUS
 10
-1.985539
 20
6.201484
  0
SEQEND
  8
0
  0
POLYLINE
  8
LAYER_1
 62
     7
  6
CONTINUOUS
 66
     1
 40
0.003000
 41
0.003000
  0
VERTEX
  8
LAYER_1
 62
     7
  6
CONTINUOUS
 10
-1.985539
 20
6.201484
  0
VERTEX
  8
LAYER_1
 62
     7
  6
CONTINUOUS
 10
-1.985539
 20
6.265873
  0
VERTEX
  8
LAYER_1
 62
     7
  6
CONTINUOUS
 10
-1.985539
 20
6.289595
  0
VERTEX
  8
LAYER_1
 62
     7
  6
CONTINUOUS
 10
-1.985539
 20
6.292984
  0
SEQEND
  8
0
  0
POLYLINE
  8
LAYER_1
 62
   253
  6
CONTINUOUS
 66
     1
 40
0.003000
 41
0.003000
 70
     1
  0
VERTEX
  8
LAYER_1
 62
   253
  6
CONTINUOUS
 10
-1.743555
 20
6.019193
  0
VERTEX
  8
LAYER_1
 62
   253
  6
CONTINUOUS
 10
-1.743555
 20
6.014823
  0
VERTEX
  8
LAYER_1
 62
   253
  6
CONTINUOUS
 10
-1.743555
 20
5.984233
  0
VERTEX
  8
LAYER_1
 62
   253
  6
CONTINUOUS
 10
-1.743555
 20
5.901205
  0
VERTEX
  8
LAYER_1
 62
   253
  6
CONTINUOUS
 10
-1.743555
 20
5.751251
  0
VERTEX
  8
LAYER_1
 62
   253
  6
CONTINUOUS
 10
-1.743555
 20
5.566883
  0
VERTEX
  8
LAYER_1
 62
   253
  6
CONTINUOUS
 10
-1.743555
 20
5.392346
  0
VERTEX
  8
LAYER_1
 62
   253
  6
CONTINUOUS
 10
-1.743529
 20
5.262508
  0
VERTEX
  8
LAYER_1
 62
   253
  6
CONTINUOUS
 10
-1.743349
 20
5.174721
  0
VERTEX
  8
LAYER_1
 62
   253
  6
CONTINUOUS
 10
-1.742858
 20
5.116941
  0
VERTEX
  8
LAYER_1
 62
   253
  6
CONTINUOUS
 10
-1.741835
 20
5.078400
  0
VERTEX
  8
LAYER_1
 62
   253
  6
CONTINUOUS
 10
-1.739736
 20
5.053323
  0
VERTEX
  8
LAYER_1
 62
   253
  6
CONTINUOUS
 10
-1.735941
 20
5.037205
  0
VERTEX
  8
LAYER_1
 62
   253
  6
CONTINUOUS
 10
-1.730084
 20
5.026090
  0
VERTEX
  8
LAYER_1
 62
   253
  6
CONTINUOUS
 10
-1.722686
 20
5.018203
  0
VERTEX
  8
LAYER_1
 62
   253
  6
CONTINUOUS
 10
-1.714512
 20
5.012319
  0
VERTEX
  8
LAYER_1
 62
   253
  6
CONTINUOUS
 10
-1.705588
 20
5.007400
  0
VERTEX
  8
LAYER_1
 62
   253
  6
CONTINUOUS
 10
-1.692871
 20
5.003254
  0
VERTEX
  8
LAYER_1
 62
   253
  6
CONTINUOUS
 10
-1.672567
 20
4.999874
  0
VERTEX
  8
LAYER_1
 62
   253
  6
CONTINUOUS
 10
-1.642858
 20
4.997156
  0
VERTEX
  8
LAYER_1
 62
   253
  6
CONTINUOUS
 10
-1.609718
 20
4.994592
  0
VERTEX
  8
LAYER_1
 62
   253
  6
CONTINUOUS
 10
-1.581083
 20
4.991567
  0
VERTEX
  8
LAYER_1
 62
   253
  6
CONTINUOUS
 10
-1.562885
 20
4.987607
  0
VERTEX
  8
LAYER_1
 62
   253
  6
CONTINUOUS
 10
-1.553033
 20
4.982719
  0
VERTEX
  8
LAYER_1
 62
   253
  6
CONTINUOUS
 10
-1.547429
 20
4.977055
  0
VERTEX
  8
LAYER_1
 62
   253
  6
CONTINUOUS
 10
-1.542670
 20
4.970741
  0
VERTEX
  8
LAYER_1
 62
   253
  6
CONTINUOUS
 10
-1.538063
 20
4.963708
  0
VERTEX
  8
LAYER_1
 62
   253
  6
CONTINUOUS
 10
-1.533610
 20
4.955858
  0
VERTEX
  8
LAYER_1
 62
   253
  6
CONTINUOUS
 10
-1.529311
 20
4.947284
  0
VERTEX
  8
LAYER_1
 62
   253
  6
CONTINUOUS
 10
-1.525223
 20
4.938917
  0
VERTEX
  8
LAYER_1
 62
   253
  6
CONTINUOUS
 10
-1.521386
 20
4.931886
  0
VERTEX
  8
LAYER_1
 62
   253
  6
CONTINUOUS
 10
-1.517803
 20
4.927061
  0
VERTEX
  8
LAYER_1
 62
   253
  6
CONTINUOUS
 10
-1.514218
 20
4.924341
  0
VERTEX
  8
LAYER_1
 62
   253
  6
CONTINUOUS
 10
-1.510331
 20
4.923358
  0
VERTEX
  8
LAYER_1
 62
   253
  6
CONTINUOUS
 10
-1.505898
 20
4.923713
  0
VERTEX
  8
LAYER_1
 62
   253
  6
CONTINUOUS
 10
-1.501005
 20
4.924840
  0
VERTEX
  8
LAYER_1
 62
   253
  6
CONTINUOUS
 10
-1.495803
 20
4.926122
  0
VERTEX
  8
LAYER_1
 62
   253
  6
CONTINUOUS
 10
-1.490532
 20
4.927138
  0
VERTEX
  8
LAYER_1
 62
   253
  6
CONTINUOUS
 10
-1.485717
 20
4.928255
  0
VERTEX
  8
LAYER_1
 62
   253
  6
CONTINUOUS
 10
-1.481984
 20
4.930039
  0
VERTEX
  8
LAYER_1
 62
   253
  6
CONTINUOUS
 10
-1.479831
 20
4.932986
  0
VERTEX
  8
LAYER_1
 62
   253
  6
CONTINUOUS
 10
-1.479369
 20
4.937314
  0
VERTEX
  8
LAYER_1
 62
   253
  6
CONTINUOUS
 10
-1.480594
 20
4.943177
  0
VERTEX
  8
LAYER_1
 62
   253
  6
CONTINUOUS
 10
-1.483466
 20
4.950646
  0
VERTEX
  8
LAYER_1
 62
   253
  6
CONTINUOUS
 10
-1.487714
 20
4.959448
  0
VERTEX
  8
LAYER_1
 62
   253
  6
CONTINUOUS
 10
-1.493039
 20
4.969220
  0
VERTEX
  8
LAYER_1
 62
   253
  6
CONTINUOUS
 10
-1.499136
 20
4.979557
  0
VERTEX
  8
LAYER_1
 62
   253
  6
CONTINUOUS
 10
-1.505693
 20
4.989845
  0
VERTEX
  8
LAYER_1
 62
   253
  6
CONTINUOUS
 10
-1.512402
 20
4.999413
  0
VERTEX
  8
LAYER_1
 62
   253
  6
CONTINUOUS
 10
-1.519024
 20
5.007702
  0
VERTEX
  8
LAYER_1
 62
   253
  6
CONTINUOUS
 10
-1.525598
 20
5.014554
  0
VERTEX
  8
LAYER_1
 62
   253
  6
CONTINUOUS
 10
-1.532220
 20
5.019913
  0
VERTEX
  8
LAYER_1
 62
   253
  6
CONTINUOUS
 10
-1.538955
 20
5.023826
  0
VERTEX
  8
LAYER_1
 62
   253
  6
CONTINUOUS
 10
-1.545691
 20
5.026610
  0
VERTEX
  8
LAYER_1
 62
   253
  6
CONTINUOUS
 10
-1.552276
 20
5.028677
  0
VERTEX
  8
LAYER_1
 62
   253
  6
CONTINUOUS
 10
-1.559134
 20
5.030404
  0
VERTEX
  8
LAYER_1
 62
   253
  6
CONTINUOUS
 10
-1.569070
 20
5.032024
  0
VERTEX
  8
LAYER_1
 62
   253
  6
CONTINUOUS
 10
-1.585457
 20
5.033748
  0
VERTEX
  8
LAYER_1
 62
   253
  6
CONTINUOUS
 10
-1.610021
 20
5.035731
  0
VERTEX
  8
LAYER_1
 62
   253
  6
CONTINUOUS
 10
-1.637865
 20
5.037917
  0
VERTEX
  8
LAYER_1
 62
   253
  6
CONTINUOUS
 10
-1.662429
 20
5.040205
  0
VERTEX
  8
LAYER_1
 62
   253
  6
CONTINUOUS
 10
-1.678727
 20
5.042537
  0
VERTEX
  8
LAYER_1
 62
   253
  6
CONTINUOUS
 10
-1.688005
 20
5.045020
  0
VERTEX
  8
LAYER_1
 62
   253
  6
CONTINUOUS
 10
-1.693083
 20
5.047803
  0
VERTEX
  8
LAYER_1
 62
   253
  6
CONTINUOUS
 10
-1.696359
 20
5.052440
  0
VERTEX
  8
LAYER_1
 62
   253
  6
CONTINUOUS
 10
-1.698564
 20
5.065987
  0
VERTEX
  8
LAYER_1
 62
   253
  6
CONTINUOUS
 10
-1.700000
 20
5.096902
  0
VERTEX
  8
LAYER_1
 62
   253
  6
CONTINUOUS
 10
-1.700928
 20
5.153701
  0
VERTEX
  8
LAYER_1
 62
   253
  6
CONTINUOUS
 10
-1.701448
 20
5.245275
  0
VERTEX
  8
LAYER_1
 62
   253
  6
CONTINUOUS
 10
-1.701610
 20
5.380594
  0
VERTEX
  8
LAYER_1
 62
   253
  6
CONTINUOUS
 10
-1.701482
 20
5.559756
  0
VERTEX
  8
LAYER_1
 62
   253
  6
CONTINUOUS
 10
-1.701199
 20
5.747472
  0
VERTEX
  8
LAYER_1
 62
   253
  6
CONTINUOUS
 10
-1.700913
 20
5.899594
  0
VERTEX
  8
LAYER_1
 62
   253
  6
CONTINUOUS
 10
-1.700758
 20
5.983756
  0
VERTEX
  8
LAYER_1
 62
   253
  6
CONTINUOUS
 10
-1.700701
 20
6.014763
  0
VERTEX
  8
LAYER_1
 62
   253
  6
CONTINUOUS
 10
-1.700693
 20
6.019193
  0
SEQEND
  8
0
  0
POLYLINE
  8
LAYER_1
 62
     7
  6
CONTINUOUS
 66
     1
 40
0.003000
 41
0.003000
  0
VERTEX
  8
LAYER_1
 62
     7
  6
CONTINUOUS
 10
-1.743555
 20
6.019193
  0
VERTEX
  8
LAYER_1
 62
     7
  6
CONTINUOUS
 10
-1.743555
 20
6.014823
  0
VERTEX
  8
LAYER_1
 62
     7
  6
CONTINUOUS
 10
-1.743555
 20
5.984233
  0
VERTEX
  8
LAYER_1
 62
     7
  6
CONTINUOUS
 10
-1.743555
 20
5.901205
  0
SEQEND
  8
0
  0
POLYLINE
  8
LAYER_1
 62
     7
  6
CONTINUOUS
 66
     1
 40
0.003000
 41
0.003000
  0
VERTEX
  8
LAYER_1
 62
     7
  6
CONTINUOUS
 10
-1.743555
 20
5.901205
  0
VERTEX
  8
LAYER_1
 62
     7
  6
CONTINUOUS
 10
-1.743555
 20
5.751251
  0
VERTEX
  8
LAYER_1
 62
     7
  6
CONTINUOUS
 10
-1.743555
 20
5.566883
  0
VERTEX
  8
LAYER_1
 62
     7
  6
CONTINUOUS
 10
-1.743555
 20
5.392346
  0
SEQEND
  8
0
  0
POLYLINE
  8
LAYER_1
 62
     7
  6
CONTINUOUS
 66
     1
 40
0.003000
 41
0.003000
  0
VERTEX
  8
LAYER_1
 62
     7
  6
CONTINUOUS
 10
-1.743555
 20
5.392346
  0
VERTEX
  8
LAYER_1
 62
     7
  6
CONTINUOUS
 10
-1.743529
 20
5.262508
  0
VERTEX
  8
LAYER_1
 62
     7
  6
CONTINUOUS
 10
-1.743349
 20
5.174721
  0
VERTEX
  8
LAYER_1
 62
     7
  6
CONTINUOUS
 10
-1.742858
 20
5.116941
  0
SEQEND
  8
0
  0
POLYLINE
  8
LAYER_1
 62
     7
  6
CONTINUOUS
 66
     1
 40
0.003000
 41
0.003000
  0
VERTEX
  8
LAYER_1
 62
     7
  6
CONTINUOUS
 10
-1.742858
 20
5.116941
  0
VERTEX
  8
LAYER_1
 62
     7
  6
CONTINUOUS
 10
-1.741835
 20
5.078400
  0
VERTEX
  8
LAYER_1
 62
     7
  6
CONTINUOUS
 10
-1.739736
 20
5.053323
  0
VERTEX
  8
LAYER_1
 62
     7
  6
CONTINUOUS
 10
-1.735941
 20
5.037205
  0
SEQEND
  8
0
  0
POLYLINE
  8
LAYER_1
 62
     7
  6
CONTINUOUS
 66
     1
 40
0.003000
 41
0.003000
  0
VERTEX
  8
LAYER_1
 62
     7
  6
CONTINUOUS
 10
-1.735941
 20
5.037205
  0
VERTEX
  8
LAYER_1
 62
     7
  6
CONTINUOUS
 10
-1.730084
 20
5.026090
  0
VERTEX
  8
LAYER_1
 62
     7
  6
CONTINUOUS
 10
-1.722686
 20
5.018203
  0
VERTEX
  8
LAYER_1
 62
     7
  6
CONTINUOUS
 10
-1.714512
 20
5.012319
  0
SEQEND
  8
0
  0
POLYLINE
  8
LAYER_1
 62
     7
  6
CONTINUOUS
 66
     1
 40
0.003000
 41
0.003000
  0
VERTEX
  8
LAYER_1
 62
     7
  6
CONTINUOUS
 10
-1.714512
 20
5.012319
  0
VERTEX
  8
LAYER_1
 62
     7
  6
CONTINUOUS
 10
-1.705588
 20
5.007400
  0
VERTEX
  8
LAYER_1
 62
     7
  6
CONTINUOUS
 10
-1.692871
 20
5.003254
  0
VERTEX
  8
LAYER_1
 62
     7
  6
CONTINUOUS
 10
-1.672567
 20
4.999874
  0
SEQEND
  8
0
  0
POLYLINE
  8
LAYER_1
 62
     7
  6
CONTINUOUS
 66
     1
 40
0.003000
 41
0.003000
  0
VERTEX
  8
LAYER_1
 62
     7
  6
CONTINUOUS
 10
-1.672567
 20
4.999874
  0
VERTEX
  8
LAYER_1
 62
     7
  6
CONTINUOUS
 10
-1.642858
 20
4.997156
  0
VERTEX
  8
LAYER_1
 62
     7
  6
CONTINUOUS
 10
-1.609718
 20
4.994592
  0
VERTEX
  8
LAYER_1
 62
     7
  6
CONTINUOUS
 10
-1.581083
 20
4.991567
  0
SEQEND
  8
0
  0
POLYLINE
  8
LAYER_1
 62
     7
  6
CONTINUOUS
 66
     1
 40
0.003000
 41
0.003000
  0
VERTEX
  8
LAYER_1
 62
     7
  6
CONTINUOUS
 10
-1.581083
 20
4.991567
  0
VERTEX
  8
LAYER_1
 62
     7
  6
CONTINUOUS
 10
-1.562885
 20
4.987607
  0
VERTEX
  8
LAYER_1
 62
     7
  6
CONTINUOUS
 10
-1.553033
 20
4.982719
  0
VERTEX
  8
LAYER_1
 62
     7
  6
CONTINUOUS
 10
-1.547429
 20
4.977055
  0
SEQEND
  8
0
  0
POLYLINE
  8
LAYER_1
 62
     7
  6
CONTINUOUS
 66
     1
 40
0.003000
 41
0.003000
  0
VERTEX
  8
LAYER_1
 62
     7
  6
CONTINUOUS
 10
-1.547429
 20
4.977055
  0
VERTEX
  8
LAYER_1
 62
     7
  6
CONTINUOUS
 10
-1.542670
 20
4.970741
  0
VERTEX
  8
LAYER_1
 62
     7
  6
CONTINUOUS
 10
-1.538063
 20
4.963708
  0
VERTEX
  8
LAYER_1
 62
     7
  6
CONTINUOUS
 10
-1.533610
 20
4.955858
  0
SEQEND
  8
0
  0
POLYLINE
  8
LAYER_1
 62
     7
  6
CONTINUOUS
 66
     1
 40
0.003000
 41
0.003000
  0
VERTEX
  8
LAYER_1
 62
     7
  6
CONTINUOUS
 10
-1.533610
 20
4.955858
  0
VERTEX
  8
LAYER_1
 62
     7
  6
CONTINUOUS
 10
-1.529311
 20
4.947284
  0
VERTEX
  8
LAYER_1
 62
     7
  6
CONTINUOUS
 10
-1.525223
 20
4.938917
  0
VERTEX
  8
LAYER_1
 62
     7
  6
CONTINUOUS
 10
-1.521386
 20
4.931886
  0
SEQEND
  8
0
  0
POLYLINE
  8
LAYER_1
 62
     7
  6
CONTINUOUS
 66
     1
 40
0.003000
 41
0.003000
  0
VERTEX
  8
LAYER_1
 62
     7
  6
CONTINUOUS
 10
-1.521386
 20
4.931886
  0
VERTEX
  8
LAYER_1
 62
     7
  6
CONTINUOUS
 10
-1.517803
 20
4.927061
  0
VERTEX
  8
LAYER_1
 62
     7
  6
CONTINUOUS
 10
-1.514218
 20
4.924341
  0
VERTEX
  8
LAYER_1
 62
     7
  6
CONTINUOUS
 10
-1.510331
 20
4.923358
  0
SEQEND
  8
0
  0
POLYLINE
  8
LAYER_1
 62
     7
  6
CONTINUOUS
 66
     1
 40
0.003000
 41
0.003000
  0
VERTEX
  8
LAYER_1
 62
     7
  6
CONTINUOUS
 10
-1.510331
 20
4.923358
  0
VERTEX
  8
LAYER_1
 62
     7
  6
CONTINUOUS
 10
-1.505898
 20
4.923713
  0
VERTEX
  8
LAYER_1
 62
     7
  6
CONTINUOUS
 10
-1.501005
 20
4.924840
  0
VERTEX
  8
LAYER_1
 62
     7
  6
CONTINUOUS
 10
-1.495803
 20
4.926122
  0
SEQEND
  8
0
  0
POLYLINE
  8
LAYER_1
 62
     7
  6
CONTINUOUS
 66
     1
 40
0.003000
 41
0.003000
  0
VERTEX
  8
LAYER_1
 62
     7
  6
CONTINUOUS
 10
-1.495803
 20
4.926122
  0
VERTEX
  8
LAYER_1
 62
     7
  6
CONTINUOUS
 10
-1.490532
 20
4.927138
  0
VERTEX
  8
LAYER_1
 62
     7
  6
CONTINUOUS
 10
-1.485717
 20
4.928255
  0
VERTEX
  8
LAYER_1
 62
     7
  6
CONTINUOUS
 10
-1.481984
 20
4.930039
  0
SEQEND
  8
0
  0
POLYLINE
  8
LAYER_1
 62
     7
  6
CONTINUOUS
 66
     1
 40
0.003000
 41
0.003000
  0
VERTEX
  8
LAYER_1
 62
     7
  6
CONTINUOUS
 10
-1.481984
 20
4.930039
  0
VERTEX
  8
LAYER_1
 62
     7
  6
CONTINUOUS
 10
-1.479831
 20
4.932986
  0
VERTEX
  8
LAYER_1
 62
     7
  6
CONTINUOUS
 10
-1.479369
 20
4.937314
  0
VERTEX
  8
LAYER_1
 62
     7
  6
CONTINUOUS
 10
-1.480594
 20
4.943177
  0
SEQEND
  8
0
  0
POLYLINE
  8
LAYER_1
 62
     7
  6
CONTINUOUS
 66
     1
 40
0.003000
 41
0.003000
  0
VERTEX
  8
LAYER_1
 62
     7
  6
CONTINUOUS
 10
-1.480594
 20
4.943177
  0
VERTEX
  8
LAYER_1
 62
     7
  6
CONTINUOUS
 10
-1.483466
 20
4.950646
  0
VERTEX
  8
LAYER_1
 62
     7
  6
CONTINUOUS
 10
-1.487714
 20
4.959448
  0
VERTEX
  8
LAYER_1
 62
     7
  6
CONTINUOUS
 10
-1.493039
 20
4.969220
  0
SEQEND
  8
0
  0
POLYLINE
  8
LAYER_1
 62
     7
  6
CONTINUOUS
 66
     1
 40
0.003000
 41
0.003000
  0
VERTEX
  8
LAYER_1
 62
     7
  6
CONTINUOUS
 10
-1.493039
 20
4.969220
  0
VERTEX
  8
LAYER_1
 62
     7
  6
CONTINUOUS
 10
-1.499136
 20
4.979557
  0
VERTEX
  8
LAYER_1
 62
     7
  6
CONTINUOUS
 10
-1.505693
 20
4.989845
  0
VERTEX
  8
LAYER_1
 62
     7
  6
CONTINUOUS
 10
-1.512402
 20
4.999413
  0
SEQEND
  8
0
  0
POLYLINE
  8
LAYER_1
 62
     7
  6
CONTINUOUS
 66
     1
 40
0.003000
 41
0.003000
  0
VERTEX
  8
LAYER_1
 62
     7
  6
CONTINUOUS
 10
-1.512402
 20
4.999413
  0
VERTEX
  8
LAYER_1
 62
     7
  6
CONTINUOUS
 10
-1.519024
 20
5.007702
  0
VERTEX
  8
LAYER_1
 62
     7
  6
CONTINUOUS
 10
-1.525598
 20
5.014554
  0
VERTEX
  8
LAYER_1
 62
     7
  6
CONTINUOUS
 10
-1.532220
 20
5.019913
  0
SEQEND
  8
0
  0
POLYLINE
  8
LAYER_1
 62
     7
  6
CONTINUOUS
 66
     1
 40
0.003000
 41
0.003000
  0
VERTEX
  8
LAYER_1
 62
     7
  6
CONTINUOUS
 10
-1.532220
 20
5.019913
  0
VERTEX
  8
LAYER_1
 62
     7
  6
CONTINUOUS
 10
-1.538955
 20
5.023826
  0
VERTEX
  8
LAYER_1
 62
     7
  6
CONTINUOUS
 10
-1.545691
 20
5.026610
  0
VERTEX
  8
LAYER_1
 62
     7
  6
CONTINUOUS
 10
-1.552276
 20
5.028677
  0
SEQEND
  8
0
  0
POLYLINE
  8
LAYER_1
 62
     7
  6
CONTINUOUS
 66
     1
 40
0.003000
 41
0.003000
  0
VERTEX
  8
LAYER_1
 62
     7
  6
CONTINUOUS
 10
-1.552276
 20
5.028677
  0
VERTEX
  8
LAYER_1
 62
     7
  6
CONTINUOUS
 10
-1.559134
 20
5.030404
  0
VERTEX
  8
LAYER_1
 62
     7
  6
CONTINUOUS
 10
-1.569070
 20
5.032024
  0
VERTEX
  8
LAYER_1
 62
     7
  6
CONTINUOUS
 10
-1.585457
 20
5.033748
  0
SEQEND
  8
0
  0
POLYLINE
  8
LAYER_1
 62
     7
  6
CONTINUOUS
 66
     1
 40
0.003000
 41
0.003000
  0
VERTEX
  8
LAYER_1
 62
     7
  6
CONTINUOUS
 10
-1.585457
 20
5.033748
  0
VERTEX
  8
LAYER_1
 62
     7
  6
CONTINUOUS
 10
-1.610021
 20
5.035731
  0
VERTEX
  8
LAYER_1
 62
     7
  6
CONTINUOUS
 10
-1.637865
 20
5.037917
  0
VERTEX
  8
LAYER_1
 62
     7
  6
CONTINUOUS
 10
-1.662429
 20
5.040205
  0
SEQEND
  8
0
  0
POLYLINE
  8
LAYER_1
 62
     7
  6
CONTINUOUS
 66
     1
 40
0.003000
 41
0.003000
  0
VERTEX
  8
LAYER_1
 62
     7
  6
CONTINUOUS
 10
-1.662429
 20
5.040205
  0
VERTEX
  8
LAYER_1
 62
     7
  6
CONTINUOUS
 10
-1.678727
 20
5.042537
  0
VERTEX
  8
LAYER_1
 62
     7
  6
CONTINUOUS
 10
-1.688005
 20
5.045020
  0
VERTEX
  8
LAYER_1
 62
     7
  6
CONTINUOUS
 10
-1.693083
 20
5.047803
  0
SEQEND
  8
0
  0
POLYLINE
  8
LAYER_1
 62
     7
  6
CONTINUOUS
 66
     1
 40
0.003000
 41
0.003000
  0
VERTEX
  8
LAYER_1
 62
     7
  6
CONTINUOUS
 10
-1.693083
 20
5.047803
  0
VERTEX
  8
LAYER_1
 62
     7
  6
CONTINUOUS
 10
-1.696359
 20
5.052440
  0
VERTEX
  8
LAYER_1
 62
     7
  6
CONTINUOUS
 10
-1.698564
 20
5.065987
  0
VERTEX
  8
LAYER_1
 62
     7
  6
CONTINUOUS
 10
-1.700000
 20
5.096902
  0
SEQEND
  8
0
  0
POLYLINE
  8
LAYER_1
 62
     7
  6
CONTINUOUS
 66
     1
 40
0.003000
 41
0.003000
  0
VERTEX
  8
LAYER_1
 62
     7
  6
CONTINUOUS
 10
-1.700000
 20
5.096902
  0
VERTEX
  8
LAYER_1
 62
     7
  6
CONTINUOUS
 10
-1.700928
 20
5.153701
  0
VERTEX
  8
LAYER_1
 62
     7
  6
CONTINUOUS
 10
-1.701448
 20
5.245275
  0
VERTEX
  8
LAYER_1
 62
     7
  6
CONTINUOUS
 10
-1.701610
 20
5.380594
  0
SEQEND
  8
0
  0
POLYLINE
  8
LAYER_1
 62
     7
  6
CONTINUOUS
 66
     1
 40
0.003000
 41
0.003000
  0
VERTEX
  8
LAYER_1
 62
     7
  6
CONTINUOUS
 10
-1.701610
 20
5.380594
  0
VERTEX
  8
LAYER_1
 62
     7
  6
CONTINUOUS
 10
-1.701482
 20
5.559756
  0
VERTEX
  8
LAYER_1
 62
     7
  6
CONTINUOUS
 10
-1.701199
 20
5.747472
  0
VERTEX
  8
LAYER_1
 62
     7
  6
CONTINUOUS
 10
-1.700913
 20
5.899594
  0
SEQEND
  8
0
  0
POLYLINE
  8
LAYER_1
 62
     7
  6
CONTINUOUS
 66
     1
 40
0.003000
 41
0.003000
  0
VERTEX
  8
LAYER_1
 62
     7
  6
CONTINUOUS
 10
-1.700913
 20
5.899594
  0
VERTEX
  8
LAYER_1
 62
     7
  6
CONTINUOUS
 10
-1.700758
 20
5.983756
  0
VERTEX
  8
LAYER_1
 62
     7
  6
CONTINUOUS
 10
-1.700701
 20
6.014763
  0
VERTEX
  8
LAYER_1
 62
     7
  6
CONTINUOUS
 10
-1.700693
 20
6.019193
  0
SEQEND
  8
0
  0
POLYLINE
  8
LAYER_1
 62
     7
  6
CONTINUOUS
 66
     1
 40
0.011055
 41
0.011055
  0
VERTEX
  8
LAYER_1
 62
     7
  6
CONTINUOUS
 10
-1.760150
 20
5.461941
  0
VERTEX
  8
LAYER_1
 62
     7
  6
CONTINUOUS
 10
-1.592831
 20
5.441205
  0
SEQEND
  8
0
  0
TEXT
  8
LAYER_1
 62
     7
 10
-2.307543
 20
5.239299
 40
0.126500
  1
Sna
 50
90.000660
 41
1.000000
  7
SN1
 71
     0
 72
     5
 11
-2.307543
 21
5.513666
  0
TEXT
  8
LAYER_1
 62
     7
 10
-2.152673
 20
5.239299
 40
0.126500
  1
     2
 50
90.000660
 41
1.000000
  7
SN1
 71
     0
 72
     5
 11
-2.152673
 21
5.536394
  0
TEXT
  8
LAYER_1
 62
     7
 10
0.204417
 20
-1.815094
 40
0.126500
  1
AA NiCd
 50
90.000660
 41
1.000000
  7
SN0
 71
     0
 72
     5
 11
0.204417
 21
-1.224151
  0
TEXT
  8
LAYER_1
 62
     7
 10
0.359287
 20
-1.815094
 40
0.126500
  1
600mAh
 50
90.000660
 41
1.000000
  7
SN0
 71
     0
 72
     5
 11
0.359287
 21
-1.240386
  0
TEXT
  8
LAYER_1
 62
     7
 10
0.514157
 20
-1.815094
 40
0.126500
  1
3.2 oz
 50
90.000660
 41
1.000000
  7
SN0
 71
     0
 72
     5
 11
0.514157
 21
-1.396239
  0
POLYLINE
  8
LAYER_1
 62
     7
  6
CONTINUOUS
 66
     1
 40
0.003000
 41
0.003000
 70
     1
  0
VERTEX
  8
LAYER_1
 62
     7
  6
CONTINUOUS
 10
-3.110276
 20
1.207941
  0
VERTEX
  8
LAYER_1
 62
     7
  6
CONTINUOUS
 10
-3.122833
 20
1.204542
  0
VERTEX
  8
LAYER_1
 62
     7
  6
CONTINUOUS
 10
-3.131765
 20
1.195612
  0
VERTEX
  8
LAYER_1
 62
     7
  6
CONTINUOUS
 10
-3.135165
 20
1.183055
  0
VERTEX
  8
LAYER_1
 62
     7
  6
CONTINUOUS
 10
-3.131765
 20
1.170497
  0
VERTEX
  8
LAYER_1
 62
     7
  6
CONTINUOUS
 10
-3.122833
 20
1.161566
  0
VERTEX
  8
LAYER_1
 62
     7
  6
CONTINUOUS
 10
-3.110276
 20
1.158165
  0
VERTEX
  8
LAYER_1
 62
     7
  6
CONTINUOUS
 10
-3.097718
 20
1.161566
  0
VERTEX
  8
LAYER_1
 62
     7
  6
CONTINUOUS
 10
-3.088786
 20
1.170497
  0
VERTEX
  8
LAYER_1
 62
     7
  6
CONTINUOUS
 10
-3.085386
 20
1.183055
  0
VERTEX
  8
LAYER_1
 62
     7
  6
CONTINUOUS
 10
-3.088786
 20
1.195612
  0
VERTEX
  8
LAYER_1
 62
     7
  6
CONTINUOUS
 10
-3.097718
 20
1.204542
  0
SEQEND
  8
0
  0
POLYLINE
  8
LAYER_1
 62
     7
  6
CONTINUOUS
 66
     1
 40
0.003000
 41
0.003000
  0
VERTEX
  8
LAYER_1
 62
     7
  6
CONTINUOUS
 10
-3.110276
 20
1.207941
  0
VERTEX
  8
LAYER_1
 62
     7
  6
CONTINUOUS
 10
-3.122833
 20
1.204542
  0
VERTEX
  8
LAYER_1
 62
     7
  6
CONTINUOUS
 10
-3.131765
 20
1.195612
  0
VERTEX
  8
LAYER_1
 62
     7
  6
CONTINUOUS
 10
-3.135165
 20
1.183055
  0
SEQEND
  8
0
  0
POLYLINE
  8
LAYER_1
 62
     7
  6
CONTINUOUS
 66
     1
 40
0.003000
 41
0.003000
  0
VERTEX
  8
LAYER_1
 62
     7
  6
CONTINUOUS
 10
-3.135165
 20
1.183055
  0
VERTEX
  8
LAYER_1
 62
     7
  6
CONTINUOUS
 10
-3.131765
 20
1.170497
  0
VERTEX
  8
LAYER_1
 62
     7
  6
CONTINUOUS
 10
-3.122833
 20
1.161566
  0
VERTEX
  8
LAYER_1
 62
     7
  6
CONTINUOUS
 10
-3.110276
 20
1.158165
  0
SEQEND
  8
0
  0
POLYLINE
  8
LAYER_1
 62
     7
  6
CONTINUOUS
 66
     1
 40
0.003000
 41
0.003000
  0
VERTEX
  8
LAYER_1
 62
     7
  6
CONTINUOUS
 10
-3.110276
 20
1.158165
  0
VERTEX
  8
LAYER_1
 62
     7
  6
CONTINUOUS
 10
-3.097718
 20
1.161566
  0
VERTEX
  8
LAYER_1
 62
     7
  6
CONTINUOUS
 10
-3.088786
 20
1.170497
  0
VERTEX
  8
LAYER_1
 62
     7
  6
CONTINUOUS
 10
-3.085386
 20
1.183055
  0
SEQEND
  8
0
  0
POLYLINE
  8
LAYER_1
 62
     7
  6
CONTINUOUS
 66
     1
 40
0.003000
 41
0.003000
  0
VERTEX
  8
LAYER_1
 62
     7
  6
CONTINUOUS
 10
-3.085386
 20
1.183055
  0
VERTEX
  8
LAYER_1
 62
     7
  6
CONTINUOUS
 10
-3.088786
 20
1.195612
  0
VERTEX
  8
LAYER_1
 62
     7
  6
CONTINUOUS
 10
-3.097718
 20
1.204542
  0
VERTEX
  8
LAYER_1
 62
     7
  6
CONTINUOUS
 10
-3.110276
 20
1.207941
  0
SEQEND
  8
0
  0
POLYLINE
  8
LAYER_1
 62
     7
  6
CONTINUOUS
 66
     1
 40
0.011055
 41
0.011055
  0
VERTEX
  8
LAYER_1
 62
     7
  6
CONTINUOUS
 10
-1.594441
 20
1.912220
  0
VERTEX
  8
LAYER_1
 62
     7
  6
CONTINUOUS
 10
-1.608639
 20
2.088002
  0
VERTEX
  8
LAYER_1
 62
     7
  6
CONTINUOUS
 10
-1.649742
 20
2.254781
  0
VERTEX
  8
LAYER_1
 62
     7
  6
CONTINUOUS
 10
-1.715512
 20
2.410320
  0
VERTEX
  8
LAYER_1
 62
     7
  6
CONTINUOUS
 10
-1.803712
 20
2.552380
  0
VERTEX
  8
LAYER_1
 62
     7
  6
CONTINUOUS
 10
-1.912103
 20
2.678724
  0
VERTEX
  8
LAYER_1
 62
     7
  6
CONTINUOUS
 10
-2.038448
 20
2.787115
  0
VERTEX
  8
LAYER_1
 62
     7
  6
CONTINUOUS
 10
-2.180509
 20
2.875314
  0
VERTEX
  8
LAYER_1
 62
     7
  6
CONTINUOUS
 10
-2.336048
 20
2.941084
  0
VERTEX
  8
LAYER_1
 62
     7
  6
CONTINUOUS
 10
-2.502828
 20
2.982188
  0
VERTEX
  8
LAYER_1
 62
     7
  6
CONTINUOUS
 10
-2.678610
 20
2.996386
  0
SEQEND
  8
0
  0
POLYLINE
  8
LAYER_1
 62
     7
  6
CONTINUOUS
 66
     1
 40
0.011055
 41
0.011055
  0
VERTEX
  8
LAYER_1
 62
     7
  6
CONTINUOUS
 10
-2.678610
 20
2.996386
  0
VERTEX
  8
LAYER_1
 62
     7
  6
CONTINUOUS
 10
-2.854392
 20
2.982188
  0
VERTEX
  8
LAYER_1
 62
     7
  6
CONTINUOUS
 10
-3.021171
 20
2.941084
  0
VERTEX
  8
LAYER_1
 62
     7
  6
CONTINUOUS
 10
-3.176709
 20
2.875314
  0
VERTEX
  8
LAYER_1
 62
     7
  6
CONTINUOUS
 10
-3.318770
 20
2.787115
  0
VERTEX
  8
LAYER_1
 62
     7
  6
CONTINUOUS
 10
-3.445114
 20
2.678724
  0
VERTEX
  8
LAYER_1
 62
     7
  6
CONTINUOUS
 10
-3.553505
 20
2.552380
  0
VERTEX
  8
LAYER_1
 62
     7
  6
CONTINUOUS
 10
-3.641704
 20
2.410320
  0
VERTEX
  8
LAYER_1
 62
     7
  6
CONTINUOUS
 10
-3.707474
 20
2.254781
  0
VERTEX
  8
LAYER_1
 62
     7
  6
CONTINUOUS
 10
-3.748577
 20
2.088002
  0
VERTEX
  8
LAYER_1
 62
     7
  6
CONTINUOUS
 10
-3.762776
 20
1.912220
  0
SEQEND
  8
0
  0
POLYLINE
  8
LAYER_1
 62
     7
  6
CONTINUOUS
 66
     1
 40
0.011055
 41
0.011055
  0
VERTEX
  8
LAYER_1
 62
     7
  6
CONTINUOUS
 10
-3.762776
 20
1.912220
  0
VERTEX
  8
LAYER_1
 62
     7
  6
CONTINUOUS
 10
-3.748577
 20
1.736439
  0
VERTEX
  8
LAYER_1
 62
     7
  6
CONTINUOUS
 10
-3.707474
 20
1.569660
  0
VERTEX
  8
LAYER_1
 62
     7
  6
CONTINUOUS
 10
-3.641704
 20
1.414121
  0
VERTEX
  8
LAYER_1
 62
     7
  6
CONTINUOUS
 10
-3.553505
 20
1.272061
  0
VERTEX
  8
LAYER_1
 62
     7
  6
CONTINUOUS
 10
-3.445114
 20
1.145717
  0
VERTEX
  8
LAYER_1
 62
     7
  6
CONTINUOUS
 10
-3.318770
 20
1.037326
  0
VERTEX
  8
LAYER_1
 62
     7
  6
CONTINUOUS
 10
-3.176709
 20
0.949127
  0
VERTEX
  8
LAYER_1
 62
     7
  6
CONTINUOUS
 10
-3.021171
 20
0.883356
  0
VERTEX
  8
LAYER_1
 62
     7
  6
CONTINUOUS
 10
-2.854392
 20
0.842253
  0
VERTEX
  8
LAYER_1
 62
     7
  6
CONTINUOUS
 10
-2.678610
 20
0.828055
  0
SEQEND
  8
0
  0
POLYLINE
  8
LAYER_1
 62
     7
  6
CONTINUOUS
 66
     1
 40
0.011055
 41
0.011055
  0
VERTEX
  8
LAYER_1
 62
     7
  6
CONTINUOUS
 10
-2.678610
 20
0.828055
  0
VERTEX
  8
LAYER_1
 62
     7
  6
CONTINUOUS
 10
-2.502828
 20
0.842253
  0
VERTEX
  8
LAYER_1
 62
     7
  6
CONTINUOUS
 10
-2.336048
 20
0.883356
  0
VERTEX
  8
LAYER_1
 62
     7
  6
CONTINUOUS
 10
-2.180509
 20
0.949127
  0
VERTEX
  8
LAYER_1
 62
     7
  6
CONTINUOUS
 10
-2.038448
 20
1.037326
  0
VERTEX
  8
LAYER_1
 62
     7
  6
CONTINUOUS
 10
-1.912103
 20
1.145717
  0
VERTEX
  8
LAYER_1
 62
     7
  6
CONTINUOUS
 10
-1.803712
 20
1.272061
  0
VERTEX
  8
LAYER_1
 62
     7
  6
CONTINUOUS
 10
-1.715512
 20
1.414121
  0
VERTEX
  8
LAYER_1
 62
     7
  6
CONTINUOUS
 10
-1.649742
 20
1.569660
  0
VERTEX
  8
LAYER_1
 62
     7
  6
CONTINUOUS
 10
-1.608639
 20
1.736439
  0
VERTEX
  8
LAYER_1
 62
     7
  6
CONTINUOUS
 10
-1.594441
 20
1.912220
  0
SEQEND
  8
0
  0
TEXT
  8
LAYER_1
 62
     7
 10
-1.456327
 20
-3.927327
 40
0.226212
  1
BubbleDancer  RES   Fuselage
 50
90.000660
 41
1.000000
  7
SN1
 71
     0
 72
     5
 11
-1.456327
 21
-0.084572
  0
POLYLINE
  8
LAYER_1
 62
     7
  6
CONTINUOUS
 66
     1
 40
0.003000
 41
0.003000
  0
VERTEX
  8
LAYER_1
 62
     7
  6
CONTINUOUS
 10
2.735858
 20
-6.907819
  0
VERTEX
  8
LAYER_1
 62
     7
  6
CONTINUOUS
 10
2.735858
 20
22.679705
  0
SEQEND
  8
0
  0
POLYLINE
  8
LAYER_1
 62
     7
  6
CONTINUOUS
 66
     1
 40
0.003000
 41
0.003000
  0
VERTEX
  8
LAYER_1
 62
     7
  6
CONTINUOUS
 10
3.946941
 20
1.729319
  0
VERTEX
  8
LAYER_1
 62
     7
  6
CONTINUOUS
 10
3.946941
 20
1.956083
  0
VERTEX
  8
LAYER_1
 62
     7
  6
CONTINUOUS
 10
3.537638
 20
2.581094
  0
SEQEND
  8
0
  0
SOLID
  8
LAYER_1
  6
CONTINUOUS
 10
3.575110
 20
2.473402
 11
3.537638
 21
2.581094
 12
3.575110
 22
2.473402
 13
3.621374
 23
2.503705
  0
POLYLINE
  8
LAYER_1
  6
CONTINUOUS
 66
     1
 40
0.003000
 41
0.003000
 70
     1
  0
VERTEX
  8
LAYER_1
  6
CONTINUOUS
 10
3.575110
 20
2.473402
  0
VERTEX
  8
LAYER_1
  6
CONTINUOUS
 10
3.537638
 20
2.581094
  0
VERTEX
  8
LAYER_1
  6
CONTINUOUS
 10
3.621374
 20
2.503705
  0
SEQEND
  8
0
  0
POLYLINE
  8
LAYER_1
 62
     7
  6
CONTINUOUS
 66
     1
 40
0.003000
 41
0.003000
  0
VERTEX
  8
LAYER_1
 62
     7
  6
CONTINUOUS
 10
3.575110
 20
2.473402
  0
VERTEX
  8
LAYER_1
 62
     7
  6
CONTINUOUS
 10
3.537638
 20
2.581094
  0
VERTEX
  8
LAYER_1
 62
     7
  6
CONTINUOUS
 10
3.621374
 20
2.503705
  0
SEQEND
  8
0
  0
POLYLINE
  8
LAYER_1
 62
     7
  6
CONTINUOUS
 66
     1
 40
0.006268
 41
0.006268
 70
     1
  0
VERTEX
  8
LAYER_1
 62
     7
  6
CONTINUOUS
 10
-0.356055
 20
2.115386
  0
VERTEX
  8
LAYER_1
 62
     7
  6
CONTINUOUS
 10
0.821720
 20
2.115386
  0
VERTEX
  8
LAYER_1
 62
     7
  6
CONTINUOUS
 10
0.821720
 20
3.242827
  0
VERTEX
  8
LAYER_1
 62
     7
  6
CONTINUOUS
 10
-0.356055
 20
3.242827
  0
SEQEND
  8
0
  0
POLYLINE
  8
LAYER_1
 62
     7
  6
CONTINUOUS
 66
     1
 40
0.006268
 41
0.006268
 70
     1
  0
VERTEX
  8
LAYER_1
 62
     7
  6
CONTINUOUS
 10
-0.048272
 20
1.927858
  0
VERTEX
  8
LAYER_1
 62
     7
  6
CONTINUOUS
 10
0.030236
 20
1.927858
  0
VERTEX
  8
LAYER_1
 62
     7
  6
CONTINUOUS
 10
0.030236
 20
3.437827
  0
VERTEX
  8
LAYER_1
 62
     7
  6
CONTINUOUS
 10
-0.048272
 20
3.437827
  0
SEQEND
  8
0
  0
POLYLINE
  8
LAYER_1
 62
     7
  6
CONTINUOUS
 66
     1
 40
0.011055
 41
0.011055
  0
VERTEX
  8
LAYER_1
 62
     7
  6
CONTINUOUS
 10
-0.566567
 20
3.017831
  0
VERTEX
  8
LAYER_1
 62
     7
  6
CONTINUOUS
 10
-0.267886
 20
3.017831
  0
SEQEND
  8
0
  0
POLYLINE
  8
LAYER_1
 62
     7
  6
CONTINUOUS
 66
     1
 40
0.006268
 41
0.006268
 70
     1
  0
VERTEX
  8
LAYER_1
 62
     7
  6
CONTINUOUS
 10
-0.538453
 20
2.423122
  0
VERTEX
  8
LAYER_1
 62
     7
  6
CONTINUOUS
 10
-0.457925
 20
2.423122
  0
VERTEX
  8
LAYER_1
 62
     7
  6
CONTINUOUS
 10
-0.457925
 20
3.617827
  0
VERTEX
  8
LAYER_1
 62
     7
  6
CONTINUOUS
 10
-0.538453
 20
3.617827
  0
SEQEND
  8
0
  0
POLYLINE
  8
LAYER_1
 62
     7
  6
CONTINUOUS
 66
     1
 40
0.006268
 41
0.006268
 70
     1
  0
VERTEX
  8
LAYER_1
 62
     7
  6
CONTINUOUS
 10
-0.454512
 20
2.861402
  0
VERTEX
  8
LAYER_1
 62
     7
  6
CONTINUOUS
 10
-0.374429
 20
2.861402
  0
VERTEX
  8
LAYER_1
 62
     7
  6
CONTINUOUS
 10
-0.374429
 20
3.181760
  0
VERTEX
  8
LAYER_1
 62
     7
  6
CONTINUOUS
 10
-0.454512
 20
3.181760
  0
SEQEND
  8
0
  0
TEXT
  8
LAYER_1
 62
     7
 10
0.382815
 20
2.467098
 40
0.126500
  1
JR341
 50
90.000660
 41
1.000000
  7
SN0
 71
     0
 72
     5
 11
0.382815
 21
2.915176
  0
TEXT
  8
LAYER_1
 62
     7
 10
0.537681
 20
2.467098
 40
0.126500
  1
0.63oz
 50
90.000660
 41
1.000000
  7
SN0
 71
     0
 72
     5
 11
0.537681
 21
2.929788
  0
POLYLINE
  8
LAYER_1
 62
     7
  6
CONTINUOUS
 66
     1
 40
0.006268
 41
0.006268
 70
     1
  0
VERTEX
  8
LAYER_1
 62
     7
  6
CONTINUOUS
 10
-3.065764
 20
1.906819
  0
VERTEX
  8
LAYER_1
 62
     7
  6
CONTINUOUS
 10
-1.887988
 20
1.906819
  0
VERTEX
  8
LAYER_1
 62
     7
  6
CONTINUOUS
 10
-1.887988
 20
2.410150
  0
VERTEX
  8
LAYER_1
 62
     7
  6
CONTINUOUS
 10
-3.065764
 20
2.410150
  0
SEQEND
  8
0
  0
POLYLINE
  8
LAYER_1
 62
     7
  6
CONTINUOUS
 66
     1
 40
0.003000
 41
0.003000
  0
VERTEX
  8
LAYER_1
 62
     7
  6
CONTINUOUS
 10
-3.274732
 20
2.160874
  0
VERTEX
  8
LAYER_1
 62
     7
  6
CONTINUOUS
 10
-2.976067
 20
2.160874
  0
SEQEND
  8
0
  0
POLYLINE
  8
LAYER_1
 62
     7
  6
CONTINUOUS
 66
     1
 40
0.006268
 41
0.006268
 70
     1
  0
VERTEX
  8
LAYER_1
 62
     7
  6
CONTINUOUS
 10
-3.246618
 20
1.560874
  0
VERTEX
  8
LAYER_1
 62
     7
  6
CONTINUOUS
 10
-3.166091
 20
1.560874
  0
VERTEX
  8
LAYER_1
 62
     7
  6
CONTINUOUS
 10
-3.166091
 20
2.755579
  0
VERTEX
  8
LAYER_1
 62
     7
  6
CONTINUOUS
 10
-3.246618
 20
2.755579
  0
SEQEND
  8
0
  0
POLYLINE
  8
LAYER_1
 62
     7
  6
CONTINUOUS
 66
     1
 40
0.006268
 41
0.006268
 70
     1
  0
VERTEX
  8
LAYER_1
 62
     7
  6
CONTINUOUS
 10
-3.162665
 20
1.996929
  0
VERTEX
  8
LAYER_1
 62
     7
  6
CONTINUOUS
 10
-3.082583
 20
1.996929
  0
VERTEX
  8
LAYER_1
 62
     7
  6
CONTINUOUS
 10
-3.082583
 20
2.317287
  0
VERTEX
  8
LAYER_1
 62
     7
  6
CONTINUOUS
 10
-3.162665
 20
2.317287
  0
SEQEND
  8
0
  0
POLYLINE
  8
LAYER_1
 62
     7
  6
CONTINUOUS
 66
     1
 40
0.003000
 41
0.003000
  0
VERTEX
  8
LAYER_1
 62
     7
  6
CONTINUOUS
 10
-3.363232
 20
2.593941
  0
VERTEX
  8
LAYER_1
 62
     7
  6
CONTINUOUS
 10
-3.064555
 20
2.593941
  0
SEQEND
  8
0
  0
POLYLINE
  8
LAYER_1
 62
     7
  6
CONTINUOUS
 66
     1
 40
0.006268
 41
0.006268
 70
     1
  0
VERTEX
  8
LAYER_1
 62
     7
  6
CONTINUOUS
 10
-2.758760
 20
1.907177
  0
VERTEX
  8
LAYER_1
 62
     7
  6
CONTINUOUS
 10
-2.679941
 20
1.907177
  0
VERTEX
  8
LAYER_1
 62
     7
  6
CONTINUOUS
 10
-2.679941
 20
2.410496
  0
VERTEX
  8
LAYER_1
 62
     7
  6
CONTINUOUS
 10
-2.758760
 20
2.410496
  0
SEQEND
  8
0
  0
POLYLINE
  8
LAYER_1
 62
     7
  6
CONTINUOUS
 66
     1
 40
0.006268
 41
0.006268
 70
     1
  0
VERTEX
  8
LAYER_1
 62
     7
  6
CONTINUOUS
 10
-3.065764
 20
1.408496
  0
VERTEX
  8
LAYER_1
 62
     7
  6
CONTINUOUS
 10
-1.887988
 20
1.408496
  0
VERTEX
  8
LAYER_1
 62
     7
  6
CONTINUOUS
 10
-1.887988
 20
1.911815
  0
VERTEX
  8
LAYER_1
 62
     7
  6
CONTINUOUS
 10
-3.065764
 20
1.911815
  0
SEQEND
  8
0
  0
POLYLINE
  8
LAYER_1
 62
     7
  6
CONTINUOUS
 66
     1
 40
0.003000
 41
0.003000
  0
VERTEX
  8
LAYER_1
 62
     7
  6
CONTINUOUS
 10
-3.274732
 20
1.657791
  0
VERTEX
  8
LAYER_1
 62
     7
  6
CONTINUOUS
 10
-2.976067
 20
1.657791
  0
SEQEND
  8
0
  0
POLYLINE
  8
LAYER_1
 62
     7
  6
CONTINUOUS
 66
     1
 40
0.006268
 41
0.006268
 70
     1
  0
VERTEX
  8
LAYER_1
 62
     7
  6
CONTINUOUS
 10
-3.246618
 20
1.063067
  0
VERTEX
  8
LAYER_1
 62
     7
  6
CONTINUOUS
 10
-3.166091
 20
1.063067
  0
VERTEX
  8
LAYER_1
 62
     7
  6
CONTINUOUS
 10
-3.166091
 20
2.257772
  0
VERTEX
  8
LAYER_1
 62
     7
  6
CONTINUOUS
 10
-3.246618
 20
2.257772
  0
SEQEND
  8
0
  0
POLYLINE
  8
LAYER_1
 62
     7
  6
CONTINUOUS
 66
     1
 40
0.006268
 41
0.006268
 70
     1
  0
VERTEX
  8
LAYER_1
 62
     7
  6
CONTINUOUS
 10
-3.162665
 20
1.501374
  0
VERTEX
  8
LAYER_1
 62
     7
  6
CONTINUOUS
 10
-3.082583
 20
1.501374
  0
VERTEX
  8
LAYER_1
 62
     7
  6
CONTINUOUS
 10
-3.082583
 20
1.821732
  0
VERTEX
  8
LAYER_1
 62
     7
  6
CONTINUOUS
 10
-3.162665
 20
1.821732
  0
SEQEND
  8
0
  0
POLYLINE
  8
LAYER_1
 62
     7
  6
CONTINUOUS
 66
     1
 40
0.003000
 41
0.003000
  0
VERTEX
  8
LAYER_1
 62
     7
  6
CONTINUOUS
 10
-3.363232
 20
1.224720
  0
VERTEX
  8
LAYER_1
 62
     7
  6
CONTINUOUS
 10
-3.064555
 20
1.224720
  0
SEQEND
  8
0
  0
POLYLINE
  8
LAYER_1
 62
     7
  6
CONTINUOUS
 66
     1
 40
0.006268
 41
0.006268
 70
     1
  0
VERTEX
  8
LAYER_1
 62
     7
  6
CONTINUOUS
 10
-2.758760
 20
1.408150
  0
VERTEX
  8
LAYER_1
 62
     7
  6
CONTINUOUS
 10
-2.679941
 20
1.408150
  0
VERTEX
  8
LAYER_1
 62
     7
  6
CONTINUOUS
 10
-2.679941
 20
1.911480
  0
VERTEX
  8
LAYER_1
 62
     7
  6
CONTINUOUS
 10
-2.758760
 20
1.911480
  0
SEQEND
  8
0
  0
POLYLINE
  8
LAYER_1
 62
     7
  6
CONTINUOUS
 66
     1
 40
0.006268
 41
0.006268
 70
     1
  0
VERTEX
  8
LAYER_1
 62
     7
  6
CONTINUOUS
 10
2.235677
 20
2.120469
  0
VERTEX
  8
LAYER_1
 62
     7
  6
CONTINUOUS
 10
2.733469
 20
2.120469
  0
VERTEX
  8
LAYER_1
 62
     7
  6
CONTINUOUS
 10
2.733469
 20
3.235524
  0
VERTEX
  8
LAYER_1
 62
     7
  6
CONTINUOUS
 10
2.235677
 20
3.235524
  0
SEQEND
  8
0
  0
POLYLINE
  8
LAYER_1
 62
     7
  6
CONTINUOUS
 66
     1
 40
0.006268
 41
0.006268
 70
     1
  0
VERTEX
  8
LAYER_1
 62
     7
  6
CONTINUOUS
 10
2.235677
 20
1.928594
  0
VERTEX
  8
LAYER_1
 62
     7
  6
CONTINUOUS
 10
2.733469
 20
1.928594
  0
VERTEX
  8
LAYER_1
 62
     7
  6
CONTINUOUS
 10
2.733469
 20
2.119413
  0
VERTEX
  8
LAYER_1
 62
     7
  6
CONTINUOUS
 10
2.235677
 20
2.119413
  0
SEQEND
  8
0
  0
POLYLINE
  8
LAYER_1
 62
     7
  6
CONTINUOUS
 66
     1
 40
0.006268
 41
0.006268
 70
     1
  0
VERTEX
  8
LAYER_1
 62
     7
  6
CONTINUOUS
 10
2.235677
 20
3.239457
  0
VERTEX
  8
LAYER_1
 62
     7
  6
CONTINUOUS
 10
2.733469
 20
3.239457
  0
VERTEX
  8
LAYER_1
 62
     7
  6
CONTINUOUS
 10
2.733469
 20
3.430276
  0
VERTEX
  8
LAYER_1
 62
     7
  6
CONTINUOUS
 10
2.235677
 20
3.430276
  0
SEQEND
  8
0
  0
POLYLINE
  8
LAYER_1
 62
     7
  6
CONTINUOUS
 66
     1
 40
0.011055
 41
0.011055
  0
VERTEX
  8
LAYER_1
 62
     7
  6
CONTINUOUS
 10
2.051969
 20
3.021386
  0
VERTEX
  8
LAYER_1
 62
     7
  6
CONTINUOUS
 10
2.111194
 20
2.802606
  0
VERTEX
  8
LAYER_1
 62
     7
  6
CONTINUOUS
 10
2.266773
 20
2.647029
  0
VERTEX
  8
LAYER_1
 62
     7
  6
CONTINUOUS
 10
2.485555
 20
2.587803
  0
SEQEND
  8
0
  0
POLYLINE
  8
LAYER_1
 62
     7
  6
CONTINUOUS
 66
     1
 40
0.011055
 41
0.011055
  0
VERTEX
  8
LAYER_1
 62
     7
  6
CONTINUOUS
 10
2.485555
 20
2.587803
  0
VERTEX
  8
LAYER_1
 62
     7
  6
CONTINUOUS
 10
2.704335
 20
2.647029
  0
VERTEX
  8
LAYER_1
 62
     7
  6
CONTINUOUS
 10
2.859912
 20
2.802606
  0
VERTEX
  8
LAYER_1
 62
     7
  6
CONTINUOUS
 10
2.919138
 20
3.021386
  0
SEQEND
  8
0
  0
POLYLINE
  8
LAYER_1
 62
     7
  6
CONTINUOUS
 66
     1
 40
0.011055
 41
0.011055
  0
VERTEX
  8
LAYER_1
 62
     7
  6
CONTINUOUS
 10
2.919138
 20
3.021386
  0
VERTEX
  8
LAYER_1
 62
     7
  6
CONTINUOUS
 10
2.859912
 20
3.240167
  0
VERTEX
  8
LAYER_1
 62
     7
  6
CONTINUOUS
 10
2.704335
 20
3.395744
  0
VERTEX
  8
LAYER_1
 62
     7
  6
CONTINUOUS
 10
2.485555
 20
3.454969
  0
SEQEND
  8
0
  0
POLYLINE
  8
LAYER_1
 62
     7
  6
CONTINUOUS
 66
     1
 40
0.011055
 41
0.011055
  0
VERTEX
  8
LAYER_1
 62
     7
  6
CONTINUOUS
 10
2.485555
 20
3.454969
  0
VERTEX
  8
LAYER_1
 62
     7
  6
CONTINUOUS
 10
2.266773
 20
3.395744
  0
VERTEX
  8
LAYER_1
 62
     7
  6
CONTINUOUS
 10
2.111194
 20
3.240167
  0
VERTEX
  8
LAYER_1
 62
     7
  6
CONTINUOUS
 10
2.051969
 20
3.021386
  0
SEQEND
  8
0
  0
POLYLINE
  8
LAYER_1
 62
     7
  6
CONTINUOUS
 66
     1
 40
0.011055
 41
0.011055
  0
VERTEX
  8
LAYER_1
 62
     7
  6
CONTINUOUS
 10
2.472539
 20
3.021386
  0
VERTEX
  8
LAYER_1
 62
     7
  6
CONTINUOUS
 10
2.474318
 20
3.014821
  0
VERTEX
  8
LAYER_1
 62
     7
  6
CONTINUOUS
 10
2.478989
 20
3.010152
  0
VERTEX
  8
LAYER_1
 62
     7
  6
CONTINUOUS
 10
2.485555
 20
3.008374
  0
SEQEND
  8
0
  0
POLYLINE
  8
LAYER_1
 62
     7
  6
CONTINUOUS
 66
     1
 40
0.011055
 41
0.011055
  0
VERTEX
  8
LAYER_1
 62
     7
  6
CONTINUOUS
 10
2.485555
 20
3.008374
  0
VERTEX
  8
LAYER_1
 62
     7
  6
CONTINUOUS
 10
2.492118
 20
3.010152
  0
VERTEX
  8
LAYER_1
 62
     7
  6
CONTINUOUS
 10
2.496788
 20
3.014821
  0
VERTEX
  8
LAYER_1
 62
     7
  6
CONTINUOUS
 10
2.498567
 20
3.021386
  0
SEQEND
  8
0
  0
POLYLINE
  8
LAYER_1
 62
     7
  6
CONTINUOUS
 66
     1
 40
0.011055
 41
0.011055
  0
VERTEX
  8
LAYER_1
 62
     7
  6
CONTINUOUS
 10
2.498567
 20
3.021386
  0
VERTEX
  8
LAYER_1
 62
     7
  6
CONTINUOUS
 10
2.496788
 20
3.027952
  0
VERTEX
  8
LAYER_1
 62
     7
  6
CONTINUOUS
 10
2.492118
 20
3.032623
  0
VERTEX
  8
LAYER_1
 62
     7
  6
CONTINUOUS
 10
2.485555
 20
3.034402
  0
SEQEND
  8
0
  0
POLYLINE
  8
LAYER_1
 62
     7
  6
CONTINUOUS
 66
     1
 40
0.011055
 41
0.011055
  0
VERTEX
  8
LAYER_1
 62
     7
  6
CONTINUOUS
 10
2.485555
 20
3.034402
  0
VERTEX
  8
LAYER_1
 62
     7
  6
CONTINUOUS
 10
2.478989
 20
3.032623
  0
VERTEX
  8
LAYER_1
 62
     7
  6
CONTINUOUS
 10
2.474318
 20
3.027952
  0
VERTEX
  8
LAYER_1
 62
     7
  6
CONTINUOUS
 10
2.472539
 20
3.021386
  0
SEQEND
  8
0
  0
POLYLINE
  8
LAYER_1
 62
     7
  6
CONTINUOUS
 66
     1
 40
0.011055
 41
0.011055
  0
VERTEX
  8
LAYER_1
 62
     7
  6
CONTINUOUS
 10
2.486650
 20
3.020984
  0
VERTEX
  8
LAYER_1
 62
     7
  6
CONTINUOUS
 10
1.986094
 20
3.020984
  0
SEQEND
  8
0
  0
POLYLINE
  8
LAYER_1
 62
     7
  6
CONTINUOUS
 66
     1
 40
0.011055
 41
0.011055
  0
VERTEX
  8
LAYER_1
 62
     7
  6
CONTINUOUS
 10
2.485929
 20
3.021650
  0
VERTEX
  8
LAYER_1
 62
     7
  6
CONTINUOUS
 10
2.131984
 20
2.667705
  0
SEQEND
  8
0
  0
POLYLINE
  8
LAYER_1
 62
     7
  6
CONTINUOUS
 66
     1
 40
0.011055
 41
0.011055
  0
VERTEX
  8
LAYER_1
 62
     7
  6
CONTINUOUS
 10
2.485929
 20
3.020303
  0
VERTEX
  8
LAYER_1
 62
     7
  6
CONTINUOUS
 10
2.131984
 20
3.374264
  0
SEQEND
  8
0
  0
POLYLINE
  8
LAYER_1
 62
     7
  6
CONTINUOUS
 66
     1
 40
0.006268
 41
0.006268
 70
     1
  0
VERTEX
  8
LAYER_1
 62
     7
  6
CONTINUOUS
 10
2.735622
 20
2.120469
  0
VERTEX
  8
LAYER_1
 62
     7
  6
CONTINUOUS
 10
3.233413
 20
2.120469
  0
VERTEX
  8
LAYER_1
 62
     7
  6
CONTINUOUS
 10
3.233413
 20
3.235524
  0
VERTEX
  8
LAYER_1
 62
     7
  6
CONTINUOUS
 10
2.735622
 20
3.235524
  0
SEQEND
  8
0
  0
POLYLINE
  8
LAYER_1
 62
     7
  6
CONTINUOUS
 66
     1
 40
0.006268
 41
0.006268
 70
     1
  0
VERTEX
  8
LAYER_1
 62
     7
  6
CONTINUOUS
 10
2.735622
 20
1.928594
  0
VERTEX
  8
LAYER_1
 62
     7
  6
CONTINUOUS
 10
3.233413
 20
1.928594
  0
VERTEX
  8
LAYER_1
 62
     7
  6
CONTINUOUS
 10
3.233413
 20
2.119413
  0
VERTEX
  8
LAYER_1
 62
     7
  6
CONTINUOUS
 10
2.735622
 20
2.119413
  0
SEQEND
  8
0
  0
POLYLINE
  8
LAYER_1
 62
     7
  6
CONTINUOUS
 66
     1
 40
0.006268
 41
0.006268
 70
     1
  0
VERTEX
  8
LAYER_1
 62
     7
  6
CONTINUOUS
 10
2.735622
 20
3.239457
  0
VERTEX
  8
LAYER_1
 62
     7
  6
CONTINUOUS
 10
3.233413
 20
3.239457
  0
VERTEX
  8
LAYER_1
 62
     7
  6
CONTINUOUS
 10
3.233413
 20
3.430276
  0
VERTEX
  8
LAYER_1
 62
     7
  6
CONTINUOUS
 10
2.735622
 20
3.430276
  0
SEQEND
  8
0
  0
POLYLINE
  8
LAYER_1
 62
     7
  6
CONTINUOUS
 66
     1
 40
0.003000
 41
0.003000
  0
VERTEX
  8
LAYER_1
 62
     7
  6
CONTINUOUS
 10
3.417469
 20
3.021386
  0
VERTEX
  8
LAYER_1
 62
     7
  6
CONTINUOUS
 10
3.358244
 20
2.802606
  0
VERTEX
  8
LAYER_1
 62
     7
  6
CONTINUOUS
 10
3.202667
 20
2.647029
  0
VERTEX
  8
LAYER_1
 62
     7
  6
CONTINUOUS
 10
2.983886
 20
2.587803
  0
SEQEND
  8
0
  0
POLYLINE
  8
LAYER_1
 62
     7
  6
CONTINUOUS
 66
     1
 40
0.003000
 41
0.003000
  0
VERTEX
  8
LAYER_1
 62
     7
  6
CONTINUOUS
 10
2.983886
 20
2.587803
  0
VERTEX
  8
LAYER_1
 62
     7
  6
CONTINUOUS
 10
2.765106
 20
2.647029
  0
VERTEX
  8
LAYER_1
 62
     7
  6
CONTINUOUS
 10
2.609529
 20
2.802606
  0
VERTEX
  8
LAYER_1
 62
     7
  6
CONTINUOUS
 10
2.550303
 20
3.021386
  0
SEQEND
  8
0
  0
POLYLINE
  8
LAYER_1
 62
     7
  6
CONTINUOUS
 66
     1
 40
0.003000
 41
0.003000
  0
VERTEX
  8
LAYER_1
 62
     7
  6
CONTINUOUS
 10
2.550303
 20
3.021386
  0
VERTEX
  8
LAYER_1
 62
     7
  6
CONTINUOUS
 10
2.609529
 20
3.240167
  0
VERTEX
  8
LAYER_1
 62
     7
  6
CONTINUOUS
 10
2.765106
 20
3.395744
  0
VERTEX
  8
LAYER_1
 62
     7
  6
CONTINUOUS
 10
2.983886
 20
3.454969
  0
SEQEND
  8
0
  0
POLYLINE
  8
LAYER_1
 62
     7
  6
CONTINUOUS
 66
     1
 40
0.003000
 41
0.003000
  0
VERTEX
  8
LAYER_1
 62
     7
  6
CONTINUOUS
 10
2.983886
 20
3.454969
  0
VERTEX
  8
LAYER_1
 62
     7
  6
CONTINUOUS
 10
3.202667
 20
3.395744
  0
VERTEX
  8
LAYER_1
 62
     7
  6
CONTINUOUS
 10
3.358244
 20
3.240167
  0
VERTEX
  8
LAYER_1
 62
     7
  6
CONTINUOUS
 10
3.417469
 20
3.021386
  0
SEQEND
  8
0
  0
POLYLINE
  8
LAYER_1
 62
     7
  6
CONTINUOUS
 66
     1
 40
0.003000
 41
0.003000
  0
VERTEX
  8
LAYER_1
 62
     7
  6
CONTINUOUS
 10
2.996902
 20
3.021386
  0
VERTEX
  8
LAYER_1
 62
     7
  6
CONTINUOUS
 10
2.995123
 20
3.014821
  0
VERTEX
  8
LAYER_1
 62
     7
  6
CONTINUOUS
 10
2.990452
 20
3.010152
  0
VERTEX
  8
LAYER_1
 62
     7
  6
CONTINUOUS
 10
2.983886
 20
3.008374
  0
SEQEND
  8
0
  0
POLYLINE
  8
LAYER_1
 62
     7
  6
CONTINUOUS
 66
     1
 40
0.003000
 41
0.003000
  0
VERTEX
  8
LAYER_1
 62
     7
  6
CONTINUOUS
 10
2.983886
 20
3.008374
  0
VERTEX
  8
LAYER_1
 62
     7
  6
CONTINUOUS
 10
2.977321
 20
3.010152
  0
VERTEX
  8
LAYER_1
 62
     7
  6
CONTINUOUS
 10
2.972652
 20
3.014821
  0
VERTEX
  8
LAYER_1
 62
     7
  6
CONTINUOUS
 10
2.970874
 20
3.021386
  0
SEQEND
  8
0
  0
POLYLINE
  8
LAYER_1
 62
     7
  6
CONTINUOUS
 66
     1
 40
0.003000
 41
0.003000
  0
VERTEX
  8
LAYER_1
 62
     7
  6
CONTINUOUS
 10
2.970874
 20
3.021386
  0
VERTEX
  8
LAYER_1
 62
     7
  6
CONTINUOUS
 10
2.972652
 20
3.027952
  0
VERTEX
  8
LAYER_1
 62
     7
  6
CONTINUOUS
 10
2.977321
 20
3.032623
  0
VERTEX
  8
LAYER_1
 62
     7
  6
CONTINUOUS
 10
2.983886
 20
3.034402
  0
SEQEND
  8
0
  0
POLYLINE
  8
LAYER_1
 62
     7
  6
CONTINUOUS
 66
     1
 40
0.003000
 41
0.003000
  0
VERTEX
  8
LAYER_1
 62
     7
  6
CONTINUOUS
 10
2.983886
 20
3.034402
  0
VERTEX
  8
LAYER_1
 62
     7
  6
CONTINUOUS
 10
2.990452
 20
3.032623
  0
VERTEX
  8
LAYER_1
 62
     7
  6
CONTINUOUS
 10
2.995123
 20
3.027952
  0
VERTEX
  8
LAYER_1
 62
     7
  6
CONTINUOUS
 10
2.996902
 20
3.021386
  0
SEQEND
  8
0
  0
POLYLINE
  8
LAYER_1
 62
     7
  6
CONTINUOUS
 66
     1
 40
0.011055
 41
0.011055
  0
VERTEX
  8
LAYER_1
 62
     7
  6
CONTINUOUS
 10
2.981984
 20
3.022094
  0
VERTEX
  8
LAYER_1
 62
     7
  6
CONTINUOUS
 10
3.465484
 20
2.892539
  0
SEQEND
  8
0
  0
POLYLINE
  8
LAYER_1
 62
     7
  6
CONTINUOUS
 66
     1
 40
0.011055
 41
0.011055
  0
VERTEX
  8
LAYER_1
 62
     7
  6
CONTINUOUS
 10
2.982858
 20
3.022555
  0
VERTEX
  8
LAYER_1
 62
     7
  6
CONTINUOUS
 10
3.233138
 20
2.589067
  0
SEQEND
  8
0
  0
POLYLINE
  8
LAYER_1
 62
     7
  6
CONTINUOUS
 66
     1
 40
0.011055
 41
0.011055
  0
VERTEX
  8
LAYER_1
 62
     7
  6
CONTINUOUS
 10
2.982512
 20
3.021264
  0
VERTEX
  8
LAYER_1
 62
     7
  6
CONTINUOUS
 10
3.416000
 20
3.271539
  0
SEQEND
  8
0
  0
POLYLINE
  8
LAYER_1
 62
     7
  6
CONTINUOUS
 66
     1
 40
0.003000
 41
0.003000
  0
VERTEX
  8
LAYER_1
 62
     7
  6
CONTINUOUS
 10
1.668138
 20
7.118331
  0
VERTEX
  8
LAYER_1
 62
     7
  6
CONTINUOUS
 10
1.800886
 20
5.879374
  0
VERTEX
  8
LAYER_1
 62
     7
  6
CONTINUOUS
 10
2.088500
 20
-3.324303
  0
SEQEND
  8
0
  0
POLYLINE
  8
LAYER_1
 62
     7
  6
CONTINUOUS
 66
     1
 40
0.003000
 41
0.003000
  0
VERTEX
  8
LAYER_1
 62
     7
  6
CONTINUOUS
 10
3.814193
 20
7.151512
  0
VERTEX
  8
LAYER_1
 62
     7
  6
CONTINUOUS
 10
3.681441
 20
5.912555
  0
VERTEX
  8
LAYER_1
 62
     7
  6
CONTINUOUS
 10
3.393831
 20
-3.291110
  0
SEQEND
  8
0
  0
TEXT
  8
LAYER_1
 62
     7
 10
-3.278303
 20
-0.935469
 40
0.099712
  1
4 layers 
 50
90.000660
 41
1.000000
  7
SN2
 71
     0
 72
     5
 11
-3.278303
 21
-0.472779
  0
TEXT
  8
LAYER_1
 62
     7
 10
-3.156622
 20
-0.935469
 40
0.099712
  1
1.7 oz Kevlar
 50
90.000660
 41
1.000000
  7
SN2
 71
     0
 72
     5
 11
-3.156622
 21
-0.222765
  0
POLYLINE
  8
LAYER_1
 62
     7
  6
CONTINUOUS
 66
     1
 40
0.003000
 41
0.003000
  0
VERTEX
  8
LAYER_1
 62
     7
  6
CONTINUOUS
 10
-3.277941
 20
-1.036469
  0
VERTEX
  8
LAYER_1
 62
     7
  6
CONTINUOUS
 10
-3.277976
 20
-1.037663
  0
VERTEX
  8
LAYER_1
 62
     7
  6
CONTINUOUS
 10
-3.278217
 20
-1.046028
  0
VERTEX
  8
LAYER_1
 62
     7
  6
CONTINUOUS
 10
-3.278874
 20
-1.068732
  0
SEQEND
  8
0
  0
POLYLINE
  8
LAYER_1
 62
     7
  6
CONTINUOUS
 66
     1
 40
0.003000
 41
0.003000
  0
VERTEX
  8
LAYER_1
 62
     7
  6
CONTINUOUS
 10
-3.278874
 20
-1.068732
  0
VERTEX
  8
LAYER_1
 62
     7
  6
CONTINUOUS
 10
-3.279213
 20
-1.109500
  0
VERTEX
  8
LAYER_1
 62
     7
  6
CONTINUOUS
 10
-3.274841
 20
-1.158252
  0
VERTEX
  8
LAYER_1
 62
     7
  6
CONTINUOUS
 10
-3.260429
 20
-1.201469
  0
SEQEND
  8
0
  0
POLYLINE
  8
LAYER_1
 62
     7
  6
CONTINUOUS
 66
     1
 40
0.003000
 41
0.003000
  0
VERTEX
  8
LAYER_1
 62
     7
  6
CONTINUOUS
 10
-3.260429
 20
-1.201469
  0
VERTEX
  8
LAYER_1
 62
     7
  6
CONTINUOUS
 10
-3.232983
 20
-1.230018
  0
VERTEX
  8
LAYER_1
 62
     7
  6
CONTINUOUS
 10
-3.198772
 20
-1.252214
  0
VERTEX
  8
LAYER_1
 62
     7
  6
CONTINUOUS
 10
-3.166402
 20
-1.280764
  0
SEQEND
  8
0
  0
POLYLINE
  8
LAYER_1
 62
     7
  6
CONTINUOUS
 66
     1
 40
0.003000
 41
0.003000
  0
VERTEX
  8
LAYER_1
 62
     7
  6
CONTINUOUS
 10
-3.166402
 20
-1.280764
  0
VERTEX
  8
LAYER_1
 62
     7
  6
CONTINUOUS
 10
-3.142709
 20
-1.323980
  0
VERTEX
  8
LAYER_1
 62
     7
  6
CONTINUOUS
 10
-3.127411
 20
-1.372733
  0
VERTEX
  8
LAYER_1
 62
     7
  6
CONTINUOUS
 10
-3.118469
 20
-1.413500
  0
SEQEND
  8
0
  0
POLYLINE
  8
LAYER_1
 62
     7
  6
CONTINUOUS
 66
     1
 40
0.003000
 41
0.003000
  0
VERTEX
  8
LAYER_1
 62
     7
  6
CONTINUOUS
 10
-3.118469
 20
-1.413500
  0
VERTEX
  8
LAYER_1
 62
     7
  6
CONTINUOUS
 10
-3.113925
 20
-1.436204
  0
VERTEX
  8
LAYER_1
 62
     7
  6
CONTINUOUS
 10
-3.112251
 20
-1.444569
  0
VERTEX
  8
LAYER_1
 62
     7
  6
CONTINUOUS
 10
-3.112012
 20
-1.445764
  0
SEQEND
  8
0
  0
TEXT
  8
LAYER_1
 62
     7
 10
-3.209031
 20
3.252909
 40
0.099712
  1
1/4" x 1/2"
 50
90.000660
 41
1.000000
  7
SN2
 71
     0
 72
     5
 11
-3.209031
 21
3.808136
  0
TEXT
  8
LAYER_1
 62
     7
 10
-3.087346
 20
3.252909
 40
0.099712
  1
basswood
 50
90.000660
 41
1.000000
  7
SN2
 71
     0
 72
     5
 11
-3.087346
 21
3.803266
  0
TEXT
  8
LAYER_1
 62
     7
 10
-2.965661
 20
3.252909
 40
0.099712
  1
side rails
 50
90.000660
 41
1.000000
  7
SN2
 71
     0
 72
     5
 11
-2.965661
 21
3.738327
  0
POLYLINE
  8
LAYER_1
 62
   253
  6
CONTINUOUS
 66
     1
 40
0.003000
 41
0.003000
 70
     1
  0
VERTEX
  8
LAYER_1
 62
   253
  6
CONTINUOUS
 10
-2.871413
 20
0.849622
  0
VERTEX
  8
LAYER_1
 62
   253
  6
CONTINUOUS
 10
-2.806429
 20
0.838555
  0
VERTEX
  8
LAYER_1
 62
   253
  6
CONTINUOUS
 10
-2.734528
 20
0.831638
  0
VERTEX
  8
LAYER_1
 62
   253
  6
CONTINUOUS
 10
-2.634957
 20
0.831638
  0
VERTEX
  8
LAYER_1
 62
   253
  6
CONTINUOUS
 10
-2.565819
 20
0.837177
  0
VERTEX
  8
LAYER_1
 62
   253
  6
CONTINUOUS
 10
-2.495303
 20
0.849622
  0
VERTEX
  8
LAYER_1
 62
   253
  6
CONTINUOUS
 10
-2.430319
 20
0.866205
  0
VERTEX
  8
LAYER_1
 62
   253
  6
CONTINUOUS
 10
-2.430319
 20
1.065331
  0
VERTEX
  8
LAYER_1
 62
   253
  6
CONTINUOUS
 10
-2.929484
 20
1.065331
  0
VERTEX
  8
LAYER_1
 62
   253
  6
CONTINUOUS
 10
-2.928110
 20
0.864831
  0
SEQEND
  8
0
  0
POLYLINE
  8
LAYER_1
 62
     7
  6
CONTINUOUS
 66
     1
 40
0.003000
 41
0.003000
 70
     1
  0
VERTEX
  8
LAYER_1
 62
     7
  6
CONTINUOUS
 10
-2.871413
 20
0.849622
  0
VERTEX
  8
LAYER_1
 62
     7
  6
CONTINUOUS
 10
-2.806429
 20
0.838555
  0
VERTEX
  8
LAYER_1
 62
     7
  6
CONTINUOUS
 10
-2.734528
 20
0.831638
  0
VERTEX
  8
LAYER_1
 62
     7
  6
CONTINUOUS
 10
-2.634957
 20
0.831638
  0
VERTEX
  8
LAYER_1
 62
     7
  6
CONTINUOUS
 10
-2.565819
 20
0.837177
  0
VERTEX
  8
LAYER_1
 62
     7
  6
CONTINUOUS
 10
-2.495303
 20
0.849622
  0
VERTEX
  8
LAYER_1
 62
     7
  6
CONTINUOUS
 10
-2.430319
 20
0.866205
  0
VERTEX
  8
LAYER_1
 62
     7
  6
CONTINUOUS
 10
-2.430319
 20
1.065331
  0
VERTEX
  8
LAYER_1
 62
     7
  6
CONTINUOUS
 10
-2.929484
 20
1.065331
  0
VERTEX
  8
LAYER_1
 62
     7
  6
CONTINUOUS
 10
-2.928110
 20
0.864831
  0
SEQEND
  8
0
  0
POLYLINE
  8
LAYER_1
 62
     7
  6
DASHED
 66
     1
 40
0.003000
 41
0.003000
  0
VERTEX
  8
LAYER_1
 62
     7
  6
DASHED
 10
-0.811094
 20
-1.733374
  0
VERTEX
  8
LAYER_1
 62
     7
  6
DASHED
 10
-0.810548
 20
-1.732965
  0
VERTEX
  8
LAYER_1
 62
     7
  6
DASHED
 10
-0.806725
 20
-1.730098
  0
VERTEX
  8
LAYER_1
 62
     7
  6
DASHED
 10
-0.796346
 20
-1.722319
  0
SEQEND
  8
0
  0
POLYLINE
  8
LAYER_1
 62
     7
  6
DASHED
 66
     1
 40
0.003000
 41
0.003000
  0
VERTEX
  8
LAYER_1
 62
     7
  6
DASHED
 10
-0.796346
 20
-1.722319
  0
VERTEX
  8
LAYER_1
 62
     7
  6
DASHED
 10
-0.777156
 20
-1.707573
  0
VERTEX
  8
LAYER_1
 62
     7
  6
DASHED
 10
-0.751001
 20
-1.685448
  0
VERTEX
  8
LAYER_1
 62
     7
  6
DASHED
 10
-0.720748
 20
-1.655941
  0
SEQEND
  8
0
  0
POLYLINE
  8
LAYER_1
 62
     7
  6
DASHED
 66
     1
 40
0.003000
 41
0.003000
  0
VERTEX
  8
LAYER_1
 62
     7
  6
DASHED
 10
-0.720748
 20
-1.655941
  0
VERTEX
  8
LAYER_1
 62
     7
  6
DASHED
 10
-0.688795
 20
-1.616819
  0
VERTEX
  8
LAYER_1
 62
     7
  6
DASHED
 10
-0.655608
 20
-1.556797
  0
VERTEX
  8
LAYER_1
 62
     7
  6
DASHED
 10
-0.621193
 20
-1.462358
  0
SEQEND
  8
0
  0
POLYLINE
  8
LAYER_1
 62
     7
  6
DASHED
 66
     1
 40
0.003000
 41
0.003000
  0
VERTEX
  8
LAYER_1
 62
     7
  6
DASHED
 10
-0.621193
 20
-1.462358
  0
VERTEX
  8
LAYER_1
 62
     7
  6
DASHED
 10
-0.586301
 20
-1.320257
  0
VERTEX
  8
LAYER_1
 62
     7
  6
DASHED
 10
-0.554687
 20
-1.118339
  0
VERTEX
  8
LAYER_1
 62
     7
  6
DASHED
 10
-0.530858
 20
-0.844720
  0
SEQEND
  8
0
  0
POLYLINE
  8
LAYER_1
 62
     7
  6
DASHED
 66
     1
 40
0.003000
 41
0.003000
  0
VERTEX
  8
LAYER_1
 62
     7
  6
DASHED
 10
-0.530858
 20
-0.844720
  0
VERTEX
  8
LAYER_1
 62
     7
  6
DASHED
 10
-0.524050
 20
-0.702620
  0
VERTEX
  8
LAYER_1
 62
     7
  6
DASHED
 10
-0.519307
 20
-0.544554
  0
VERTEX
  8
LAYER_1
 62
     7
  6
DASHED
 10
-0.516436
 20
-0.369910
  0
VERTEX
  8
LAYER_1
 62
     7
  6
DASHED
 10
-0.515242
 20
-0.178075
  0
VERTEX
  8
LAYER_1
 62
     7
  6
DASHED
 10
-0.515532
 20
0.031562
  0
VERTEX
  8
LAYER_1
 62
     7
  6
DASHED
 10
-0.517113
 20
0.259614
  0
VERTEX
  8
LAYER_1
 62
     7
  6
DASHED
 10
-0.519791
 20
0.506693
  0
SEQEND
  8
0
  0
POLYLINE
  8
LAYER_1
 62
     7
  6
DASHED
 66
     1
 40
0.003000
 41
0.003000
  0
VERTEX
  8
LAYER_1
 62
     7
  6
DASHED
 10
-0.519791
 20
0.506693
  0
VERTEX
  8
LAYER_1
 62
     7
  6
DASHED
 10
-0.522219
 20
0.690994
  0
VERTEX
  8
LAYER_1
 62
     7
  6
DASHED
 10
-0.525056
 20
0.883304
  0
VERTEX
  8
LAYER_1
 62
     7
  6
DASHED
 10
-0.528270
 20
1.082008
  0
VERTEX
  8
LAYER_1
 62
     7
  6
DASHED
 10
-0.531826
 20
1.285492
  0
VERTEX
  8
LAYER_1
 62
     7
  6
DASHED
 10
-0.535692
 20
1.492140
  0
VERTEX
  8
LAYER_1
 62
     7
  6
DASHED
 10
-0.539835
 20
1.700338
  0
VERTEX
  8
LAYER_1
 62
     7
  6
DASHED
 10
-0.544222
 20
1.908469
  0
VERTEX
  8
LAYER_1
 62
     7
  6
DASHED
 10
-0.548819
 20
2.114920
  0
VERTEX
  8
LAYER_1
 62
     7
  6
DASHED
 10
-0.553593
 20
2.318075
  0
VERTEX
  8
LAYER_1
 62
     7
  6
DASHED
 10
-0.558512
 20
2.516319
  0
SEQEND
  8
0
  0
POLYLINE
  8
LAYER_1
 62
     7
  6
DASHED
 66
     1
 40
0.003000
 41
0.003000
  0
VERTEX
  8
LAYER_1
 62
     7
  6
DASHED
 10
-0.558512
 20
2.516319
  0
VERTEX
  8
LAYER_1
 62
     7
  6
DASHED
 10
-0.564826
 20
2.755389
  0
VERTEX
  8
LAYER_1
 62
     7
  6
DASHED
 10
-0.571333
 20
2.984930
  0
VERTEX
  8
LAYER_1
 62
     7
  6
DASHED
 10
-0.578056
 20
3.205613
  0
VERTEX
  8
LAYER_1
 62
     7
  6
DASHED
 10
-0.585016
 20
3.418107
  0
VERTEX
  8
LAYER_1
 62
     7
  6
DASHED
 10
-0.592235
 20
3.623083
  0
VERTEX
  8
LAYER_1
 62
     7
  6
DASHED
 10
-0.599735
 20
3.821209
  0
VERTEX
  8
LAYER_1
 62
     7
  6
DASHED
 10
-0.607538
 20
4.013157
  0
VERTEX
  8
LAYER_1
 62
     7
  6
DASHED
 10
-0.615665
 20
4.199594
  0
SEQEND
  8
0
  0
POLYLINE
  8
LAYER_1
 62
     7
  6
DASHED
 66
     1
 40
0.003000
 41
0.003000
  0
VERTEX
  8
LAYER_1
 62
     7
  6
DASHED
 10
-0.615665
 20
4.199594
  0
VERTEX
  8
LAYER_1
 62
     7
  6
DASHED
 10
-0.627043
 20
4.440050
  0
VERTEX
  8
LAYER_1
 62
     7
  6
DASHED
 10
-0.639086
 20
4.669188
  0
VERTEX
  8
LAYER_1
 62
     7
  6
DASHED
 10
-0.651845
 20
4.884295
  0
VERTEX
  8
LAYER_1
 62
     7
  6
DASHED
 10
-0.665373
 20
5.082655
  0
VERTEX
  8
LAYER_1
 62
     7
  6
DASHED
 10
-0.679721
 20
5.261554
  0
VERTEX
  8
LAYER_1
 62
     7
  6
DASHED
 10
-0.694941
 20
5.418276
  0
SEQEND
  8
0
  0
POLYLINE
  8
LAYER_1
 62
     7
  6
DASHED
 66
     1
 40
0.003000
 41
0.003000
  0
VERTEX
  8
LAYER_1
 62
     7
  6
DASHED
 10
-0.694941
 20
5.418276
  0
VERTEX
  8
LAYER_1
 62
     7
  6
DASHED
 10
-0.727655
 20
5.661708
  0
VERTEX
  8
LAYER_1
 62
     7
  6
DASHED
 10
-0.761185
 20
5.828116
  0
VERTEX
  8
LAYER_1
 62
     7
  6
DASHED
 10
-0.792665
 20
5.940039
  0
SEQEND
  8
0
  0
POLYLINE
  8
LAYER_1
 62
     7
  6
DASHED
 66
     1
 40
0.003000
 41
0.003000
  0
VERTEX
  8
LAYER_1
 62
     7
  6
DASHED
 10
-0.792665
 20
5.940039
  0
VERTEX
  8
LAYER_1
 62
     7
  6
DASHED
 10
-0.820106
 20
6.017677
  0
VERTEX
  8
LAYER_1
 62
     7
  6
DASHED
 10
-0.845097
 20
6.071961
  0
VERTEX
  8
LAYER_1
 62
     7
  6
DASHED
 10
-0.870094
 20
6.111496
  0
SEQEND
  8
0
  0
POLYLINE
  8
LAYER_1
 62
     7
  6
DASHED
 66
     1
 40
0.003000
 41
0.003000
  0
VERTEX
  8
LAYER_1
 62
     7
  6
DASHED
 10
-0.870094
 20
6.111496
  0
VERTEX
  8
LAYER_1
 62
     7
  6
DASHED
 10
-0.896927
 20
6.143319
  0
VERTEX
  8
LAYER_1
 62
     7
  6
DASHED
 10
-0.924991
 20
6.168178
  0
VERTEX
  8
LAYER_1
 62
     7
  6
DASHED
 10
-0.953055
 20
6.185248
  0
SEQEND
  8
0
  0
POLYLINE
  8
LAYER_1
 62
     7
  6
DASHED
 66
     1
 40
0.003000
 41
0.003000
  0
VERTEX
  8
LAYER_1
 62
     7
  6
DASHED
 10
-0.953055
 20
6.185248
  0
VERTEX
  8
LAYER_1
 62
     7
  6
DASHED
 10
-0.979692
 20
6.194327
  0
VERTEX
  8
LAYER_1
 62
     7
  6
DASHED
 10
-1.002635
 20
6.197672
  0
VERTEX
  8
LAYER_1
 62
     7
  6
DASHED
 10
-1.019429
 20
6.198150
  0
SEQEND
  8
0
  0
POLYLINE
  8
LAYER_1
 62
     7
  6
DASHED
 66
     1
 40
0.003000
 41
0.003000
  0
VERTEX
  8
LAYER_1
 62
     7
  6
DASHED
 10
-1.019429
 20
6.198150
  0
VERTEX
  8
LAYER_1
 62
     7
  6
DASHED
 10
-1.028508
 20
6.198150
  0
VERTEX
  8
LAYER_1
 62
     7
  6
DASHED
 10
-1.031853
 20
6.198150
  0
VERTEX
  8
LAYER_1
 62
     7
  6
DASHED
 10
-1.032331
 20
6.198150
  0
SEQEND
  8
0
  0
POLYLINE
  8
LAYER_1
 62
     7
  6
CONTINUOUS
 66
     1
 40
0.003000
 41
0.003000
 70
     1
  0
VERTEX
  8
LAYER_1
 62
     7
  6
CONTINUOUS
 10
-3.116110
 20
2.682110
  0
VERTEX
  8
LAYER_1
 62
     7
  6
CONTINUOUS
 10
-3.128667
 20
2.678710
  0
VERTEX
  8
LAYER_1
 62
     7
  6
CONTINUOUS
 10
-3.137597
 20
2.669778
  0
VERTEX
  8
LAYER_1
 62
     7
  6
CONTINUOUS
 10
-3.140996
 20
2.657220
  0
VERTEX
  8
LAYER_1
 62
     7
  6
CONTINUOUS
 10
-3.137597
 20
2.644663
  0
VERTEX
  8
LAYER_1
 62
     7
  6
CONTINUOUS
 10
-3.128667
 20
2.635731
  0
VERTEX
  8
LAYER_1
 62
     7
  6
CONTINUOUS
 10
-3.116110
 20
2.632331
  0
VERTEX
  8
LAYER_1
 62
     7
  6
CONTINUOUS
 10
-3.103552
 20
2.635731
  0
VERTEX
  8
LAYER_1
 62
     7
  6
CONTINUOUS
 10
-3.094621
 20
2.644663
  0
VERTEX
  8
LAYER_1
 62
     7
  6
CONTINUOUS
 10
-3.091220
 20
2.657220
  0
VERTEX
  8
LAYER_1
 62
     7
  6
CONTINUOUS
 10
-3.094621
 20
2.669778
  0
VERTEX
  8
LAYER_1
 62
     7
  6
CONTINUOUS
 10
-3.103552
 20
2.678710
  0
SEQEND
  8
0
  0
POLYLINE
  8
LAYER_1
 62
     7
  6
CONTINUOUS
 66
     1
 40
0.003000
 41
0.003000
  0
VERTEX
  8
LAYER_1
 62
     7
  6
CONTINUOUS
 10
-3.116110
 20
2.682110
  0
VERTEX
  8
LAYER_1
 62
     7
  6
CONTINUOUS
 10
-3.128667
 20
2.678710
  0
VERTEX
  8
LAYER_1
 62
     7
  6
CONTINUOUS
 10
-3.137597
 20
2.669778
  0
VERTEX
  8
LAYER_1
 62
     7
  6
CONTINUOUS
 10
-3.140996
 20
2.657220
  0
SEQEND
  8
0
  0
POLYLINE
  8
LAYER_1
 62
     7
  6
CONTINUOUS
 66
     1
 40
0.003000
 41
0.003000
  0
VERTEX
  8
LAYER_1
 62
     7
  6
CONTINUOUS
 10
-3.140996
 20
2.657220
  0
VERTEX
  8
LAYER_1
 62
     7
  6
CONTINUOUS
 10
-3.137597
 20
2.644663
  0
VERTEX
  8
LAYER_1
 62
     7
  6
CONTINUOUS
 10
-3.128667
 20
2.635731
  0
VERTEX
  8
LAYER_1
 62
     7
  6
CONTINUOUS
 10
-3.116110
 20
2.632331
  0
SEQEND
  8
0
  0
POLYLINE
  8
LAYER_1
 62
     7
  6
CONTINUOUS
 66
     1
 40
0.003000
 41
0.003000
  0
VERTEX
  8
LAYER_1
 62
     7
  6
CONTINUOUS
 10
-3.116110
 20
2.632331
  0
VERTEX
  8
LAYER_1
 62
     7
  6
CONTINUOUS
 10
-3.103552
 20
2.635731
  0
VERTEX
  8
LAYER_1
 62
     7
  6
CONTINUOUS
 10
-3.094621
 20
2.644663
  0
VERTEX
  8
LAYER_1
 62
     7
  6
CONTINUOUS
 10
-3.091220
 20
2.657220
  0
SEQEND
  8
0
  0
POLYLINE
  8
LAYER_1
 62
     7
  6
CONTINUOUS
 66
     1
 40
0.003000
 41
0.003000
  0
VERTEX
  8
LAYER_1
 62
     7
  6
CONTINUOUS
 10
-3.091220
 20
2.657220
  0
VERTEX
  8
LAYER_1
 62
     7
  6
CONTINUOUS
 10
-3.094621
 20
2.669778
  0
VERTEX
  8
LAYER_1
 62
     7
  6
CONTINUOUS
 10
-3.103552
 20
2.678710
  0
VERTEX
  8
LAYER_1
 62
     7
  6
CONTINUOUS
 10
-3.116110
 20
2.682110
  0
SEQEND
  8
0
  0
POLYLINE
  8
LAYER_1
 62
     7
  6
DASHED
 66
     1
 40
0.003000
 41
0.003000
  0
VERTEX
  8
LAYER_1
 62
     7
  6
DASHED
 10
-4.251413
 20
4.494583
  0
VERTEX
  8
LAYER_1
 62
     7
  6
DASHED
 10
-3.255819
 20
4.494583
  0
SEQEND
  8
0
  0
POLYLINE
  8
LAYER_1
 62
     7
  6
DASHED
 66
     1
 40
0.003000
 41
0.003000
  0
VERTEX
  8
LAYER_1
 62
     7
  6
DASHED
 10
3.746484
 20
4.494583
  0
VERTEX
  8
LAYER_1
 62
     7
  6
DASHED
 10
4.742083
 20
4.494583
  0
SEQEND
  8
0
  0
POLYLINE
  8
LAYER_1
 62
     7
  6
CONTINUOUS
 66
     1
 40
0.011055
 41
0.011055
  0
VERTEX
  8
LAYER_1
 62
     7
  6
CONTINUOUS
 10
2.407969
 20
19.189220
  0
VERTEX
  8
LAYER_1
 62
     7
  6
CONTINUOUS
 10
2.407525
 20
19.185806
  0
VERTEX
  8
LAYER_1
 62
     7
  6
CONTINUOUS
 10
2.404422
 20
19.161904
  0
VERTEX
  8
LAYER_1
 62
     7
  6
CONTINUOUS
 10
2.396000
 20
19.097028
  0
SEQEND
  8
0
  0
POLYLINE
  8
LAYER_1
 62
     7
  6
CONTINUOUS
 66
     1
 40
0.011055
 41
0.011055
  0
VERTEX
  8
LAYER_1
 62
     7
  6
CONTINUOUS
 10
2.396000
 20
19.097028
  0
VERTEX
  8
LAYER_1
 62
     7
  6
CONTINUOUS
 10
2.380325
 20
18.976407
  0
VERTEX
  8
LAYER_1
 62
     7
  6
CONTINUOUS
 10
2.358505
 20
18.808054
  0
VERTEX
  8
LAYER_1
 62
     7
  6
CONTINUOUS
 10
2.332386
 20
18.605693
  0
SEQEND
  8
0
  0
POLYLINE
  8
LAYER_1
 62
     7
  6
CONTINUOUS
 66
     1
 40
0.011055
 41
0.011055
  0
VERTEX
  8
LAYER_1
 62
     7
  6
CONTINUOUS
 10
2.332386
 20
18.605693
  0
VERTEX
  8
LAYER_1
 62
     7
  6
CONTINUOUS
 10
2.303706
 20
18.381752
  0
VERTEX
  8
LAYER_1
 62
     7
  6
CONTINUOUS
 10
2.273796
 20
18.143472
  0
VERTEX
  8
LAYER_1
 62
     7
  6
CONTINUOUS
 10
2.243886
 20
17.896791
  0
SEQEND
  8
0
  0
POLYLINE
  8
LAYER_1
 62
     7
  6
CONTINUOUS
 66
     1
 40
0.011055
 41
0.011055
  0
VERTEX
  8
LAYER_1
 62
     7
  6
CONTINUOUS
 10
2.243886
 20
17.896791
  0
VERTEX
  8
LAYER_1
 62
     7
  6
CONTINUOUS
 10
2.214967
 20
17.646807
  0
VERTEX
  8
LAYER_1
 62
     7
  6
CONTINUOUS
 10
2.187072
 20
17.395177
  0
VERTEX
  8
LAYER_1
 62
     7
  6
CONTINUOUS
 10
2.159996
 20
17.142720
  0
SEQEND
  8
0
  0
POLYLINE
  8
LAYER_1
 62
     7
  6
CONTINUOUS
 66
     1
 40
0.011055
 41
0.011055
  0
VERTEX
  8
LAYER_1
 62
     7
  6
CONTINUOUS
 10
2.159996
 20
17.142720
  0
VERTEX
  8
LAYER_1
 62
     7
  6
CONTINUOUS
 10
2.133606
 20
16.890104
  0
VERTEX
  8
LAYER_1
 62
     7
  6
CONTINUOUS
 10
2.108035
 20
16.637283
  0
VERTEX
  8
LAYER_1
 62
     7
  6
CONTINUOUS
 10
2.083484
 20
16.384055
  0
SEQEND
  8
0
  0
POLYLINE
  8
LAYER_1
 62
     7
  6
CONTINUOUS
 66
     1
 40
0.011055
 41
0.011055
  0
VERTEX
  8
LAYER_1
 62
     7
  6
CONTINUOUS
 10
2.083484
 20
16.384055
  0
VERTEX
  8
LAYER_1
 62
     7
  6
CONTINUOUS
 10
2.060104
 20
16.130235
  0
VERTEX
  8
LAYER_1
 62
     7
  6
CONTINUOUS
 10
2.037741
 20
15.875805
  0
VERTEX
  8
LAYER_1
 62
     7
  6
CONTINUOUS
 10
2.016193
 20
15.620764
  0
SEQEND
  8
0
  0
POLYLINE
  8
LAYER_1
 62
     7
  6
CONTINUOUS
 66
     1
 40
0.011055
 41
0.011055
  0
VERTEX
  8
LAYER_1
 62
     7
  6
CONTINUOUS
 10
2.016193
 20
15.620764
  0
VERTEX
  8
LAYER_1
 62
     7
  6
CONTINUOUS
 10
1.995294
 20
15.365140
  0
VERTEX
  8
LAYER_1
 62
     7
  6
CONTINUOUS
 10
1.975012
 20
15.109107
  0
VERTEX
  8
LAYER_1
 62
     7
  6
CONTINUOUS
 10
1.955346
 20
14.852874
  0
SEQEND
  8
0
  0
POLYLINE
  8
LAYER_1
 62
     7
  6
CONTINUOUS
 66
     1
 40
0.011055
 41
0.011055
  0
VERTEX
  8
LAYER_1
 62
     7
  6
CONTINUOUS
 10
1.955346
 20
14.852874
  0
VERTEX
  8
LAYER_1
 62
     7
  6
CONTINUOUS
 10
1.936336
 20
14.596599
  0
VERTEX
  8
LAYER_1
 62
     7
  6
CONTINUOUS
 10
1.918136
 20
14.340328
  0
VERTEX
  8
LAYER_1
 62
     7
  6
CONTINUOUS
 10
1.900957
 20
14.084055
  0
SEQEND
  8
0
  0
POLYLINE
  8
LAYER_1
 62
     7
  6
CONTINUOUS
 66
     1
 40
0.011055
 41
0.011055
  0
VERTEX
  8
LAYER_1
 62
     7
  6
CONTINUOUS
 10
1.900957
 20
14.084055
  0
VERTEX
  8
LAYER_1
 62
     7
  6
CONTINUOUS
 10
1.884917
 20
13.827746
  0
VERTEX
  8
LAYER_1
 62
     7
  6
CONTINUOUS
 10
1.869691
 20
13.571237
  0
VERTEX
  8
LAYER_1
 62
     7
  6
CONTINUOUS
 10
1.854874
 20
13.314319
  0
SEQEND
  8
0
  0
POLYLINE
  8
LAYER_1
 62
     7
  6
CONTINUOUS
 66
     1
 40
0.011055
 41
0.011055
  0
VERTEX
  8
LAYER_1
 62
     7
  6
CONTINUOUS
 10
1.854874
 20
13.314319
  0
VERTEX
  8
LAYER_1
 62
     7
  6
CONTINUOUS
 10
1.840191
 20
13.056847
  0
VERTEX
  8
LAYER_1
 62
     7
  6
CONTINUOUS
 10
1.825920
 20
12.798966
  0
VERTEX
  8
LAYER_1
 62
     7
  6
CONTINUOUS
 10
1.812469
 20
12.540886
  0
SEQEND
  8
0
  0
POLYLINE
  8
LAYER_1
 62
     7
  6
CONTINUOUS
 66
     1
 40
0.011055
 41
0.011055
  0
VERTEX
  8
LAYER_1
 62
     7
  6
CONTINUOUS
 10
1.812469
 20
12.540886
  0
VERTEX
  8
LAYER_1
 62
     7
  6
CONTINUOUS
 10
1.800140
 20
12.282738
  0
VERTEX
  8
LAYER_1
 62
     7
  6
CONTINUOUS
 10
1.788839
 20
12.024382
  0
VERTEX
  8
LAYER_1
 62
     7
  6
CONTINUOUS
 10
1.778358
 20
11.765622
  0
SEQEND
  8
0
  0
POLYLINE
  8
LAYER_1
 62
     7
  6
CONTINUOUS
 66
     1
 40
0.011055
 41
0.011055
  0
VERTEX
  8
LAYER_1
 62
     7
  6
CONTINUOUS
 10
1.778358
 20
11.765622
  0
VERTEX
  8
LAYER_1
 62
     7
  6
CONTINUOUS
 10
1.768492
 20
11.506310
  0
VERTEX
  8
LAYER_1
 62
     7
  6
CONTINUOUS
 10
1.759033
 20
11.246589
  0
VERTEX
  8
LAYER_1
 62
     7
  6
CONTINUOUS
 10
1.749776
 20
10.986665
  0
SEQEND
  8
0
  0
POLYLINE
  8
LAYER_1
 62
     7
  6
CONTINUOUS
 66
     1
 40
0.011055
 41
0.011055
  0
VERTEX
  8
LAYER_1
 62
     7
  6
CONTINUOUS
 10
1.749776
 20
10.986665
  0
VERTEX
  8
LAYER_1
 62
     7
  6
CONTINUOUS
 10
1.740597
 20
10.726671
  0
VERTEX
  8
LAYER_1
 62
     7
  6
CONTINUOUS
 10
1.731617
 20
10.466472
  0
VERTEX
  8
LAYER_1
 62
     7
  6
CONTINUOUS
 10
1.723039
 20
10.205858
  0
SEQEND
  8
0
  0
POLYLINE
  8
LAYER_1
 62
     7
  6
CONTINUOUS
 66
     1
 40
0.011055
 41
0.011055
  0
VERTEX
  8
LAYER_1
 62
     7
  6
CONTINUOUS
 10
1.723039
 20
10.205858
  0
VERTEX
  8
LAYER_1
 62
     7
  6
CONTINUOUS
 10
1.715054
 20
9.944742
  0
VERTEX
  8
LAYER_1
 62
     7
  6
CONTINUOUS
 10
1.707683
 20
9.683416
  0
VERTEX
  8
LAYER_1
 62
     7
  6
CONTINUOUS
 10
1.700929
 20
9.422291
  0
SEQEND
  8
0
  0
POLYLINE
  8
LAYER_1
 62
     7
  6
CONTINUOUS
 66
     1
 40
0.011055
 41
0.011055
  0
VERTEX
  8
LAYER_1
 62
     7
  6
CONTINUOUS
 10
1.700929
 20
9.422291
  0
VERTEX
  8
LAYER_1
 62
     7
  6
CONTINUOUS
 10
1.694745
 20
9.161652
  0
VERTEX
  8
LAYER_1
 62
     7
  6
CONTINUOUS
 10
1.688972
 20
8.901214
  0
VERTEX
  8
LAYER_1
 62
     7
  6
CONTINUOUS
 10
1.683402
 20
8.640567
  0
SEQEND
  8
0
  0
POLYLINE
  8
LAYER_1
 62
     7
  6
CONTINUOUS
 66
     1
 40
0.011055
 41
0.011055
  0
VERTEX
  8
LAYER_1
 62
     7
  6
CONTINUOUS
 10
1.683402
 20
8.640567
  0
VERTEX
  8
LAYER_1
 62
     7
  6
CONTINUOUS
 10
1.677908
 20
8.379417
  0
VERTEX
  8
LAYER_1
 62
     7
  6
CONTINUOUS
 10
1.672617
 20
8.117852
  0
VERTEX
  8
LAYER_1
 62
     7
  6
CONTINUOUS
 10
1.667732
 20
7.856083
  0
SEQEND
  8
0
  0
POLYLINE
  8
LAYER_1
 62
     7
  6
CONTINUOUS
 66
     1
 40
0.011055
 41
0.011055
  0
VERTEX
  8
LAYER_1
 62
     7
  6
CONTINUOUS
 10
1.667732
 20
7.856083
  0
VERTEX
  8
LAYER_1
 62
     7
  6
CONTINUOUS
 10
1.663431
 20
7.594280
  0
VERTEX
  8
LAYER_1
 62
     7
  6
CONTINUOUS
 10
1.659747
 20
7.332480
  0
VERTEX
  8
LAYER_1
 62
     7
  6
CONTINUOUS
 10
1.656677
 20
7.070677
  0
SEQEND
  8
0
  0
POLYLINE
  8
LAYER_1
 62
     7
  6
CONTINUOUS
 66
     1
 40
0.011055
 41
0.011055
  0
VERTEX
  8
LAYER_1
 62
     7
  6
CONTINUOUS
 10
1.656677
 20
7.070677
  0
VERTEX
  8
LAYER_1
 62
     7
  6
CONTINUOUS
 10
1.654185
 20
6.808873
  0
VERTEX
  8
LAYER_1
 62
     7
  6
CONTINUOUS
 10
1.652101
 20
6.547068
  0
VERTEX
  8
LAYER_1
 62
     7
  6
CONTINUOUS
 10
1.650220
 20
6.285264
  0
SEQEND
  8
0
  0
POLYLINE
  8
LAYER_1
 62
     7
  6
CONTINUOUS
 66
     1
 40
0.011055
 41
0.011055
  0
VERTEX
  8
LAYER_1
 62
     7
  6
CONTINUOUS
 10
1.650220
 20
6.285264
  0
VERTEX
  8
LAYER_1
 62
     7
  6
CONTINUOUS
 10
1.648411
 20
6.023457
  0
VERTEX
  8
LAYER_1
 62
     7
  6
CONTINUOUS
 10
1.646808
 20
5.761654
  0
VERTEX
  8
LAYER_1
 62
     7
  6
CONTINUOUS
 10
1.645610
 20
5.499858
  0
SEQEND
  8
0
  0
POLYLINE
  8
LAYER_1
 62
     7
  6
CONTINUOUS
 66
     1
 40
0.011055
 41
0.011055
  0
VERTEX
  8
LAYER_1
 62
     7
  6
CONTINUOUS
 10
1.645610
 20
5.499858
  0
VERTEX
  8
LAYER_1
 62
     7
  6
CONTINUOUS
 10
1.644999
 20
5.238088
  0
VERTEX
  8
LAYER_1
 62
     7
  6
CONTINUOUS
 10
1.644999
 20
4.976520
  0
VERTEX
  8
LAYER_1
 62
     7
  6
CONTINUOUS
 10
1.645610
 20
4.715358
  0
SEQEND
  8
0
  0
POLYLINE
  8
LAYER_1
 62
     7
  6
CONTINUOUS
 66
     1
 40
0.011055
 41
0.011055
  0
VERTEX
  8
LAYER_1
 62
     7
  6
CONTINUOUS
 10
1.645610
 20
4.715358
  0
VERTEX
  8
LAYER_1
 62
     7
  6
CONTINUOUS
 10
1.646842
 20
4.454756
  0
VERTEX
  8
LAYER_1
 62
     7
  6
CONTINUOUS
 10
1.648683
 20
4.194560
  0
VERTEX
  8
LAYER_1
 62
     7
  6
CONTINUOUS
 10
1.651138
 20
3.934567
  0
SEQEND
  8
0
  0
POLYLINE
  8
LAYER_1
 62
     7
  6
CONTINUOUS
 66
     1
 40
0.011055
 41
0.011055
  0
VERTEX
  8
LAYER_1
 62
     7
  6
CONTINUOUS
 10
1.651138
 20
3.934567
  0
VERTEX
  8
LAYER_1
 62
     7
  6
CONTINUOUS
 10
1.654182
 20
3.674643
  0
VERTEX
  8
LAYER_1
 62
     7
  6
CONTINUOUS
 10
1.657633
 20
3.414922
  0
VERTEX
  8
LAYER_1
 62
     7
  6
CONTINUOUS
 10
1.661291
 20
3.155610
  0
SEQEND
  8
0
  0
POLYLINE
  8
LAYER_1
 62
     7
  6
CONTINUOUS
 66
     1
 40
0.011055
 41
0.011055
  0
VERTEX
  8
LAYER_1
 62
     7
  6
CONTINUOUS
 10
1.661291
 20
3.155610
  0
VERTEX
  8
LAYER_1
 62
     7
  6
CONTINUOUS
 10
1.665039
 20
2.896843
  0
VERTEX
  8
LAYER_1
 62
     7
  6
CONTINUOUS
 10
1.669202
 20
2.638491
  0
VERTEX
  8
LAYER_1
 62
     7
  6
CONTINUOUS
 10
1.674193
 20
2.380346
  0
SEQEND
  8
0
  0
POLYLINE
  8
LAYER_1
 62
     7
  6
CONTINUOUS
 66
     1
 40
0.011055
 41
0.011055
  0
VERTEX
  8
LAYER_1
 62
     7
  6
CONTINUOUS
 10
1.674193
 20
2.380346
  0
VERTEX
  8
LAYER_1
 62
     7
  6
CONTINUOUS
 10
1.680302
 20
2.122259
  0
VERTEX
  8
LAYER_1
 62
     7
  6
CONTINUOUS
 10
1.687435
 20
1.864381
  0
VERTEX
  8
LAYER_1
 62
     7
  6
CONTINUOUS
 10
1.695386
 20
1.606913
  0
SEQEND
  8
0
  0
POLYLINE
  8
LAYER_1
 62
     7
  6
CONTINUOUS
 66
     1
 40
0.011055
 41
0.011055
  0
VERTEX
  8
LAYER_1
 62
     7
  6
CONTINUOUS
 10
1.695386
 20
1.606913
  0
VERTEX
  8
LAYER_1
 62
     7
  6
CONTINUOUS
 10
1.703995
 20
1.350026
  0
VERTEX
  8
LAYER_1
 62
     7
  6
CONTINUOUS
 10
1.713215
 20
1.093751
  0
VERTEX
  8
LAYER_1
 62
     7
  6
CONTINUOUS
 10
1.723055
 20
0.838094
  0
SEQEND
  8
0
  0
POLYLINE
  8
LAYER_1
 62
     7
  6
CONTINUOUS
 66
     1
 40
0.011055
 41
0.011055
  0
VERTEX
  8
LAYER_1
 62
     7
  6
CONTINUOUS
 10
1.723055
 20
0.838094
  0
VERTEX
  8
LAYER_1
 62
     7
  6
CONTINUOUS
 10
1.733533
 20
0.583088
  0
VERTEX
  8
LAYER_1
 62
     7
  6
CONTINUOUS
 10
1.744829
 20
0.328899
  0
VERTEX
  8
LAYER_1
 62
     7
  6
CONTINUOUS
 10
1.757150
 20
0.075732
  0
SEQEND
  8
0
  0
POLYLINE
  8
LAYER_1
 62
     7
  6
CONTINUOUS
 66
     1
 40
0.011055
 41
0.011055
  0
VERTEX
  8
LAYER_1
 62
     7
  6
CONTINUOUS
 10
1.757150
 20
0.075732
  0
VERTEX
  8
LAYER_1
 62
     7
  6
CONTINUOUS
 10
1.770636
 20
-0.176235
  0
VERTEX
  8
LAYER_1
 62
     7
  6
CONTINUOUS
 10
1.785148
 20
-0.426976
  0
VERTEX
  8
LAYER_1
 62
     7
  6
CONTINUOUS
 10
1.800484
 20
-0.676484
  0
SEQEND
  8
0
  0
POLYLINE
  8
LAYER_1
 62
     7
  6
CONTINUOUS
 66
     1
 40
0.011055
 41
0.011055
  0
VERTEX
  8
LAYER_1
 62
     7
  6
CONTINUOUS
 10
1.800484
 20
-0.676484
  0
VERTEX
  8
LAYER_1
 62
     7
  6
CONTINUOUS
 10
1.816528
 20
-0.924736
  0
VERTEX
  8
LAYER_1
 62
     7
  6
CONTINUOUS
 10
1.833601
 20
-1.171554
  0
VERTEX
  8
LAYER_1
 62
     7
  6
CONTINUOUS
 10
1.852110
 20
-1.416732
  0
SEQEND
  8
0
  0
POLYLINE
  8
LAYER_1
 62
     7
  6
CONTINUOUS
 66
     1
 40
0.011055
 41
0.011055
  0
VERTEX
  8
LAYER_1
 62
     7
  6
CONTINUOUS
 10
1.852110
 20
-1.416732
  0
VERTEX
  8
LAYER_1
 62
     7
  6
CONTINUOUS
 10
1.872382
 20
-1.659957
  0
VERTEX
  8
LAYER_1
 62
     7
  6
CONTINUOUS
 10
1.894503
 20
-1.900524
  0
VERTEX
  8
LAYER_1
 62
     7
  6
CONTINUOUS
 10
1.918469
 20
-2.137610
  0
SEQEND
  8
0
  0
POLYLINE
  8
LAYER_1
 62
     7
  6
CONTINUOUS
 66
     1
 40
0.011055
 41
0.011055
  0
VERTEX
  8
LAYER_1
 62
     7
  6
CONTINUOUS
 10
1.918469
 20
-2.137610
  0
VERTEX
  8
LAYER_1
 62
     7
  6
CONTINUOUS
 10
1.944290
 20
-2.370424
  0
VERTEX
  8
LAYER_1
 62
     7
  6
CONTINUOUS
 10
1.971947
 20
-2.598323
  0
VERTEX
  8
LAYER_1
 62
     7
  6
CONTINUOUS
 10
2.001441
 20
-2.820693
  0
SEQEND
  8
0
  0
POLYLINE
  8
LAYER_1
 62
     7
  6
CONTINUOUS
 66
     1
 40
0.011055
 41
0.011055
  0
VERTEX
  8
LAYER_1
 62
     7
  6
CONTINUOUS
 10
2.001441
 20
-2.820693
  0
VERTEX
  8
LAYER_1
 62
     7
  6
CONTINUOUS
 10
2.032750
 20
-3.036679
  0
VERTEX
  8
LAYER_1
 62
     7
  6
CONTINUOUS
 10
2.065700
 20
-3.244469
  0
VERTEX
  8
LAYER_1
 62
     7
  6
CONTINUOUS
 10
2.100083
 20
-3.442012
  0
SEQEND
  8
0
  0
POLYLINE
  8
LAYER_1
 62
     7
  6
CONTINUOUS
 66
     1
 40
0.011055
 41
0.011055
  0
VERTEX
  8
LAYER_1
 62
     7
  6
CONTINUOUS
 10
2.100083
 20
-3.442012
  0
VERTEX
  8
LAYER_1
 62
     7
  6
CONTINUOUS
 10
2.135589
 20
-3.627376
  0
VERTEX
  8
LAYER_1
 62
     7
  6
CONTINUOUS
 10
2.171506
 20
-3.799010
  0
VERTEX
  8
LAYER_1
 62
     7
  6
CONTINUOUS
 10
2.207012
 20
-3.955484
  0
SEQEND
  8
0
  0
POLYLINE
  8
LAYER_1
 62
     7
  6
CONTINUOUS
 66
     1
 40
0.011055
 41
0.011055
  0
VERTEX
  8
LAYER_1
 62
     7
  6
CONTINUOUS
 10
2.207012
 20
-3.955484
  0
VERTEX
  8
LAYER_1
 62
     7
  6
CONTINUOUS
 10
2.241427
 20
-4.095707
  0
VERTEX
  8
LAYER_1
 62
     7
  6
CONTINUOUS
 10
2.274614
 20
-4.219951
  0
VERTEX
  8
LAYER_1
 62
     7
  6
CONTINUOUS
 10
2.306567
 20
-4.328831
  0
SEQEND
  8
0
  0
POLYLINE
  8
LAYER_1
 62
     7
  6
CONTINUOUS
 66
     1
 40
0.011055
 41
0.011055
  0
VERTEX
  8
LAYER_1
 62
     7
  6
CONTINUOUS
 10
2.306567
 20
-4.328831
  0
VERTEX
  8
LAYER_1
 62
     7
  6
CONTINUOUS
 10
2.337264
 20
-4.423200
  0
VERTEX
  8
LAYER_1
 62
     7
  6
CONTINUOUS
 10
2.366526
 20
-4.504869
  0
VERTEX
  8
LAYER_1
 62
     7
  6
CONTINUOUS
 10
2.394150
 20
-4.575886
  0
SEQEND
  8
0
  0
POLYLINE
  8
LAYER_1
 62
     7
  6
CONTINUOUS
 66
     1
 40
0.011055
 41
0.011055
  0
VERTEX
  8
LAYER_1
 62
     7
  6
CONTINUOUS
 10
2.394150
 20
-4.575886
  0
VERTEX
  8
LAYER_1
 62
     7
  6
CONTINUOUS
 10
2.419995
 20
-4.638121
  0
VERTEX
  8
LAYER_1
 62
     7
  6
CONTINUOUS
 10
2.444199
 20
-4.692782
  0
VERTEX
  8
LAYER_1
 62
     7
  6
CONTINUOUS
 10
2.466969
 20
-4.740886
  0
SEQEND
  8
0
  0
POLYLINE
  8
LAYER_1
 62
     7
  6
CONTINUOUS
 66
     1
 40
0.011055
 41
0.011055
  0
VERTEX
  8
LAYER_1
 62
     7
  6
CONTINUOUS
 10
2.466969
 20
-4.740886
  0
VERTEX
  8
LAYER_1
 62
     7
  6
CONTINUOUS
 10
2.488548
 20
-4.783398
  0
VERTEX
  8
LAYER_1
 62
     7
  6
CONTINUOUS
 10
2.509309
 20
-4.820987
  0
VERTEX
  8
LAYER_1
 62
     7
  6
CONTINUOUS
 10
2.529665
 20
-4.854276
  0
SEQEND
  8
0
  0
POLYLINE
  8
LAYER_1
 62
     7
  6
CONTINUOUS
 66
     1
 40
0.011055
 41
0.011055
  0
VERTEX
  8
LAYER_1
 62
     7
  6
CONTINUOUS
 10
2.529665
 20
-4.854276
  0
VERTEX
  8
LAYER_1
 62
     7
  6
CONTINUOUS
 10
2.549908
 20
-4.883810
  0
VERTEX
  8
LAYER_1
 62
     7
  6
CONTINUOUS
 10
2.569949
 20
-4.909861
  0
VERTEX
  8
LAYER_1
 62
     7
  6
CONTINUOUS
 10
2.589583
 20
-4.932638
  0
SEQEND
  8
0
  0
POLYLINE
  8
LAYER_1
 62
     7
  6
CONTINUOUS
 66
     1
 40
0.011055
 41
0.011055
  0
VERTEX
  8
LAYER_1
 62
     7
  6
CONTINUOUS
 10
2.589583
 20
-4.932638
  0
VERTEX
  8
LAYER_1
 62
     7
  6
CONTINUOUS
 10
2.608701
 20
-4.952332
  0
VERTEX
  8
LAYER_1
 62
     7
  6
CONTINUOUS
 10
2.627614
 20
-4.969164
  0
VERTEX
  8
LAYER_1
 62
     7
  6
CONTINUOUS
 10
2.646732
 20
-4.983331
  0
SEQEND
  8
0
  0
POLYLINE
  8
LAYER_1
 62
     7
  6
CONTINUOUS
 66
     1
 40
0.011055
 41
0.011055
  0
VERTEX
  8
LAYER_1
 62
     7
  6
CONTINUOUS
 10
2.646732
 20
-4.983331
  0
VERTEX
  8
LAYER_1
 62
     7
  6
CONTINUOUS
 10
2.666366
 20
-4.994979
  0
VERTEX
  8
LAYER_1
 62
     7
  6
CONTINUOUS
 10
2.686407
 20
-5.003957
  0
VERTEX
  8
LAYER_1
 62
     7
  6
CONTINUOUS
 10
2.706650
 20
-5.010067
  0
SEQEND
  8
0
  0
POLYLINE
  8
LAYER_1
 62
     7
  6
CONTINUOUS
 66
     1
 40
0.011055
 41
0.011055
  0
VERTEX
  8
LAYER_1
 62
     7
  6
CONTINUOUS
 10
2.706650
 20
-5.010067
  0
VERTEX
  8
LAYER_1
 62
     7
  6
CONTINUOUS
 10
2.726929
 20
-5.013140
  0
VERTEX
  8
LAYER_1
 62
     7
  6
CONTINUOUS
 10
2.747210
 20
-5.013140
  0
VERTEX
  8
LAYER_1
 62
     7
  6
CONTINUOUS
 10
2.767500
 20
-5.010067
  0
SEQEND
  8
0
  0
POLYLINE
  8
LAYER_1
 62
     7
  6
CONTINUOUS
 66
     1
 40
0.011055
 41
0.011055
  0
VERTEX
  8
LAYER_1
 62
     7
  6
CONTINUOUS
 10
2.767500
 20
-5.010067
  0
VERTEX
  8
LAYER_1
 62
     7
  6
CONTINUOUS
 10
2.787743
 20
-5.003957
  0
VERTEX
  8
LAYER_1
 62
     7
  6
CONTINUOUS
 10
2.807782
 20
-4.994979
  0
VERTEX
  8
LAYER_1
 62
     7
  6
CONTINUOUS
 10
2.827413
 20
-4.983331
  0
SEQEND
  8
0
  0
POLYLINE
  8
LAYER_1
 62
     7
  6
CONTINUOUS
 66
     1
 40
0.011055
 41
0.011055
  0
VERTEX
  8
LAYER_1
 62
     7
  6
CONTINUOUS
 10
2.827413
 20
-4.983331
  0
VERTEX
  8
LAYER_1
 62
     7
  6
CONTINUOUS
 10
2.846534
 20
-4.969164
  0
VERTEX
  8
LAYER_1
 62
     7
  6
CONTINUOUS
 10
2.865447
 20
-4.952332
  0
VERTEX
  8
LAYER_1
 62
     7
  6
CONTINUOUS
 10
2.884567
 20
-4.932638
  0
SEQEND
  8
0
  0
POLYLINE
  8
LAYER_1
 62
     7
  6
CONTINUOUS
 66
     1
 40
0.011055
 41
0.011055
  0
VERTEX
  8
LAYER_1
 62
     7
  6
CONTINUOUS
 10
2.884567
 20
-4.932638
  0
VERTEX
  8
LAYER_1
 62
     7
  6
CONTINUOUS
 10
2.904234
 20
-4.909861
  0
VERTEX
  8
LAYER_1
 62
     7
  6
CONTINUOUS
 10
2.924515
 20
-4.883810
  0
VERTEX
  8
LAYER_1
 62
     7
  6
CONTINUOUS
 10
2.945413
 20
-4.854276
  0
SEQEND
  8
0
  0
POLYLINE
  8
LAYER_1
 62
     7
  6
CONTINUOUS
 66
     1
 40
0.011055
 41
0.011055
  0
VERTEX
  8
LAYER_1
 62
     7
  6
CONTINUOUS
 10
2.945413
 20
-4.854276
  0
VERTEX
  8
LAYER_1
 62
     7
  6
CONTINUOUS
 10
2.966885
 20
-4.820987
  0
VERTEX
  8
LAYER_1
 62
     7
  6
CONTINUOUS
 10
2.988768
 20
-4.783398
  0
VERTEX
  8
LAYER_1
 62
     7
  6
CONTINUOUS
 10
3.010858
 20
-4.740886
  0
SEQEND
  8
0
  0
POLYLINE
  8
LAYER_1
 62
     7
  6
CONTINUOUS
 66
     1
 40
0.011055
 41
0.011055
  0
VERTEX
  8
LAYER_1
 62
     7
  6
CONTINUOUS
 10
3.010858
 20
-4.740886
  0
VERTEX
  8
LAYER_1
 62
     7
  6
CONTINUOUS
 10
3.033120
 20
-4.692782
  0
VERTEX
  8
LAYER_1
 62
     7
  6
CONTINUOUS
 10
3.056200
 20
-4.638121
  0
VERTEX
  8
LAYER_1
 62
     7
  6
CONTINUOUS
 10
3.080913
 20
-4.575886
  0
SEQEND
  8
0
  0
POLYLINE
  8
LAYER_1
 62
     7
  6
CONTINUOUS
 66
     1
 40
0.011055
 41
0.011055
  0
VERTEX
  8
LAYER_1
 62
     7
  6
CONTINUOUS
 10
3.080913
 20
-4.575886
  0
VERTEX
  8
LAYER_1
 62
     7
  6
CONTINUOUS
 10
3.107891
 20
-4.504869
  0
VERTEX
  8
LAYER_1
 62
     7
  6
CONTINUOUS
 10
3.136912
 20
-4.423200
  0
VERTEX
  8
LAYER_1
 62
     7
  6
CONTINUOUS
 10
3.167567
 20
-4.328831
  0
SEQEND
  8
0
  0
POLYLINE
  8
LAYER_1
 62
     7
  6
CONTINUOUS
 66
     1
 40
0.011055
 41
0.011055
  0
VERTEX
  8
LAYER_1
 62
     7
  6
CONTINUOUS
 10
3.167567
 20
-4.328831
  0
VERTEX
  8
LAYER_1
 62
     7
  6
CONTINUOUS
 10
3.199529
 20
-4.219951
  0
VERTEX
  8
LAYER_1
 62
     7
  6
CONTINUOUS
 10
3.232721
 20
-4.095707
  0
VERTEX
  8
LAYER_1
 62
     7
  6
CONTINUOUS
 10
3.267138
 20
-3.955484
  0
SEQEND
  8
0
  0
POLYLINE
  8
LAYER_1
 62
     7
  6
CONTINUOUS
 66
     1
 40
0.011055
 41
0.011055
  0
VERTEX
  8
LAYER_1
 62
     7
  6
CONTINUOUS
 10
3.267138
 20
-3.955484
  0
VERTEX
  8
LAYER_1
 62
     7
  6
CONTINUOUS
 10
3.302644
 20
-3.799010
  0
VERTEX
  8
LAYER_1
 62
     7
  6
CONTINUOUS
 10
3.338561
 20
-3.627376
  0
VERTEX
  8
LAYER_1
 62
     7
  6
CONTINUOUS
 10
3.374067
 20
-3.442012
  0
SEQEND
  8
0
  0
POLYLINE
  8
LAYER_1
 62
     7
  6
CONTINUOUS
 66
     1
 40
0.011055
 41
0.011055
  0
VERTEX
  8
LAYER_1
 62
     7
  6
CONTINUOUS
 10
3.374067
 20
-3.442012
  0
VERTEX
  8
LAYER_1
 62
     7
  6
CONTINUOUS
 10
3.408449
 20
-3.244469
  0
VERTEX
  8
LAYER_1
 62
     7
  6
CONTINUOUS
 10
3.441399
 20
-3.036679
  0
VERTEX
  8
LAYER_1
 62
     7
  6
CONTINUOUS
 10
3.472705
 20
-2.820693
  0
SEQEND
  8
0
  0
POLYLINE
  8
LAYER_1
 62
     7
  6
CONTINUOUS
 66
     1
 40
0.011055
 41
0.011055
  0
VERTEX
  8
LAYER_1
 62
     7
  6
CONTINUOUS
 10
3.472705
 20
-2.820693
  0
VERTEX
  8
LAYER_1
 62
     7
  6
CONTINUOUS
 10
3.502201
 20
-2.598323
  0
VERTEX
  8
LAYER_1
 62
     7
  6
CONTINUOUS
 10
3.529854
 20
-2.370424
  0
VERTEX
  8
LAYER_1
 62
     7
  6
CONTINUOUS
 10
3.555665
 20
-2.137610
  0
SEQEND
  8
0
  0
POLYLINE
  8
LAYER_1
 62
     7
  6
CONTINUOUS
 66
     1
 40
0.011055
 41
0.011055
  0
VERTEX
  8
LAYER_1
 62
     7
  6
CONTINUOUS
 10
3.555665
 20
-2.137610
  0
VERTEX
  8
LAYER_1
 62
     7
  6
CONTINUOUS
 10
3.579633
 20
-1.900524
  0
VERTEX
  8
LAYER_1
 62
     7
  6
CONTINUOUS
 10
3.601757
 20
-1.659957
  0
VERTEX
  8
LAYER_1
 62
     7
  6
CONTINUOUS
 10
3.622039
 20
-1.416732
  0
SEQEND
  8
0
  0
POLYLINE
  8
LAYER_1
 62
     7
  6
CONTINUOUS
 66
     1
 40
0.011055
 41
0.011055
  0
VERTEX
  8
LAYER_1
 62
     7
  6
CONTINUOUS
 10
3.622039
 20
-1.416732
  0
VERTEX
  8
LAYER_1
 62
     7
  6
CONTINUOUS
 10
3.640547
 20
-1.171554
  0
VERTEX
  8
LAYER_1
 62
     7
  6
CONTINUOUS
 10
3.657619
 20
-0.924736
  0
VERTEX
  8
LAYER_1
 62
     7
  6
CONTINUOUS
 10
3.673665
 20
-0.676484
  0
SEQEND
  8
0
  0
POLYLINE
  8
LAYER_1
 62
     7
  6
CONTINUOUS
 66
     1
 40
0.011055
 41
0.011055
  0
VERTEX
  8
LAYER_1
 62
     7
  6
CONTINUOUS
 10
3.673665
 20
-0.676484
  0
VERTEX
  8
LAYER_1
 62
     7
  6
CONTINUOUS
 10
3.688992
 20
-0.426976
  0
VERTEX
  8
LAYER_1
 62
     7
  6
CONTINUOUS
 10
3.703505
 20
-0.176235
  0
VERTEX
  8
LAYER_1
 62
     7
  6
CONTINUOUS
 10
3.717000
 20
0.075732
  0
SEQEND
  8
0
  0
POLYLINE
  8
LAYER_1
 62
     7
  6
CONTINUOUS
 66
     1
 40
0.011055
 41
0.011055
  0
VERTEX
  8
LAYER_1
 62
     7
  6
CONTINUOUS
 10
3.717000
 20
0.075732
  0
VERTEX
  8
LAYER_1
 62
     7
  6
CONTINUOUS
 10
3.729321
 20
0.328899
  0
VERTEX
  8
LAYER_1
 62
     7
  6
CONTINUOUS
 10
3.740617
 20
0.583088
  0
VERTEX
  8
LAYER_1
 62
     7
  6
CONTINUOUS
 10
3.751094
 20
0.838094
  0
SEQEND
  8
0
  0
POLYLINE
  8
LAYER_1
 62
     7
  6
CONTINUOUS
 66
     1
 40
0.011055
 41
0.011055
  0
VERTEX
  8
LAYER_1
 62
     7
  6
CONTINUOUS
 10
3.751094
 20
0.838094
  0
VERTEX
  8
LAYER_1
 62
     7
  6
CONTINUOUS
 10
3.760928
 20
1.093751
  0
VERTEX
  8
LAYER_1
 62
     7
  6
CONTINUOUS
 10
3.770151
 20
1.350026
  0
VERTEX
  8
LAYER_1
 62
     7
  6
CONTINUOUS
 10
3.778764
 20
1.606913
  0
SEQEND
  8
0
  0
POLYLINE
  8
LAYER_1
 62
     7
  6
CONTINUOUS
 66
     1
 40
0.011055
 41
0.011055
  0
VERTEX
  8
LAYER_1
 62
     7
  6
CONTINUOUS
 10
3.778764
 20
1.606913
  0
VERTEX
  8
LAYER_1
 62
     7
  6
CONTINUOUS
 10
3.786715
 20
1.864381
  0
VERTEX
  8
LAYER_1
 62
     7
  6
CONTINUOUS
 10
3.793848
 20
2.122259
  0
VERTEX
  8
LAYER_1
 62
     7
  6
CONTINUOUS
 10
3.799957
 20
2.380346
  0
SEQEND
  8
0
  0
POLYLINE
  8
LAYER_1
 62
     7
  6
CONTINUOUS
 66
     1
 40
0.011055
 41
0.011055
  0
VERTEX
  8
LAYER_1
 62
     7
  6
CONTINUOUS
 10
3.799957
 20
2.380346
  0
VERTEX
  8
LAYER_1
 62
     7
  6
CONTINUOUS
 10
3.804940
 20
2.638491
  0
VERTEX
  8
LAYER_1
 62
     7
  6
CONTINUOUS
 10
3.809106
 20
2.896843
  0
VERTEX
  8
LAYER_1
 62
     7
  6
CONTINUOUS
 10
3.812858
 20
3.155610
  0
SEQEND
  8
0
  0
POLYLINE
  8
LAYER_1
 62
     7
  6
CONTINUOUS
 66
     1
 40
0.011055
 41
0.011055
  0
VERTEX
  8
LAYER_1
 62
     7
  6
CONTINUOUS
 10
3.812858
 20
3.155610
  0
VERTEX
  8
LAYER_1
 62
     7
  6
CONTINUOUS
 10
3.816515
 20
3.414922
  0
VERTEX
  8
LAYER_1
 62
     7
  6
CONTINUOUS
 10
3.819961
 20
3.674643
  0
VERTEX
  8
LAYER_1
 62
     7
  6
CONTINUOUS
 10
3.822996
 20
3.934567
  0
SEQEND
  8
0
  0
POLYLINE
  8
LAYER_1
 62
     7
  6
CONTINUOUS
 66
     1
 40
0.011055
 41
0.011055
  0
VERTEX
  8
LAYER_1
 62
     7
  6
CONTINUOUS
 10
3.822996
 20
3.934567
  0
VERTEX
  8
LAYER_1
 62
     7
  6
CONTINUOUS
 10
3.825462
 20
4.194560
  0
VERTEX
  8
LAYER_1
 62
     7
  6
CONTINUOUS
 10
3.827307
 20
4.454756
  0
VERTEX
  8
LAYER_1
 62
     7
  6
CONTINUOUS
 10
3.828539
 20
4.715358
  0
SEQEND
  8
0
  0
POLYLINE
  8
LAYER_1
 62
     7
  6
CONTINUOUS
 66
     1
 40
0.011055
 41
0.011055
  0
VERTEX
  8
LAYER_1
 62
     7
  6
CONTINUOUS
 10
3.828539
 20
4.715358
  0
VERTEX
  8
LAYER_1
 62
     7
  6
CONTINUOUS
 10
3.829151
 20
4.976520
  0
VERTEX
  8
LAYER_1
 62
     7
  6
CONTINUOUS
 10
3.829151
 20
5.238088
  0
VERTEX
  8
LAYER_1
 62
     7
  6
CONTINUOUS
 10
3.828539
 20
5.499858
  0
SEQEND
  8
0
  0
POLYLINE
  8
LAYER_1
 62
     7
  6
CONTINUOUS
 66
     1
 40
0.011055
 41
0.011055
  0
VERTEX
  8
LAYER_1
 62
     7
  6
CONTINUOUS
 10
3.828539
 20
5.499858
  0
VERTEX
  8
LAYER_1
 62
     7
  6
CONTINUOUS
 10
3.827341
 20
5.761654
  0
VERTEX
  8
LAYER_1
 62
     7
  6
CONTINUOUS
 10
3.825739
 20
6.023457
  0
VERTEX
  8
LAYER_1
 62
     7
  6
CONTINUOUS
 10
3.823929
 20
6.285264
  0
SEQEND
  8
0
  0
POLYLINE
  8
LAYER_1
 62
     7
  6
CONTINUOUS
 66
     1
 40
0.011055
 41
0.011055
  0
VERTEX
  8
LAYER_1
 62
     7
  6
CONTINUOUS
 10
3.823929
 20
6.285264
  0
VERTEX
  8
LAYER_1
 62
     7
  6
CONTINUOUS
 10
3.822048
 20
6.547068
  0
VERTEX
  8
LAYER_1
 62
     7
  6
CONTINUOUS
 10
3.819962
 20
6.808873
  0
VERTEX
  8
LAYER_1
 62
     7
  6
CONTINUOUS
 10
3.817469
 20
7.070677
  0
SEQEND
  8
0
  0
POLYLINE
  8
LAYER_1
 62
     7
  6
CONTINUOUS
 66
     1
 40
0.011055
 41
0.011055
  0
VERTEX
  8
LAYER_1
 62
     7
  6
CONTINUOUS
 10
3.817469
 20
7.070677
  0
VERTEX
  8
LAYER_1
 62
     7
  6
CONTINUOUS
 10
3.814399
 20
7.332480
  0
VERTEX
  8
LAYER_1
 62
     7
  6
CONTINUOUS
 10
3.810716
 20
7.594280
  0
VERTEX
  8
LAYER_1
 62
     7
  6
CONTINUOUS
 10
3.806413
 20
7.856083
  0
SEQEND
  8
0
  0
POLYLINE
  8
LAYER_1
 62
     7
  6
CONTINUOUS
 66
     1
 40
0.011055
 41
0.011055
  0
VERTEX
  8
LAYER_1
 62
     7
  6
CONTINUOUS
 10
3.806413
 20
7.856083
  0
VERTEX
  8
LAYER_1
 62
     7
  6
CONTINUOUS
 10
3.801531
 20
8.117852
  0
VERTEX
  8
LAYER_1
 62
     7
  6
CONTINUOUS
 10
3.796237
 20
8.379417
  0
VERTEX
  8
LAYER_1
 62
     7
  6
CONTINUOUS
 10
3.790732
 20
8.640567
  0
SEQEND
  8
0
  0
POLYLINE
  8
LAYER_1
 62
     7
  6
CONTINUOUS
 66
     1
 40
0.011055
 41
0.011055
  0
VERTEX
  8
LAYER_1
 62
     7
  6
CONTINUOUS
 10
3.790732
 20
8.640567
  0
VERTEX
  8
LAYER_1
 62
     7
  6
CONTINUOUS
 10
3.785170
 20
8.901214
  0
VERTEX
  8
LAYER_1
 62
     7
  6
CONTINUOUS
 10
3.779402
 20
9.161652
  0
VERTEX
  8
LAYER_1
 62
     7
  6
CONTINUOUS
 10
3.773220
 20
9.422291
  0
SEQEND
  8
0
  0
POLYLINE
  8
LAYER_1
 62
     7
  6
CONTINUOUS
 66
     1
 40
0.011055
 41
0.011055
  0
VERTEX
  8
LAYER_1
 62
     7
  6
CONTINUOUS
 10
3.773220
 20
9.422291
  0
VERTEX
  8
LAYER_1
 62
     7
  6
CONTINUOUS
 10
3.766500
 20
9.683416
  0
VERTEX
  8
LAYER_1
 62
     7
  6
CONTINUOUS
 10
3.759367
 20
9.944742
  0
VERTEX
  8
LAYER_1
 62
     7
  6
CONTINUOUS
 10
3.752028
 20
10.205858
  0
SEQEND
  8
0
  0
POLYLINE
  8
LAYER_1
 62
     7
  6
CONTINUOUS
 66
     1
 40
0.011055
 41
0.011055
  0
VERTEX
  8
LAYER_1
 62
     7
  6
CONTINUOUS
 10
3.752028
 20
10.205858
  0
VERTEX
  8
LAYER_1
 62
     7
  6
CONTINUOUS
 10
3.744582
 20
10.466472
  0
VERTEX
  8
LAYER_1
 62
     7
  6
CONTINUOUS
 10
3.736729
 20
10.726671
  0
VERTEX
  8
LAYER_1
 62
     7
  6
CONTINUOUS
 10
3.728055
 20
10.986665
  0
SEQEND
  8
0
  0
POLYLINE
  8
LAYER_1
 62
     7
  6
CONTINUOUS
 66
     1
 40
0.011055
 41
0.011055
  0
VERTEX
  8
LAYER_1
 62
     7
  6
CONTINUOUS
 10
3.728055
 20
10.986665
  0
VERTEX
  8
LAYER_1
 62
     7
  6
CONTINUOUS
 10
3.718288
 20
11.246589
  0
VERTEX
  8
LAYER_1
 62
     7
  6
CONTINUOUS
 10
3.707703
 20
11.506310
  0
VERTEX
  8
LAYER_1
 62
     7
  6
CONTINUOUS
 10
3.696705
 20
11.765622
  0
SEQEND
  8
0
  0
POLYLINE
  8
LAYER_1
 62
     7
  6
CONTINUOUS
 66
     1
 40
0.011055
 41
0.011055
  0
VERTEX
  8
LAYER_1
 62
     7
  6
CONTINUOUS
 10
3.696705
 20
11.765622
  0
VERTEX
  8
LAYER_1
 62
     7
  6
CONTINUOUS
 10
3.685578
 20
12.024382
  0
VERTEX
  8
LAYER_1
 62
     7
  6
CONTINUOUS
 10
3.674037
 20
12.282738
  0
VERTEX
  8
LAYER_1
 62
     7
  6
CONTINUOUS
 10
3.661677
 20
12.540886
  0
SEQEND
  8
0
  0
POLYLINE
  8
LAYER_1
 62
     7
  6
CONTINUOUS
 66
     1
 40
0.011055
 41
0.011055
  0
VERTEX
  8
LAYER_1
 62
     7
  6
CONTINUOUS
 10
3.661677
 20
12.540886
  0
VERTEX
  8
LAYER_1
 62
     7
  6
CONTINUOUS
 10
3.648228
 20
12.798966
  0
VERTEX
  8
LAYER_1
 62
     7
  6
CONTINUOUS
 10
3.633958
 20
13.056847
  0
VERTEX
  8
LAYER_1
 62
     7
  6
CONTINUOUS
 10
3.619276
 20
13.314319
  0
SEQEND
  8
0
  0
POLYLINE
  8
LAYER_1
 62
     7
  6
CONTINUOUS
 66
     1
 40
0.011055
 41
0.011055
  0
VERTEX
  8
LAYER_1
 62
     7
  6
CONTINUOUS
 10
3.619276
 20
13.314319
  0
VERTEX
  8
LAYER_1
 62
     7
  6
CONTINUOUS
 10
3.604458
 20
13.571237
  0
VERTEX
  8
LAYER_1
 62
     7
  6
CONTINUOUS
 10
3.589228
 20
13.827746
  0
VERTEX
  8
LAYER_1
 62
     7
  6
CONTINUOUS
 10
3.573177
 20
14.084055
  0
SEQEND
  8
0
  0
POLYLINE
  8
LAYER_1
 62
     7
  6
CONTINUOUS
 66
     1
 40
0.011055
 41
0.011055
  0
VERTEX
  8
LAYER_1
 62
     7
  6
CONTINUOUS
 10
3.573177
 20
14.084055
  0
VERTEX
  8
LAYER_1
 62
     7
  6
CONTINUOUS
 10
3.556009
 20
14.340328
  0
VERTEX
  8
LAYER_1
 62
     7
  6
CONTINUOUS
 10
3.537810
 20
14.596599
  0
VERTEX
  8
LAYER_1
 62
     7
  6
CONTINUOUS
 10
3.518791
 20
14.852874
  0
SEQEND
  8
0
  0
POLYLINE
  8
LAYER_1
 62
     7
  6
CONTINUOUS
 66
     1
 40
0.011055
 41
0.011055
  0
VERTEX
  8
LAYER_1
 62
     7
  6
CONTINUOUS
 10
3.518791
 20
14.852874
  0
VERTEX
  8
LAYER_1
 62
     7
  6
CONTINUOUS
 10
3.499129
 20
15.109107
  0
VERTEX
  8
LAYER_1
 62
     7
  6
CONTINUOUS
 10
3.478848
 20
15.365140
  0
VERTEX
  8
LAYER_1
 62
     7
  6
CONTINUOUS
 10
3.457957
 20
15.620764
  0
SEQEND
  8
0
  0
POLYLINE
  8
LAYER_1
 62
     7
  6
CONTINUOUS
 66
     1
 40
0.011055
 41
0.011055
  0
VERTEX
  8
LAYER_1
 62
     7
  6
CONTINUOUS
 10
3.457957
 20
15.620764
  0
VERTEX
  8
LAYER_1
 62
     7
  6
CONTINUOUS
 10
3.436408
 20
15.875805
  0
VERTEX
  8
LAYER_1
 62
     7
  6
CONTINUOUS
 10
3.414046
 20
16.130235
  0
VERTEX
  8
LAYER_1
 62
     7
  6
CONTINUOUS
 10
3.390665
 20
16.384055
  0
SEQEND
  8
0
  0
POLYLINE
  8
LAYER_1
 62
     7
  6
CONTINUOUS
 66
     1
 40
0.011055
 41
0.011055
  0
VERTEX
  8
LAYER_1
 62
     7
  6
CONTINUOUS
 10
3.390665
 20
16.384055
  0
VERTEX
  8
LAYER_1
 62
     7
  6
CONTINUOUS
 10
3.366115
 20
16.637283
  0
VERTEX
  8
LAYER_1
 62
     7
  6
CONTINUOUS
 10
3.340543
 20
16.890104
  0
VERTEX
  8
LAYER_1
 62
     7
  6
CONTINUOUS
 10
3.314150
 20
17.142720
  0
SEQEND
  8
0
  0
POLYLINE
  8
LAYER_1
 62
     7
  6
CONTINUOUS
 66
     1
 40
0.011055
 41
0.011055
  0
VERTEX
  8
LAYER_1
 62
     7
  6
CONTINUOUS
 10
3.314150
 20
17.142720
  0
VERTEX
  8
LAYER_1
 62
     7
  6
CONTINUOUS
 10
3.287074
 20
17.395177
  0
VERTEX
  8
LAYER_1
 62
     7
  6
CONTINUOUS
 10
3.259182
 20
17.646807
  0
VERTEX
  8
LAYER_1
 62
     7
  6
CONTINUOUS
 10
3.230264
 20
17.896791
  0
SEQEND
  8
0
  0
POLYLINE
  8
LAYER_1
 62
     7
  6
CONTINUOUS
 66
     1
 40
0.011055
 41
0.011055
  0
VERTEX
  8
LAYER_1
 62
     7
  6
CONTINUOUS
 10
3.230264
 20
17.896791
  0
VERTEX
  8
LAYER_1
 62
     7
  6
CONTINUOUS
 10
3.200250
 20
18.143506
  0
VERTEX
  8
LAYER_1
 62
     7
  6
CONTINUOUS
 10
3.169622
 20
18.382024
  0
VERTEX
  8
LAYER_1
 62
     7
  6
CONTINUOUS
 10
3.139000
 20
18.606610
  0
SEQEND
  8
0
  0
POLYLINE
  8
LAYER_1
 62
     7
  6
CONTINUOUS
 66
     1
 40
0.011055
 41
0.011055
  0
VERTEX
  8
LAYER_1
 62
     7
  6
CONTINUOUS
 10
3.139000
 20
18.606610
  0
VERTEX
  8
LAYER_1
 62
     7
  6
CONTINUOUS
 10
3.109401
 20
18.810138
  0
VERTEX
  8
LAYER_1
 62
     7
  6
CONTINUOUS
 10
3.083486
 20
18.979858
  0
VERTEX
  8
LAYER_1
 62
     7
  6
CONTINUOUS
 10
3.064331
 20
19.101638
  0
SEQEND
  8
0
  0
POLYLINE
  8
LAYER_1
 62
     7
  6
CONTINUOUS
 66
     1
 40
0.011055
 41
0.011055
  0
VERTEX
  8
LAYER_1
 62
     7
  6
CONTINUOUS
 10
3.064331
 20
19.101638
  0
VERTEX
  8
LAYER_1
 62
     7
  6
CONTINUOUS
 10
3.053952
 20
19.167160
  0
VERTEX
  8
LAYER_1
 62
     7
  6
CONTINUOUS
 10
3.050129
 20
19.191300
  0
VERTEX
  8
LAYER_1
 62
     7
  6
CONTINUOUS
 10
3.049583
 20
19.194748
  0
SEQEND
  8
0
  0
POLYLINE
  8
LAYER_1
 62
     7
  6
CONTINUOUS
 66
     1
 40
0.003000
 41
0.003000
 70
     1
  0
VERTEX
  8
LAYER_1
 62
     7
  6
CONTINUOUS
 10
-2.680594
 20
1.065331
  0
VERTEX
  8
LAYER_1
 62
     7
  6
CONTINUOUS
 10
-2.680594
 20
2.757831
  0
VERTEX
  8
LAYER_1
 62
     7
  6
CONTINUOUS
 10
-2.428929
 20
2.757831
  0
VERTEX
  8
LAYER_1
 62
     7
  6
CONTINUOUS
 10
-2.431693
 20
1.065331
  0
SEQEND
  8
0
  0
SOLID
  8
LAYER_1
 62
   253
  6
CONTINUOUS
 10
0.040677
 20
3.237650
 11
0.295106
 21
3.237650
 12
0.040677
 22
3.735441
 13
0.295106
 23
3.735441
  0
POLYLINE
  8
LAYER_1
 62
   253
  6
CONTINUOUS
 66
     1
 40
0.003000
 41
0.003000
 70
     1
  0
VERTEX
  8
LAYER_1
 62
   253
  6
CONTINUOUS
 10
0.040677
 20
3.237650
  0
VERTEX
  8
LAYER_1
 62
   253
  6
CONTINUOUS
 10
0.295106
 20
3.237650
  0
VERTEX
  8
LAYER_1
 62
   253
  6
CONTINUOUS
 10
0.295106
 20
3.735441
  0
VERTEX
  8
LAYER_1
 62
   253
  6
CONTINUOUS
 10
0.040677
 20
3.735441
  0
SEQEND
  8
0
  0
POLYLINE
  8
LAYER_1
 62
     7
  6
CONTINUOUS
 66
     1
 40
0.003000
 41
0.003000
 70
     1
  0
VERTEX
  8
LAYER_1
 62
     7
  6
CONTINUOUS
 10
0.040677
 20
3.237650
  0
VERTEX
  8
LAYER_1
 62
     7
  6
CONTINUOUS
 10
0.295106
 20
3.237650
  0
VERTEX
  8
LAYER_1
 62
     7
  6
CONTINUOUS
 10
0.295106
 20
3.735441
  0
VERTEX
  8
LAYER_1
 62
     7
  6
CONTINUOUS
 10
0.040677
 20
3.735441
  0
SEQEND
  8
0
  0
SOLID
  8
LAYER_1
 62
   253
  6
CONTINUOUS
 10
0.040677
 20
1.622583
 11
0.295106
 21
1.622583
 12
0.040677
 22
2.120374
 13
0.295106
 23
2.120374
  0
POLYLINE
  8
LAYER_1
 62
   253
  6
CONTINUOUS
 66
     1
 40
0.003000
 41
0.003000
 70
     1
  0
VERTEX
  8
LAYER_1
 62
   253
  6
CONTINUOUS
 10
0.040677
 20
1.622583
  0
VERTEX
  8
LAYER_1
 62
   253
  6
CONTINUOUS
 10
0.295106
 20
1.622583
  0
VERTEX
  8
LAYER_1
 62
   253
  6
CONTINUOUS
 10
0.295106
 20
2.120374
  0
VERTEX
  8
LAYER_1
 62
   253
  6
CONTINUOUS
 10
0.040677
 20
2.120374
  0
SEQEND
  8
0
  0
POLYLINE
  8
LAYER_1
 62
     7
  6
CONTINUOUS
 66
     1
 40
0.003000
 41
0.003000
 70
     1
  0
VERTEX
  8
LAYER_1
 62
     7
  6
CONTINUOUS
 10
0.040677
 20
1.622583
  0
VERTEX
  8
LAYER_1
 62
     7
  6
CONTINUOUS
 10
0.295106
 20
1.622583
  0
VERTEX
  8
LAYER_1
 62
     7
  6
CONTINUOUS
 10
0.295106
 20
2.120374
  0
VERTEX
  8
LAYER_1
 62
     7
  6
CONTINUOUS
 10
0.040677
 20
2.120374
  0
SEQEND
  8
0
  0
TEXT
  8
LAYER_1
 62
     7
 10
0.465811
 20
3.891181
 40
0.099712
  1
1/4" x 1/2"
 50
90.000660
 41
1.000000
  7
SN2
 71
     0
 72
     5
 11
0.465811
 21
4.446408
  0
TEXT
  8
LAYER_1
 62
     7
 10
0.587496
 20
3.891181
 40
0.099712
  1
basswood
 50
90.000660
 41
1.000000
  7
SN2
 71
     0
 72
     5
 11
0.587496
 21
4.441538
  0
TEXT
  8
LAYER_1
 62
     7
 10
0.709177
 20
3.891181
 40
0.099712
  1
servo rails
 50
90.000660
 41
1.000000
  7
SN2
 71
     0
 72
     5
 11
0.709177
 21
4.449655
  0
TEXT
  8
LAYER_1
 62
     7
 10
0.310709
 20
5.498173
 40
0.099712
  1
B
 50
90.000660
 41
1.000000
  7
SN2
 71
     0
 72
     5
 11
0.310709
 21
5.579347
  0
TEXT
  8
LAYER_1
 62
     7
 10
0.432394
 20
5.498173
 40
0.099712
  1
R
 50
90.000660
 41
1.000000
  7
SN2
 71
     0
 72
     5
 11
0.432394
 21
5.585841
  0
TEXT
  8
LAYER_1
 62
     7
 10
0.675760
 20
5.498173
 40
0.099712
  1
S
 50
90.000660
 41
1.000000
  7
SN2
 71
     0
 72
     5
 11
0.675760
 21
5.579347
  0
TEXT
  8
LAYER_1
 62
     7
 10
0.797441
 20
5.498173
 40
0.099712
  1
N
 50
90.000660
 41
1.000000
  7
SN2
 71
     0
 72
     5
 11
0.797441
 21
5.585841
  0
TEXT
  8
LAYER_1
 62
     7
 10
2.176744
 20
4.014213
 40
0.099712
  1
rudder pushrod
 50
90.000660
 41
1.000000
  7
SN2
 71
     0
 72
     5
 11
2.176744
 21
4.845430
  0
TEXT
  8
LAYER_1
 62
     7
 10
2.298429
 20
4.014213
 40
0.099712
  1
0.029" stainless
 50
90.000660
 41
1.000000
  7
SN2
 71
     0
 72
     5
 11
2.298429
 21
4.877899
  0
TEXT
  8
LAYER_1
 62
     7
 10
3.249772
 20
4.091650
 40
0.099712
  1
elevator pushrod
 50
90.000660
 41
1.000000
  7
SN2
 71
     0
 72
     5
 11
3.249772
 21
5.004040
  0
TEXT
  8
LAYER_1
 62
     7
 10
3.371457
 20
4.091650
 40
0.099712
  1
0.05" CF rod
 50
90.000660
 41
1.000000
  7
SN2
 71
     0
 72
     5
 11
3.371457
 21
4.781625
  0
POLYLINE
  8
LAYER_1
 62
     7
  6
DASHED
 66
     1
 40
0.022126
 41
0.022126
  0
VERTEX
  8
LAYER_1
 62
     7
  6
DASHED
 10
3.432610
 20
3.142929
  0
VERTEX
  8
LAYER_1
 62
     7
  6
DASHED
 10
3.433361
 20
3.160683
  0
VERTEX
  8
LAYER_1
 62
     7
  6
DASHED
 10
3.438618
 20
3.284962
  0
VERTEX
  8
LAYER_1
 62
     7
  6
DASHED
 10
3.452886
 20
3.622291
  0
SEQEND
  8
0
  0
POLYLINE
  8
LAYER_1
 62
     7
  6
DASHED
 66
     1
 40
0.022126
 41
0.022126
  0
VERTEX
  8
LAYER_1
 62
     7
  6
DASHED
 10
3.452886
 20
3.622291
  0
VERTEX
  8
LAYER_1
 62
     7
  6
DASHED
 10
3.457528
 20
3.732249
  0
VERTEX
  8
LAYER_1
 62
     7
  6
DASHED
 10
3.462706
 20
3.856283
  0
VERTEX
  8
LAYER_1
 62
     7
  6
DASHED
 10
3.468335
 20
3.993798
  0
VERTEX
  8
LAYER_1
 62
     7
  6
DASHED
 10
3.474331
 20
4.144198
  0
VERTEX
  8
LAYER_1
 62
     7
  6
DASHED
 10
3.480609
 20
4.306885
  0
VERTEX
  8
LAYER_1
 62
     7
  6
DASHED
 10
3.487085
 20
4.481263
  0
VERTEX
  8
LAYER_1
 62
     7
  6
DASHED
 10
3.493674
 20
4.666735
  0
VERTEX
  8
LAYER_1
 62
     7
  6
DASHED
 10
3.500291
 20
4.862705
  0
VERTEX
  8
LAYER_1
 62
     7
  6
DASHED
 10
3.506851
 20
5.068576
  0
VERTEX
  8
LAYER_1
 62
     7
  6
DASHED
 10
3.513271
 20
5.283752
  0
VERTEX
  8
LAYER_1
 62
     7
  6
DASHED
 10
3.519465
 20
5.507635
  0
VERTEX
  8
LAYER_1
 62
     7
  6
DASHED
 10
3.525348
 20
5.739630
  0
VERTEX
  8
LAYER_1
 62
     7
  6
DASHED
 10
3.530837
 20
5.979140
  0
VERTEX
  8
LAYER_1
 62
     7
  6
DASHED
 10
3.535846
 20
6.225567
  0
SEQEND
  8
0
  0
POLYLINE
  8
LAYER_1
 62
     7
  6
DASHED
 66
     1
 40
0.022126
 41
0.022126
  0
VERTEX
  8
LAYER_1
 62
     7
  6
DASHED
 10
3.535846
 20
6.225567
  0
VERTEX
  8
LAYER_1
 62
     7
  6
DASHED
 10
3.539027
 20
6.401841
  0
VERTEX
  8
LAYER_1
 62
     7
  6
DASHED
 10
3.541938
 20
6.580873
  0
VERTEX
  8
LAYER_1
 62
     7
  6
DASHED
 10
3.544582
 20
6.762325
  0
VERTEX
  8
LAYER_1
 62
     7
  6
DASHED
 10
3.546967
 20
6.945858
  0
VERTEX
  8
LAYER_1
 62
     7
  6
DASHED
 10
3.549098
 20
7.131134
  0
VERTEX
  8
LAYER_1
 62
     7
  6
DASHED
 10
3.550980
 20
7.317813
  0
VERTEX
  8
LAYER_1
 62
     7
  6
DASHED
 10
3.552619
 20
7.505557
  0
VERTEX
  8
LAYER_1
 62
     7
  6
DASHED
 10
3.554019
 20
7.694027
  0
VERTEX
  8
LAYER_1
 62
     7
  6
DASHED
 10
3.555188
 20
7.882884
  0
VERTEX
  8
LAYER_1
 62
     7
  6
DASHED
 10
3.556130
 20
8.071789
  0
VERTEX
  8
LAYER_1
 62
     7
  6
DASHED
 10
3.556851
 20
8.260404
  0
VERTEX
  8
LAYER_1
 62
     7
  6
DASHED
 10
3.557355
 20
8.448390
  0
VERTEX
  8
LAYER_1
 62
     7
  6
DASHED
 10
3.557650
 20
8.635408
  0
VERTEX
  8
LAYER_1
 62
     7
  6
DASHED
 10
3.557740
 20
8.821119
  0
VERTEX
  8
LAYER_1
 62
     7
  6
DASHED
 10
3.557631
 20
9.005184
  0
VERTEX
  8
LAYER_1
 62
     7
  6
DASHED
 10
3.557328
 20
9.187265
  0
VERTEX
  8
LAYER_1
 62
     7
  6
DASHED
 10
3.556838
 20
9.367023
  0
VERTEX
  8
LAYER_1
 62
     7
  6
DASHED
 10
3.556164
 20
9.544118
  0
VERTEX
  8
LAYER_1
 62
     7
  6
DASHED
 10
3.555313
 20
9.718213
  0
VERTEX
  8
LAYER_1
 62
     7
  6
DASHED
 10
3.554291
 20
9.888969
  0
SEQEND
  8
0
  0
POLYLINE
  8
LAYER_1
 62
     7
  6
DASHED
 66
     1
 40
0.022126
 41
0.022126
  0
VERTEX
  8
LAYER_1
 62
     7
  6
DASHED
 10
3.554291
 20
9.888969
  0
VERTEX
  8
LAYER_1
 62
     7
  6
DASHED
 10
3.552663
 20
10.111053
  0
VERTEX
  8
LAYER_1
 62
     7
  6
DASHED
 10
3.550706
 20
10.326923
  0
VERTEX
  8
LAYER_1
 62
     7
  6
DASHED
 10
3.548389
 20
10.536902
  0
VERTEX
  8
LAYER_1
 62
     7
  6
DASHED
 10
3.545679
 20
10.741316
  0
VERTEX
  8
LAYER_1
 62
     7
  6
DASHED
 10
3.542542
 20
10.940489
  0
VERTEX
  8
LAYER_1
 62
     7
  6
DASHED
 10
3.538947
 20
11.134745
  0
VERTEX
  8
LAYER_1
 62
     7
  6
DASHED
 10
3.534860
 20
11.324409
  0
VERTEX
  8
LAYER_1
 62
     7
  6
DASHED
 10
3.530249
 20
11.509806
  0
VERTEX
  8
LAYER_1
 62
     7
  6
DASHED
 10
3.525081
 20
11.691259
  0
VERTEX
  8
LAYER_1
 62
     7
  6
DASHED
 10
3.519323
 20
11.869094
  0
VERTEX
  8
LAYER_1
 62
     7
  6
DASHED
 10
3.512942
 20
12.043634
  0
VERTEX
  8
LAYER_1
 62
     7
  6
DASHED
 10
3.505906
 20
12.215205
  0
VERTEX
  8
LAYER_1
 62
     7
  6
DASHED
 10
3.498182
 20
12.384131
  0
VERTEX
  8
LAYER_1
 62
     7
  6
DASHED
 10
3.489738
 20
12.550737
  0
VERTEX
  8
LAYER_1
 62
     7
  6
DASHED
 10
3.480539
 20
12.715346
  0
SEQEND
  8
0
  0
POLYLINE
  8
LAYER_1
 62
     7
  6
DASHED
 66
     1
 40
0.022126
 41
0.022126
  0
VERTEX
  8
LAYER_1
 62
     7
  6
DASHED
 10
3.480539
 20
12.715346
  0
VERTEX
  8
LAYER_1
 62
     7
  6
DASHED
 10
3.469819
 20
12.889923
  0
VERTEX
  8
LAYER_1
 62
     7
  6
DASHED
 10
3.458207
 20
13.063318
  0
VERTEX
  8
LAYER_1
 62
     7
  6
DASHED
 10
3.445717
 20
13.236270
  0
VERTEX
  8
LAYER_1
 62
     7
  6
DASHED
 10
3.432359
 20
13.409516
  0
VERTEX
  8
LAYER_1
 62
     7
  6
DASHED
 10
3.418146
 20
13.583794
  0
VERTEX
  8
LAYER_1
 62
     7
  6
DASHED
 10
3.403090
 20
13.759842
  0
VERTEX
  8
LAYER_1
 62
     7
  6
DASHED
 10
3.387204
 20
13.938397
  0
VERTEX
  8
LAYER_1
 62
     7
  6
DASHED
 10
3.370499
 20
14.120198
  0
VERTEX
  8
LAYER_1
 62
     7
  6
DASHED
 10
3.352988
 20
14.305982
  0
VERTEX
  8
LAYER_1
 62
     7
  6
DASHED
 10
3.334683
 20
14.496486
  0
VERTEX
  8
LAYER_1
 62
     7
  6
DASHED
 10
3.315596
 20
14.692449
  0
VERTEX
  8
LAYER_1
 62
     7
  6
DASHED
 10
3.295739
 20
14.894609
  0
VERTEX
  8
LAYER_1
 62
     7
  6
DASHED
 10
3.275124
 20
15.103703
  0
VERTEX
  8
LAYER_1
 62
     7
  6
DASHED
 10
3.253764
 20
15.320469
  0
SEQEND
  8
0
  0
POLYLINE
  8
LAYER_1
 62
     7
  6
DASHED
 66
     1
 40
0.022126
 41
0.022126
  0
VERTEX
  8
LAYER_1
 62
     7
  6
DASHED
 10
3.253764
 20
15.320469
  0
VERTEX
  8
LAYER_1
 62
     7
  6
DASHED
 10
3.235636
 20
15.505047
  0
VERTEX
  8
LAYER_1
 62
     7
  6
DASHED
 10
3.217108
 20
15.694436
  0
VERTEX
  8
LAYER_1
 62
     7
  6
DASHED
 10
3.198276
 20
15.887745
  0
VERTEX
  8
LAYER_1
 62
     7
  6
DASHED
 10
3.179237
 20
16.084083
  0
VERTEX
  8
LAYER_1
 62
     7
  6
DASHED
 10
3.160088
 20
16.282557
  0
VERTEX
  8
LAYER_1
 62
     7
  6
DASHED
 10
3.140925
 20
16.482276
  0
VERTEX
  8
LAYER_1
 62
     7
  6
DASHED
 10
3.121846
 20
16.682348
  0
VERTEX
  8
LAYER_1
 62
     7
  6
DASHED
 10
3.102946
 20
16.881882
  0
VERTEX
  8
LAYER_1
 62
     7
  6
DASHED
 10
3.084324
 20
17.079987
  0
VERTEX
  8
LAYER_1
 62
     7
  6
DASHED
 10
3.066075
 20
17.275770
  0
VERTEX
  8
LAYER_1
 62
     7
  6
DASHED
 10
3.048297
 20
17.468340
  0
VERTEX
  8
LAYER_1
 62
     7
  6
DASHED
 10
3.031086
 20
17.656805
  0
VERTEX
  8
LAYER_1
 62
     7
  6
DASHED
 10
3.014540
 20
17.840274
  0
VERTEX
  8
LAYER_1
 62
     7
  6
DASHED
 10
2.998754
 20
18.017856
  0
VERTEX
  8
LAYER_1
 62
     7
  6
DASHED
 10
2.983826
 20
18.188658
  0
VERTEX
  8
LAYER_1
 62
     7
  6
DASHED
 10
2.969852
 20
18.351790
  0
VERTEX
  8
LAYER_1
 62
     7
  6
DASHED
 10
2.956929
 20
18.506358
  0
SEQEND
  8
0
  0
POLYLINE
  8
LAYER_1
 62
     7
  6
DASHED
 66
     1
 40
0.022126
 41
0.022126
  0
VERTEX
  8
LAYER_1
 62
     7
  6
DASHED
 10
2.956929
 20
18.506358
  0
VERTEX
  8
LAYER_1
 62
     7
  6
DASHED
 10
2.930152
 20
18.843487
  0
VERTEX
  8
LAYER_1
 62
     7
  6
DASHED
 10
2.909308
 20
19.129371
  0
VERTEX
  8
LAYER_1
 62
     7
  6
DASHED
 10
2.893559
 20
19.368524
  0
VERTEX
  8
LAYER_1
 62
     7
  6
DASHED
 10
2.882067
 20
19.565460
  0
VERTEX
  8
LAYER_1
 62
     7
  6
DASHED
 10
2.873993
 20
19.724696
  0
VERTEX
  8
LAYER_1
 62
     7
  6
DASHED
 10
2.868500
 20
19.850745
  0
VERTEX
  8
LAYER_1
 62
     7
  6
DASHED
 10
2.864748
 20
19.948122
  0
SEQEND
  8
0
  0
POLYLINE
  8
LAYER_1
 62
     7
  6
DASHED
 66
     1
 40
0.022126
 41
0.022126
  0
VERTEX
  8
LAYER_1
 62
     7
  6
DASHED
 10
2.864748
 20
19.948122
  0
VERTEX
  8
LAYER_1
 62
     7
  6
DASHED
 10
2.859559
 20
20.086948
  0
VERTEX
  8
LAYER_1
 62
     7
  6
DASHED
 10
2.857647
 20
20.138095
  0
VERTEX
  8
LAYER_1
 62
     7
  6
DASHED
 10
2.857374
 20
20.145402
  0
SEQEND
  8
0
  0
TEXT
  8
LAYER_1
 62
     7
 10
-1.245925
 20
-3.929618
 40
0.126500
  1
M.Drela   20 Feb  02
 50
90.000660
 41
1.000000
  7
SN1
 71
     0
 72
     5
 11
-1.245925
 21
-2.525316
  0
TEXT
  8
LAYER_1
 62
     7
 10
-0.784256
 20
2.264996
 40
0.099712
  1
11mm radius
 50
90.000660
 41
1.000000
  7
SN2
 71
     0
 72
     5
 11
-0.784256
 21
2.974453
  0
TEXT
  8
LAYER_1
 62
     7
 10
-0.662575
 20
2.264996
 40
0.099712
  1
servo horns
 50
90.000660
 41
1.000000
  7
SN2
 71
     0
 72
     5
 11
-0.662575
 21
2.904644
  0
POLYLINE
  8
LAYER_1
 62
     7
  6
DASHED
 66
     1
 40
0.022126
 41
0.022126
  0
VERTEX
  8
LAYER_1
 62
     7
  6
DASHED
 10
-0.458484
 20
4.255374
  0
VERTEX
  8
LAYER_1
 62
     7
  6
DASHED
 10
-0.458621
 20
4.276542
  0
VERTEX
  8
LAYER_1
 62
     7
  6
DASHED
 10
-0.459578
 20
4.424719
  0
VERTEX
  8
LAYER_1
 62
     7
  6
DASHED
 10
-0.462177
 20
4.826913
  0
SEQEND
  8
0
  0
POLYLINE
  8
LAYER_1
 62
     7
  6
DASHED
 66
     1
 40
0.022126
 41
0.022126
  0
VERTEX
  8
LAYER_1
 62
     7
  6
DASHED
 10
-0.462177
 20
4.826913
  0
VERTEX
  8
LAYER_1
 62
     7
  6
DASHED
 10
-0.462907
 20
4.940641
  0
VERTEX
  8
LAYER_1
 62
     7
  6
DASHED
 10
-0.463702
 20
5.066956
  0
VERTEX
  8
LAYER_1
 62
     7
  6
DASHED
 10
-0.464540
 20
5.205052
  0
VERTEX
  8
LAYER_1
 62
     7
  6
DASHED
 10
-0.465400
 20
5.354121
  0
VERTEX
  8
LAYER_1
 62
     7
  6
DASHED
 10
-0.466260
 20
5.513355
  0
VERTEX
  8
LAYER_1
 62
     7
  6
DASHED
 10
-0.467099
 20
5.681947
  0
VERTEX
  8
LAYER_1
 62
     7
  6
DASHED
 10
-0.467894
 20
5.859090
  0
VERTEX
  8
LAYER_1
 62
     7
  6
DASHED
 10
-0.468625
 20
6.043975
  0
VERTEX
  8
LAYER_1
 62
     7
  6
DASHED
 10
-0.469270
 20
6.235796
  0
VERTEX
  8
LAYER_1
 62
     7
  6
DASHED
 10
-0.469807
 20
6.433745
  0
VERTEX
  8
LAYER_1
 62
     7
  6
DASHED
 10
-0.470215
 20
6.637014
  0
VERTEX
  8
LAYER_1
 62
     7
  6
DASHED
 10
-0.470471
 20
6.844796
  0
VERTEX
  8
LAYER_1
 62
     7
  6
DASHED
 10
-0.470555
 20
7.056283
  0
VERTEX
  8
LAYER_1
 62
     7
  6
DASHED
 10
-0.470445
 20
7.270668
  0
VERTEX
  8
LAYER_1
 62
     7
  6
DASHED
 10
-0.470119
 20
7.487143
  0
VERTEX
  8
LAYER_1
 62
     7
  6
DASHED
 10
-0.469555
 20
7.704902
  0
SEQEND
  8
0
  0
POLYLINE
  8
LAYER_1
 62
     7
  6
DASHED
 66
     1
 40
0.022126
 41
0.022126
  0
VERTEX
  8
LAYER_1
 62
     7
  6
DASHED
 10
-0.469555
 20
7.704902
  0
VERTEX
  8
LAYER_1
 62
     7
  6
DASHED
 10
-0.468838
 20
7.898939
  0
VERTEX
  8
LAYER_1
 62
     7
  6
DASHED
 10
-0.467924
 20
8.093091
  0
VERTEX
  8
LAYER_1
 62
     7
  6
DASHED
 10
-0.466820
 20
8.287095
  0
VERTEX
  8
LAYER_1
 62
     7
  6
DASHED
 10
-0.465534
 20
8.480690
  0
VERTEX
  8
LAYER_1
 62
     7
  6
DASHED
 10
-0.464074
 20
8.673613
  0
VERTEX
  8
LAYER_1
 62
     7
  6
DASHED
 10
-0.462447
 20
8.865603
  0
VERTEX
  8
LAYER_1
 62
     7
  6
DASHED
 10
-0.460661
 20
9.056398
  0
VERTEX
  8
LAYER_1
 62
     7
  6
DASHED
 10
-0.458724
 20
9.245736
  0
VERTEX
  8
LAYER_1
 62
     7
  6
DASHED
 10
-0.456642
 20
9.433356
  0
VERTEX
  8
LAYER_1
 62
     7
  6
DASHED
 10
-0.454424
 20
9.618995
  0
VERTEX
  8
LAYER_1
 62
     7
  6
DASHED
 10
-0.452077
 20
9.802393
  0
VERTEX
  8
LAYER_1
 62
     7
  6
DASHED
 10
-0.449609
 20
9.983287
  0
VERTEX
  8
LAYER_1
 62
     7
  6
DASHED
 10
-0.447027
 20
10.161416
  0
VERTEX
  8
LAYER_1
 62
     7
  6
DASHED
 10
-0.444339
 20
10.336517
  0
VERTEX
  8
LAYER_1
 62
     7
  6
DASHED
 10
-0.441553
 20
10.508329
  0
VERTEX
  8
LAYER_1
 62
     7
  6
DASHED
 10
-0.438675
 20
10.676590
  0
VERTEX
  8
LAYER_1
 62
     7
  6
DASHED
 10
-0.435714
 20
10.841039
  0
VERTEX
  8
LAYER_1
 62
     7
  6
DASHED
 10
-0.432677
 20
11.001413
  0
SEQEND
  8
0
  0
POLYLINE
  8
LAYER_1
 62
     7
  6
DASHED
 66
     1
 40
0.022126
 41
0.022126
  0
VERTEX
  8
LAYER_1
 62
     7
  6
DASHED
 10
-0.432677
 20
11.001413
  0
VERTEX
  8
LAYER_1
 62
     7
  6
DASHED
 10
-0.428673
 20
11.201457
  0
VERTEX
  8
LAYER_1
 62
     7
  6
DASHED
 10
-0.424563
 20
11.395312
  0
VERTEX
  8
LAYER_1
 62
     7
  6
DASHED
 10
-0.420357
 20
11.583959
  0
VERTEX
  8
LAYER_1
 62
     7
  6
DASHED
 10
-0.416062
 20
11.768377
  0
VERTEX
  8
LAYER_1
 62
     7
  6
DASHED
 10
-0.411685
 20
11.949546
  0
VERTEX
  8
LAYER_1
 62
     7
  6
DASHED
 10
-0.407237
 20
12.128445
  0
VERTEX
  8
LAYER_1
 62
     7
  6
DASHED
 10
-0.402723
 20
12.306054
  0
VERTEX
  8
LAYER_1
 62
     7
  6
DASHED
 10
-0.398153
 20
12.483352
  0
VERTEX
  8
LAYER_1
 62
     7
  6
DASHED
 10
-0.393534
 20
12.661320
  0
VERTEX
  8
LAYER_1
 62
     7
  6
DASHED
 10
-0.388875
 20
12.840936
  0
VERTEX
  8
LAYER_1
 62
     7
  6
DASHED
 10
-0.384184
 20
13.023182
  0
VERTEX
  8
LAYER_1
 62
     7
  6
DASHED
 10
-0.379468
 20
13.209035
  0
VERTEX
  8
LAYER_1
 62
     7
  6
DASHED
 10
-0.374736
 20
13.399476
  0
VERTEX
  8
LAYER_1
 62
     7
  6
DASHED
 10
-0.369996
 20
13.595484
  0
SEQEND
  8
0
  0
POLYLINE
  8
LAYER_1
 62
     7
  6
DASHED
 66
     1
 40
0.022126
 41
0.022126
  0
VERTEX
  8
LAYER_1
 62
     7
  6
DASHED
 10
-0.369996
 20
13.595484
  0
VERTEX
  8
LAYER_1
 62
     7
  6
DASHED
 10
-0.365260
 20
13.797588
  0
VERTEX
  8
LAYER_1
 62
     7
  6
DASHED
 10
-0.360547
 20
14.004521
  0
VERTEX
  8
LAYER_1
 62
     7
  6
DASHED
 10
-0.355883
 20
14.214567
  0
VERTEX
  8
LAYER_1
 62
     7
  6
DASHED
 10
-0.351291
 20
14.426007
  0
VERTEX
  8
LAYER_1
 62
     7
  6
DASHED
 10
-0.346796
 20
14.637126
  0
VERTEX
  8
LAYER_1
 62
     7
  6
DASHED
 10
-0.342422
 20
14.846205
  0
VERTEX
  8
LAYER_1
 62
     7
  6
DASHED
 10
-0.338192
 20
15.051526
  0
VERTEX
  8
LAYER_1
 62
     7
  6
DASHED
 10
-0.334132
 20
15.251373
  0
VERTEX
  8
LAYER_1
 62
     7
  6
DASHED
 10
-0.330265
 20
15.444028
  0
VERTEX
  8
LAYER_1
 62
     7
  6
DASHED
 10
-0.326616
 20
15.627774
  0
VERTEX
  8
LAYER_1
 62
     7
  6
DASHED
 10
-0.323208
 20
15.800894
  0
VERTEX
  8
LAYER_1
 62
     7
  6
DASHED
 10
-0.320066
 20
15.961669
  0
VERTEX
  8
LAYER_1
 62
     7
  6
DASHED
 10
-0.317215
 20
16.108384
  0
VERTEX
  8
LAYER_1
 62
     7
  6
DASHED
 10
-0.314677
 20
16.239319
  0
SEQEND
  8
0
  0
POLYLINE
  8
LAYER_1
 62
     7
  6
DASHED
 66
     1
 40
0.022126
 41
0.022126
  0
VERTEX
  8
LAYER_1
 62
     7
  6
DASHED
 10
-0.314677
 20
16.239319
  0
VERTEX
  8
LAYER_1
 62
     7
  6
DASHED
 10
-0.306898
 20
16.641513
  0
VERTEX
  8
LAYER_1
 62
     7
  6
DASHED
 10
-0.304031
 20
16.789690
  0
VERTEX
  8
LAYER_1
 62
     7
  6
DASHED
 10
-0.303622
 20
16.810858
  0
SEQEND
  8
0
  0
TEXT
  8
LAYER_1
 62
     7
 10
-3.532799
 20
4.551500
 40
0.099712
  1
Six wraps of 
 50
90.000660
 41
1.000000
  7
SN2
 71
     0
 72
     5
 11
-3.532799
 21
5.247969
  0
TEXT
  8
LAYER_1
 62
     7
 10
-3.411114
 20
4.551500
 40
0.099712
  1
around bulkhe
 50
90.000660
 41
1.000000
  7
SN2
 71
     0
 72
     5
 11
-3.411114
 21
5.329142
  0
TEXT
  8
LAYER_1
 62
     7
 10
-3.289433
 20
4.551500
 40
0.099712
  1
to transfer t
 50
90.000660
 41
1.000000
  7
SN2
 71
     0
 72
     5
 11
-3.289433
 21
5.171666
  0
TEXT
  8
LAYER_1
 62
     7
 10
-3.289433
 20
5.500673
 40
0.099712
  1
o
 50
90.000660
 41
1.000000
  7
SN2
 71
     0
 72
     5
 11
-3.289433
 21
5.568859
  0
TEXT
  8
LAYER_1
 62
     7
 10
-3.167748
 20
4.551500
 40
0.099712
  1
to wing bolts
 50
90.000660
 41
1.000000
  7
SN2
 71
     0
 72
     5
 11
-3.167748
 21
5.231734
  0
SOLID
  8
LAYER_1
 62
   153
  6
CONTINUOUS
 10
-1.773500
 20
5.439012
 11
-1.568850
 21
5.439012
 12
-1.773500
 22
5.986579
 13
-1.568850
 23
5.986579
  0
POLYLINE
  8
LAYER_1
 62
   153
  6
CONTINUOUS
 66
     1
 40
0.003000
 41
0.003000
 70
     1
  0
VERTEX
  8
LAYER_1
 62
   153
  6
CONTINUOUS
 10
-1.773500
 20
5.439012
  0
VERTEX
  8
LAYER_1
 62
   153
  6
CONTINUOUS
 10
-1.568850
 20
5.439012
  0
VERTEX
  8
LAYER_1
 62
   153
  6
CONTINUOUS
 10
-1.568850
 20
5.986579
  0
VERTEX
  8
LAYER_1
 62
   153
  6
CONTINUOUS
 10
-1.773500
 20
5.986579
  0
SEQEND
  8
0
  0
POLYLINE
  8
LAYER_1
 62
     7
  6
CONTINUOUS
 66
     1
 40
0.003000
 41
0.003000
 70
     1
  0
VERTEX
  8
LAYER_1
 62
     7
  6
CONTINUOUS
 10
-1.773500
 20
5.439012
  0
VERTEX
  8
LAYER_1
 62
     7
  6
CONTINUOUS
 10
-1.568850
 20
5.439012
  0
VERTEX
  8
LAYER_1
 62
     7
  6
CONTINUOUS
 10
-1.568850
 20
5.986579
  0
VERTEX
  8
LAYER_1
 62
     7
  6
CONTINUOUS
 10
-1.773500
 20
5.986579
  0
SEQEND
  8
0
  0
POLYLINE
  8
LAYER_1
 62
     7
  6
CONTINUOUS
 66
     1
 40
0.022126
 41
0.022126
  0
VERTEX
  8
LAYER_1
 62
     7
  6
CONTINUOUS
 10
-3.084358
 20
2.894732
  0
VERTEX
  8
LAYER_1
 62
     7
  6
CONTINUOUS
 10
-3.083334
 20
2.895142
  0
VERTEX
  8
LAYER_1
 62
     7
  6
CONTINUOUS
 10
-3.076165
 20
2.898009
  0
VERTEX
  8
LAYER_1
 62
     7
  6
CONTINUOUS
 10
-3.056705
 20
2.905791
  0
SEQEND
  8
0
  0
POLYLINE
  8
LAYER_1
 62
     7
  6
CONTINUOUS
 66
     1
 40
0.022126
 41
0.022126
  0
VERTEX
  8
LAYER_1
 62
     7
  6
CONTINUOUS
 10
-3.056705
 20
2.905791
  0
VERTEX
  8
LAYER_1
 62
     7
  6
CONTINUOUS
 10
-3.020719
 20
2.919785
  0
VERTEX
  8
LAYER_1
 62
     7
  6
CONTINUOUS
 10
-2.971618
 20
2.936651
  0
VERTEX
  8
LAYER_1
 62
     7
  6
CONTINUOUS
 10
-2.914732
 20
2.951886
  0
SEQEND
  8
0
  0
POLYLINE
  8
LAYER_1
 62
     7
  6
CONTINUOUS
 66
     1
 40
0.022126
 41
0.022126
  0
VERTEX
  8
LAYER_1
 62
     7
  6
CONTINUOUS
 10
-2.914732
 20
2.951886
  0
VERTEX
  8
LAYER_1
 62
     7
  6
CONTINUOUS
 10
-2.854786
 20
2.961989
  0
VERTEX
  8
LAYER_1
 62
     7
  6
CONTINUOUS
 10
-2.794012
 20
2.967585
  0
VERTEX
  8
LAYER_1
 62
     7
  6
CONTINUOUS
 10
-2.734055
 20
2.970319
  0
SEQEND
  8
0
  0
POLYLINE
  8
LAYER_1
 62
     7
  6
CONTINUOUS
 66
     1
 40
0.022126
 41
0.022126
  0
VERTEX
  8
LAYER_1
 62
     7
  6
CONTINUOUS
 10
-2.734055
 20
2.970319
  0
VERTEX
  8
LAYER_1
 62
     7
  6
CONTINUOUS
 10
-2.677174
 20
2.971618
  0
VERTEX
  8
LAYER_1
 62
     7
  6
CONTINUOUS
 10
-2.628078
 20
2.972097
  0
VERTEX
  8
LAYER_1
 62
     7
  6
CONTINUOUS
 10
-2.592094
 20
2.972165
  0
SEQEND
  8
0
  0
POLYLINE
  8
LAYER_1
 62
     7
  6
CONTINUOUS
 66
     1
 40
0.022126
 41
0.022126
  0
VERTEX
  8
LAYER_1
 62
     7
  6
CONTINUOUS
 10
-2.592094
 20
2.972165
  0
VERTEX
  8
LAYER_1
 62
     7
  6
CONTINUOUS
 10
-2.572635
 20
2.972165
  0
VERTEX
  8
LAYER_1
 62
     7
  6
CONTINUOUS
 10
-2.565465
 20
2.972165
  0
VERTEX
  8
LAYER_1
 62
     7
  6
CONTINUOUS
 10
-2.564441
 20
2.972165
  0
SEQEND
  8
0
  0
POLYLINE
  8
LAYER_1
 62
     7
  6
CONTINUOUS
 66
     1
 40
0.022126
 41
0.022126
  0
VERTEX
  8
LAYER_1
 62
     7
  6
CONTINUOUS
 10
-3.073291
 20
0.925665
  0
VERTEX
  8
LAYER_1
 62
     7
  6
CONTINUOUS
 10
-3.072267
 20
0.925256
  0
VERTEX
  8
LAYER_1
 62
     7
  6
CONTINUOUS
 10
-3.065098
 20
0.922390
  0
VERTEX
  8
LAYER_1
 62
     7
  6
CONTINUOUS
 10
-3.045638
 20
0.914610
  0
SEQEND
  8
0
  0
POLYLINE
  8
LAYER_1
 62
     7
  6
CONTINUOUS
 66
     1
 40
0.022126
 41
0.022126
  0
VERTEX
  8
LAYER_1
 62
     7
  6
CONTINUOUS
 10
-3.045638
 20
0.914610
  0
VERTEX
  8
LAYER_1
 62
     7
  6
CONTINUOUS
 10
-3.009654
 20
0.900616
  0
VERTEX
  8
LAYER_1
 62
     7
  6
CONTINUOUS
 10
-2.960559
 20
0.883748
  0
VERTEX
  8
LAYER_1
 62
     7
  6
CONTINUOUS
 10
-2.903677
 20
0.868512
  0
SEQEND
  8
0
  0
POLYLINE
  8
LAYER_1
 62
     7
  6
CONTINUOUS
 66
     1
 40
0.022126
 41
0.022126
  0
VERTEX
  8
LAYER_1
 62
     7
  6
CONTINUOUS
 10
-2.903677
 20
0.868512
  0
VERTEX
  8
LAYER_1
 62
     7
  6
CONTINUOUS
 10
-2.843724
 20
0.858410
  0
VERTEX
  8
LAYER_1
 62
     7
  6
CONTINUOUS
 10
-2.782952
 20
0.852814
  0
VERTEX
  8
LAYER_1
 62
     7
  6
CONTINUOUS
 10
-2.722996
 20
0.850083
  0
SEQEND
  8
0
  0
POLYLINE
  8
LAYER_1
 62
     7
  6
CONTINUOUS
 66
     1
 40
0.022126
 41
0.022126
  0
VERTEX
  8
LAYER_1
 62
     7
  6
CONTINUOUS
 10
-2.722996
 20
0.850083
  0
VERTEX
  8
LAYER_1
 62
     7
  6
CONTINUOUS
 10
-2.666117
 20
0.848781
  0
VERTEX
  8
LAYER_1
 62
     7
  6
CONTINUOUS
 10
-2.617020
 20
0.848301
  0
VERTEX
  8
LAYER_1
 62
     7
  6
CONTINUOUS
 10
-2.581028
 20
0.848232
  0
SEQEND
  8
0
  0
POLYLINE
  8
LAYER_1
 62
     7
  6
CONTINUOUS
 66
     1
 40
0.022126
 41
0.022126
  0
VERTEX
  8
LAYER_1
 62
     7
  6
CONTINUOUS
 10
-2.581028
 20
0.848232
  0
VERTEX
  8
LAYER_1
 62
     7
  6
CONTINUOUS
 10
-2.561568
 20
0.848232
  0
VERTEX
  8
LAYER_1
 62
     7
  6
CONTINUOUS
 10
-2.554398
 20
0.848232
  0
VERTEX
  8
LAYER_1
 62
     7
  6
CONTINUOUS
 10
-2.553374
 20
0.848232
  0
SEQEND
  8
0
  0
POLYLINE
  8
LAYER_1
 62
     7
  6
CONTINUOUS
 66
     1
 40
0.022126
 41
0.022126
  0
VERTEX
  8
LAYER_1
 62
     7
  6
CONTINUOUS
 10
-3.045638
 20
-2.835441
  0
VERTEX
  8
LAYER_1
 62
     7
  6
CONTINUOUS
 10
-3.044614
 20
-2.835851
  0
VERTEX
  8
LAYER_1
 62
     7
  6
CONTINUOUS
 10
-3.037444
 20
-2.838718
  0
VERTEX
  8
LAYER_1
 62
     7
  6
CONTINUOUS
 10
-3.017984
 20
-2.846500
  0
SEQEND
  8
0
  0
POLYLINE
  8
LAYER_1
 62
     7
  6
CONTINUOUS
 66
     1
 40
0.022126
 41
0.022126
  0
VERTEX
  8
LAYER_1
 62
     7
  6
CONTINUOUS
 10
-3.017984
 20
-2.846500
  0
VERTEX
  8
LAYER_1
 62
     7
  6
CONTINUOUS
 10
-2.982001
 20
-2.860502
  0
VERTEX
  8
LAYER_1
 62
     7
  6
CONTINUOUS
 10
-2.932908
 20
-2.877369
  0
VERTEX
  8
LAYER_1
 62
     7
  6
CONTINUOUS
 10
-2.876028
 20
-2.892594
  0
SEQEND
  8
0
  0
POLYLINE
  8
LAYER_1
 62
     7
  6
CONTINUOUS
 66
     1
 40
0.022126
 41
0.022126
  0
VERTEX
  8
LAYER_1
 62
     7
  6
CONTINUOUS
 10
-2.876028
 20
-2.892594
  0
VERTEX
  8
LAYER_1
 62
     7
  6
CONTINUOUS
 10
-2.816073
 20
-2.902700
  0
VERTEX
  8
LAYER_1
 62
     7
  6
CONTINUOUS
 10
-2.755301
 20
-2.908304
  0
VERTEX
  8
LAYER_1
 62
     7
  6
CONTINUOUS
 10
-2.695346
 20
-2.911039
  0
SEQEND
  8
0
  0
POLYLINE
  8
LAYER_1
 62
     7
  6
CONTINUOUS
 66
     1
 40
0.022126
 41
0.022126
  0
VERTEX
  8
LAYER_1
 62
     7
  6
CONTINUOUS
 10
-2.695346
 20
-2.911039
  0
VERTEX
  8
LAYER_1
 62
     7
  6
CONTINUOUS
 10
-2.638462
 20
-2.912330
  0
VERTEX
  8
LAYER_1
 62
     7
  6
CONTINUOUS
 10
-2.589361
 20
-2.912806
  0
VERTEX
  8
LAYER_1
 62
     7
  6
CONTINUOUS
 10
-2.553374
 20
-2.912874
  0
SEQEND
  8
0
  0
POLYLINE
  8
LAYER_1
 62
     7
  6
CONTINUOUS
 66
     1
 40
0.022126
 41
0.022126
  0
VERTEX
  8
LAYER_1
 62
     7
  6
CONTINUOUS
 10
-2.553374
 20
-2.912874
  0
VERTEX
  8
LAYER_1
 62
     7
  6
CONTINUOUS
 10
-2.533914
 20
-2.912874
  0
VERTEX
  8
LAYER_1
 62
     7
  6
CONTINUOUS
 10
-2.526745
 20
-2.912874
  0
VERTEX
  8
LAYER_1
 62
     7
  6
CONTINUOUS
 10
-2.525720
 20
-2.912874
  0
SEQEND
  8
0
  0
POLYLINE
  8
LAYER_1
 62
     7
  6
CONTINUOUS
 66
     1
 40
0.022126
 41
0.022126
  0
VERTEX
  8
LAYER_1
 62
     7
  6
CONTINUOUS
 10
-3.056705
 20
-1.425028
  0
VERTEX
  8
LAYER_1
 62
     7
  6
CONTINUOUS
 10
-3.055681
 20
-1.424618
  0
VERTEX
  8
LAYER_1
 62
     7
  6
CONTINUOUS
 10
-3.048512
 20
-1.421747
  0
VERTEX
  8
LAYER_1
 62
     7
  6
CONTINUOUS
 10
-3.029055
 20
-1.413957
  0
SEQEND
  8
0
  0
POLYLINE
  8
LAYER_1
 62
     7
  6
CONTINUOUS
 66
     1
 40
0.022126
 41
0.022126
  0
VERTEX
  8
LAYER_1
 62
     7
  6
CONTINUOUS
 10
-3.029055
 20
-1.413957
  0
VERTEX
  8
LAYER_1
 62
     7
  6
CONTINUOUS
 10
-2.993061
 20
-1.399963
  0
VERTEX
  8
LAYER_1
 62
     7
  6
CONTINUOUS
 10
-2.943964
 20
-1.383099
  0
VERTEX
  8
LAYER_1
 62
     7
  6
CONTINUOUS
 10
-2.887083
 20
-1.367874
  0
SEQEND
  8
0
  0
POLYLINE
  8
LAYER_1
 62
     7
  6
CONTINUOUS
 66
     1
 40
0.022126
 41
0.022126
  0
VERTEX
  8
LAYER_1
 62
     7
  6
CONTINUOUS
 10
-2.887083
 20
-1.367874
  0
VERTEX
  8
LAYER_1
 62
     7
  6
CONTINUOUS
 10
-2.827128
 20
-1.357767
  0
VERTEX
  8
LAYER_1
 62
     7
  6
CONTINUOUS
 10
-2.766356
 20
-1.352164
  0
VERTEX
  8
LAYER_1
 62
     7
  6
CONTINUOUS
 10
-2.706402
 20
-1.349429
  0
SEQEND
  8
0
  0
POLYLINE
  8
LAYER_1
 62
     7
  6
CONTINUOUS
 66
     1
 40
0.022126
 41
0.022126
  0
VERTEX
  8
LAYER_1
 62
     7
  6
CONTINUOUS
 10
-2.706402
 20
-1.349429
  0
VERTEX
  8
LAYER_1
 62
     7
  6
CONTINUOUS
 10
-2.649520
 20
-1.348138
  0
VERTEX
  8
LAYER_1
 62
     7
  6
CONTINUOUS
 10
-2.600425
 20
-1.347662
  0
VERTEX
  8
LAYER_1
 62
     7
  6
CONTINUOUS
 10
-2.564441
 20
-1.347594
  0
SEQEND
  8
0
  0
POLYLINE
  8
LAYER_1
 62
     7
  6
CONTINUOUS
 66
     1
 40
0.022126
 41
0.022126
  0
VERTEX
  8
LAYER_1
 62
     7
  6
CONTINUOUS
 10
-2.564441
 20
-1.347594
  0
VERTEX
  8
LAYER_1
 62
     7
  6
CONTINUOUS
 10
-2.544984
 20
-1.347594
  0
VERTEX
  8
LAYER_1
 62
     7
  6
CONTINUOUS
 10
-2.537815
 20
-1.347594
  0
VERTEX
  8
LAYER_1
 62
     7
  6
CONTINUOUS
 10
-2.536791
 20
-1.347594
  0
SEQEND
  8
0
  0
POLYLINE
  8
LAYER_1
 62
     7
  6
DASHED
 66
     1
 40
0.003000
 41
0.003000
  0
VERTEX
  8
LAYER_1
 62
     7
  6
DASHED
 10
-0.396264
 20
-0.877441
  0
VERTEX
  8
LAYER_1
 62
     7
  6
DASHED
 10
-0.340957
 20
-2.260205
  0
VERTEX
  8
LAYER_1
 62
     7
  6
DASHED
 10
0.112583
 20
-4.107583
  0
VERTEX
  8
LAYER_1
 62
     7
  6
DASHED
 10
0.001969
 20
-0.855319
  0
SEQEND
  8
0
  0
TEXT
  8
LAYER_1
 62
     7
 10
0.471752
 20
-3.833744
 40
0.099712
  1
uni CF strips
 50
90.000660
 41
1.000000
  7
SN2
 71
     0
 72
     5
 11
0.471752
 21
-3.145393
  0
POLYLINE
  8
LAYER_1
 62
     7
  6
CONTINUOUS
 66
     1
 40
0.003000
 41
0.003000
  0
VERTEX
  8
LAYER_1
 62
     7
  6
CONTINUOUS
 10
0.444457
 20
-3.919528
  0
VERTEX
  8
LAYER_1
 62
     7
  6
CONTINUOUS
 10
0.444320
 20
-3.920893
  0
VERTEX
  8
LAYER_1
 62
     7
  6
CONTINUOUS
 10
0.443362
 20
-3.930453
  0
VERTEX
  8
LAYER_1
 62
     7
  6
CONTINUOUS
 10
0.440764
 20
-3.956402
  0
SEQEND
  8
0
  0
POLYLINE
  8
LAYER_1
 62
     7
  6
CONTINUOUS
 66
     1
 40
0.003000
 41
0.003000
  0
VERTEX
  8
LAYER_1
 62
     7
  6
CONTINUOUS
 10
0.440764
 20
-3.956402
  0
VERTEX
  8
LAYER_1
 62
     7
  6
CONTINUOUS
 10
0.435236
 20
-3.999763
  0
VERTEX
  8
LAYER_1
 62
     7
  6
CONTINUOUS
 10
0.423557
 20
-4.032882
  0
VERTEX
  8
LAYER_1
 62
     7
  6
CONTINUOUS
 10
0.402039
 20
-4.020929
  0
SEQEND
  8
0
  0
POLYLINE
  8
LAYER_1
 62
     7
  6
CONTINUOUS
 66
     1
 40
0.003000
 41
0.003000
  0
VERTEX
  8
LAYER_1
 62
     7
  6
CONTINUOUS
 10
0.402039
 20
-4.020929
  0
VERTEX
  8
LAYER_1
 62
     7
  6
CONTINUOUS
 10
0.368310
 20
-3.943023
  0
VERTEX
  8
LAYER_1
 62
     7
  6
CONTINUOUS
 10
0.325157
 20
-3.833973
  0
VERTEX
  8
LAYER_1
 62
     7
  6
CONTINUOUS
 10
0.276677
 20
-3.742539
  0
SEQEND
  8
0
  0
POLYLINE
  8
LAYER_1
 62
     7
  6
CONTINUOUS
 66
     1
 40
0.003000
 41
0.003000
  0
VERTEX
  8
LAYER_1
 62
     7
  6
CONTINUOUS
 10
0.276677
 20
-3.742539
  0
VERTEX
  8
LAYER_1
 62
     7
  6
CONTINUOUS
 10
0.227309
 20
-3.705049
  0
VERTEX
  8
LAYER_1
 62
     7
  6
CONTINUOUS
 10
0.182854
 20
-3.708119
  0
VERTEX
  8
LAYER_1
 62
     7
  6
CONTINUOUS
 10
0.149457
 20
-3.725941
  0
SEQEND
  8
0
  0
POLYLINE
  8
LAYER_1
 62
     7
  6
CONTINUOUS
 66
     1
 40
0.003000
 41
0.003000
  0
VERTEX
  8
LAYER_1
 62
     7
  6
CONTINUOUS
 10
0.149457
 20
-3.725941
  0
VERTEX
  8
LAYER_1
 62
     7
  6
CONTINUOUS
 10
0.131296
 20
-3.737621
  0
VERTEX
  8
LAYER_1
 62
     7
  6
CONTINUOUS
 10
0.124605
 20
-3.741925
  0
VERTEX
  8
LAYER_1
 62
     7
  6
CONTINUOUS
 10
0.123650
 20
-3.742539
  0
SEQEND
  8
0
  0
POLYLINE
  8
LAYER_1
 62
     7
  6
DASHED
 66
     1
 40
0.022126
 41
0.022126
  0
VERTEX
  8
LAYER_1
 62
     7
  6
DASHED
 10
2.060846
 20
3.220358
  0
VERTEX
  8
LAYER_1
 62
     7
  6
DASHED
 10
2.060095
 20
3.238112
  0
VERTEX
  8
LAYER_1
 62
     7
  6
DASHED
 10
2.054838
 20
3.362392
  0
VERTEX
  8
LAYER_1
 62
     7
  6
DASHED
 10
2.040567
 20
3.699720
  0
SEQEND
  8
0
  0
POLYLINE
  8
LAYER_1
 62
     7
  6
DASHED
 66
     1
 40
0.022126
 41
0.022126
  0
VERTEX
  8
LAYER_1
 62
     7
  6
DASHED
 10
2.040567
 20
3.699720
  0
VERTEX
  8
LAYER_1
 62
     7
  6
DASHED
 10
2.035926
 20
3.809678
  0
VERTEX
  8
LAYER_1
 62
     7
  6
DASHED
 10
2.030748
 20
3.933714
  0
VERTEX
  8
LAYER_1
 62
     7
  6
DASHED
 10
2.025118
 20
4.071230
  0
VERTEX
  8
LAYER_1
 62
     7
  6
DASHED
 10
2.019121
 20
4.221630
  0
VERTEX
  8
LAYER_1
 62
     7
  6
DASHED
 10
2.012842
 20
4.384318
  0
VERTEX
  8
LAYER_1
 62
     7
  6
DASHED
 10
2.006365
 20
4.558696
  0
VERTEX
  8
LAYER_1
 62
     7
  6
DASHED
 10
1.999775
 20
4.744169
  0
VERTEX
  8
LAYER_1
 62
     7
  6
DASHED
 10
1.993156
 20
4.940140
  0
VERTEX
  8
LAYER_1
 62
     7
  6
DASHED
 10
1.986594
 20
5.146012
  0
VERTEX
  8
LAYER_1
 62
     7
  6
DASHED
 10
1.980173
 20
5.361189
  0
VERTEX
  8
LAYER_1
 62
     7
  6
DASHED
 10
1.973978
 20
5.585074
  0
VERTEX
  8
LAYER_1
 62
     7
  6
DASHED
 10
1.968093
 20
5.817071
  0
VERTEX
  8
LAYER_1
 62
     7
  6
DASHED
 10
1.962604
 20
6.056582
  0
VERTEX
  8
LAYER_1
 62
     7
  6
DASHED
 10
1.957594
 20
6.303012
  0
SEQEND
  8
0
  0
POLYLINE
  8
LAYER_1
 62
     7
  6
DASHED
 66
     1
 40
0.022126
 41
0.022126
  0
VERTEX
  8
LAYER_1
 62
     7
  6
DASHED
 10
1.957594
 20
6.303012
  0
VERTEX
  8
LAYER_1
 62
     7
  6
DASHED
 10
1.954413
 20
6.479285
  0
VERTEX
  8
LAYER_1
 62
     7
  6
DASHED
 10
1.951503
 20
6.658317
  0
VERTEX
  8
LAYER_1
 62
     7
  6
DASHED
 10
1.948858
 20
6.839769
  0
VERTEX
  8
LAYER_1
 62
     7
  6
DASHED
 10
1.946474
 20
7.023302
  0
VERTEX
  8
LAYER_1
 62
     7
  6
DASHED
 10
1.944344
 20
7.208577
  0
VERTEX
  8
LAYER_1
 62
     7
  6
DASHED
 10
1.942463
 20
7.395255
  0
VERTEX
  8
LAYER_1
 62
     7
  6
DASHED
 10
1.940825
 20
7.582998
  0
VERTEX
  8
LAYER_1
 62
     7
  6
DASHED
 10
1.939425
 20
7.771467
  0
VERTEX
  8
LAYER_1
 62
     7
  6
DASHED
 10
1.938258
 20
7.960324
  0
VERTEX
  8
LAYER_1
 62
     7
  6
DASHED
 10
1.937317
 20
8.149228
  0
VERTEX
  8
LAYER_1
 62
     7
  6
DASHED
 10
1.936598
 20
8.337843
  0
VERTEX
  8
LAYER_1
 62
     7
  6
DASHED
 10
1.936095
 20
8.525828
  0
VERTEX
  8
LAYER_1
 62
     7
  6
DASHED
 10
1.935801
 20
8.712846
  0
VERTEX
  8
LAYER_1
 62
     7
  6
DASHED
 10
1.935712
 20
8.898557
  0
VERTEX
  8
LAYER_1
 62
     7
  6
DASHED
 10
1.935823
 20
9.082622
  0
VERTEX
  8
LAYER_1
 62
     7
  6
DASHED
 10
1.936126
 20
9.264704
  0
VERTEX
  8
LAYER_1
 62
     7
  6
DASHED
 10
1.936618
 20
9.444462
  0
VERTEX
  8
LAYER_1
 62
     7
  6
DASHED
 10
1.937292
 20
9.621559
  0
VERTEX
  8
LAYER_1
 62
     7
  6
DASHED
 10
1.938143
 20
9.795656
  0
VERTEX
  8
LAYER_1
 62
     7
  6
DASHED
 10
1.939165
 20
9.966413
  0
SEQEND
  8
0
  0
POLYLINE
  8
LAYER_1
 62
     7
  6
DASHED
 66
     1
 40
0.022126
 41
0.022126
  0
VERTEX
  8
LAYER_1
 62
     7
  6
DASHED
 10
1.939165
 20
9.966413
  0
VERTEX
  8
LAYER_1
 62
     7
  6
DASHED
 10
1.940793
 20
10.188496
  0
VERTEX
  8
LAYER_1
 62
     7
  6
DASHED
 10
1.942748
 20
10.404363
  0
VERTEX
  8
LAYER_1
 62
     7
  6
DASHED
 10
1.945064
 20
10.614341
  0
VERTEX
  8
LAYER_1
 62
     7
  6
DASHED
 10
1.947773
 20
10.818753
  0
VERTEX
  8
LAYER_1
 62
     7
  6
DASHED
 10
1.950908
 20
11.017925
  0
VERTEX
  8
LAYER_1
 62
     7
  6
DASHED
 10
1.954502
 20
11.212179
  0
VERTEX
  8
LAYER_1
 62
     7
  6
DASHED
 10
1.958588
 20
11.401842
  0
VERTEX
  8
LAYER_1
 62
     7
  6
DASHED
 10
1.963198
 20
11.587238
  0
VERTEX
  8
LAYER_1
 62
     7
  6
DASHED
 10
1.968366
 20
11.768690
  0
VERTEX
  8
LAYER_1
 62
     7
  6
DASHED
 10
1.974123
 20
11.946524
  0
VERTEX
  8
LAYER_1
 62
     7
  6
DASHED
 10
1.980504
 20
12.121064
  0
VERTEX
  8
LAYER_1
 62
     7
  6
DASHED
 10
1.987541
 20
12.292635
  0
VERTEX
  8
LAYER_1
 62
     7
  6
DASHED
 10
1.995266
 20
12.461561
  0
VERTEX
  8
LAYER_1
 62
     7
  6
DASHED
 10
2.003712
 20
12.628166
  0
VERTEX
  8
LAYER_1
 62
     7
  6
DASHED
 10
2.012913
 20
12.792776
  0
SEQEND
  8
0
  0
POLYLINE
  8
LAYER_1
 62
     7
  6
DASHED
 66
     1
 40
0.022126
 41
0.022126
  0
VERTEX
  8
LAYER_1
 62
     7
  6
DASHED
 10
2.012913
 20
12.792776
  0
VERTEX
  8
LAYER_1
 62
     7
  6
DASHED
 10
2.023634
 20
12.967353
  0
VERTEX
  8
LAYER_1
 62
     7
  6
DASHED
 10
2.035246
 20
13.140749
  0
VERTEX
  8
LAYER_1
 62
     7
  6
DASHED
 10
2.047736
 20
13.313702
  0
VERTEX
  8
LAYER_1
 62
     7
  6
DASHED
 10
2.061094
 20
13.486950
  0
VERTEX
  8
LAYER_1
 62
     7
  6
DASHED
 10
2.075305
 20
13.661229
  0
VERTEX
  8
LAYER_1
 62
     7
  6
DASHED
 10
2.090360
 20
13.837278
  0
VERTEX
  8
LAYER_1
 62
     7
  6
DASHED
 10
2.106245
 20
14.015834
  0
VERTEX
  8
LAYER_1
 62
     7
  6
DASHED
 10
2.122948
 20
14.197636
  0
VERTEX
  8
LAYER_1
 62
     7
  6
DASHED
 10
2.140457
 20
14.383420
  0
VERTEX
  8
LAYER_1
 62
     7
  6
DASHED
 10
2.158761
 20
14.573924
  0
VERTEX
  8
LAYER_1
 62
     7
  6
DASHED
 10
2.177847
 20
14.769887
  0
VERTEX
  8
LAYER_1
 62
     7
  6
DASHED
 10
2.197703
 20
14.972046
  0
VERTEX
  8
LAYER_1
 62
     7
  6
DASHED
 10
2.218317
 20
15.181138
  0
VERTEX
  8
LAYER_1
 62
     7
  6
DASHED
 10
2.239677
 20
15.397902
  0
SEQEND
  8
0
  0
POLYLINE
  8
LAYER_1
 62
     7
  6
DASHED
 66
     1
 40
0.022126
 41
0.022126
  0
VERTEX
  8
LAYER_1
 62
     7
  6
DASHED
 10
2.239677
 20
15.397902
  0
VERTEX
  8
LAYER_1
 62
     7
  6
DASHED
 10
2.257805
 20
15.582480
  0
VERTEX
  8
LAYER_1
 62
     7
  6
DASHED
 10
2.276333
 20
15.771869
  0
VERTEX
  8
LAYER_1
 62
     7
  6
DASHED
 10
2.295166
 20
15.965179
  0
VERTEX
  8
LAYER_1
 62
     7
  6
DASHED
 10
2.314206
 20
16.161517
  0
VERTEX
  8
LAYER_1
 62
     7
  6
DASHED
 10
2.333356
 20
16.359992
  0
VERTEX
  8
LAYER_1
 62
     7
  6
DASHED
 10
2.352519
 20
16.559711
  0
VERTEX
  8
LAYER_1
 62
     7
  6
DASHED
 10
2.371599
 20
16.759785
  0
VERTEX
  8
LAYER_1
 62
     7
  6
DASHED
 10
2.390499
 20
16.959319
  0
VERTEX
  8
LAYER_1
 62
     7
  6
DASHED
 10
2.409122
 20
17.157424
  0
VERTEX
  8
LAYER_1
 62
     7
  6
DASHED
 10
2.427371
 20
17.353208
  0
VERTEX
  8
LAYER_1
 62
     7
  6
DASHED
 10
2.445149
 20
17.545778
  0
VERTEX
  8
LAYER_1
 62
     7
  6
DASHED
 10
2.462360
 20
17.734243
  0
VERTEX
  8
LAYER_1
 62
     7
  6
DASHED
 10
2.478906
 20
17.917712
  0
VERTEX
  8
LAYER_1
 62
     7
  6
DASHED
 10
2.494691
 20
18.095293
  0
VERTEX
  8
LAYER_1
 62
     7
  6
DASHED
 10
2.509619
 20
18.266095
  0
VERTEX
  8
LAYER_1
 62
     7
  6
DASHED
 10
2.523591
 20
18.429224
  0
VERTEX
  8
LAYER_1
 62
     7
  6
DASHED
 10
2.536512
 20
18.583791
  0
SEQEND
  8
0
  0
POLYLINE
  8
LAYER_1
 62
     7
  6
DASHED
 66
     1
 40
0.022126
 41
0.022126
  0
VERTEX
  8
LAYER_1
 62
     7
  6
DASHED
 10
2.536512
 20
18.583791
  0
VERTEX
  8
LAYER_1
 62
     7
  6
DASHED
 10
2.563295
 20
18.920923
  0
VERTEX
  8
LAYER_1
 62
     7
  6
DASHED
 10
2.584142
 20
19.206807
  0
VERTEX
  8
LAYER_1
 62
     7
  6
DASHED
 10
2.599893
 20
19.445959
  0
VERTEX
  8
LAYER_1
 62
     7
  6
DASHED
 10
2.611386
 20
19.642894
  0
VERTEX
  8
LAYER_1
 62
     7
  6
DASHED
 10
2.619460
 20
19.802128
  0
VERTEX
  8
LAYER_1
 62
     7
  6
DASHED
 10
2.624953
 20
19.928177
  0
VERTEX
  8
LAYER_1
 62
     7
  6
DASHED
 10
2.628705
 20
20.025555
  0
SEQEND
  8
0
  0
POLYLINE
  8
LAYER_1
 62
     7
  6
DASHED
 66
     1
 40
0.022126
 41
0.022126
  0
VERTEX
  8
LAYER_1
 62
     7
  6
DASHED
 10
2.628705
 20
20.025555
  0
VERTEX
  8
LAYER_1
 62
     7
  6
DASHED
 10
2.633897
 20
20.164379
  0
VERTEX
  8
LAYER_1
 62
     7
  6
DASHED
 10
2.635809
 20
20.215524
  0
VERTEX
  8
LAYER_1
 62
     7
  6
DASHED
 10
2.636083
 20
20.222831
  0
SEQEND
  8
0
  0
POLYLINE
  8
LAYER_1
 62
     7
  6
CONTINUOUS
 66
     1
 40
0.003000
 41
0.003000
  0
VERTEX
  8
LAYER_1
 62
     7
  6
CONTINUOUS
 10
0.043067
 20
-7.173331
  0
VERTEX
  8
LAYER_1
 62
     7
  6
CONTINUOUS
 10
0.043067
 20
22.414193
  0
SEQEND
  8
0
  0
POLYLINE
  8
LAYER_1
 62
     7
  6
CONTINUOUS
 66
     1
 40
0.011055
 41
0.011055
  0
VERTEX
  8
LAYER_1
 62
     7
  6
CONTINUOUS
 10
1.123902
 20
5.578055
  0
VERTEX
  8
LAYER_1
 62
     7
  6
CONTINUOUS
 10
1.109496
 20
5.756407
  0
VERTEX
  8
LAYER_1
 62
     7
  6
CONTINUOUS
 10
1.067792
 20
5.925624
  0
VERTEX
  8
LAYER_1
 62
     7
  6
CONTINUOUS
 10
1.001061
 20
6.083437
  0
VERTEX
  8
LAYER_1
 62
     7
  6
CONTINUOUS
 10
0.911572
 20
6.227573
  0
VERTEX
  8
LAYER_1
 62
     7
  6
CONTINUOUS
 10
0.801597
 20
6.355764
  0
VERTEX
  8
LAYER_1
 62
     7
  6
CONTINUOUS
 10
0.673406
 20
6.465739
  0
VERTEX
  8
LAYER_1
 62
     7
  6
CONTINUOUS
 10
0.529268
 20
6.555227
  0
VERTEX
  8
LAYER_1
 62
     7
  6
CONTINUOUS
 10
0.371456
 20
6.621958
  0
VERTEX
  8
LAYER_1
 62
     7
  6
CONTINUOUS
 10
0.202238
 20
6.663661
  0
VERTEX
  8
LAYER_1
 62
     7
  6
CONTINUOUS
 10
0.023886
 20
6.678067
  0
SEQEND
  8
0
  0
POLYLINE
  8
LAYER_1
 62
     7
  6
CONTINUOUS
 66
     1
 40
0.011055
 41
0.011055
  0
VERTEX
  8
LAYER_1
 62
     7
  6
CONTINUOUS
 10
0.023886
 20
6.678067
  0
VERTEX
  8
LAYER_1
 62
     7
  6
CONTINUOUS
 10
-0.154465
 20
6.663661
  0
VERTEX
  8
LAYER_1
 62
     7
  6
CONTINUOUS
 10
-0.323682
 20
6.621958
  0
VERTEX
  8
LAYER_1
 62
     7
  6
CONTINUOUS
 10
-0.481493
 20
6.555227
  0
VERTEX
  8
LAYER_1
 62
     7
  6
CONTINUOUS
 10
-0.625629
 20
6.465739
  0
VERTEX
  8
LAYER_1
 62
     7
  6
CONTINUOUS
 10
-0.753820
 20
6.355764
  0
VERTEX
  8
LAYER_1
 62
     7
  6
CONTINUOUS
 10
-0.863794
 20
6.227573
  0
VERTEX
  8
LAYER_1
 62
     7
  6
CONTINUOUS
 10
-0.953282
 20
6.083437
  0
VERTEX
  8
LAYER_1
 62
     7
  6
CONTINUOUS
 10
-1.020013
 20
5.925624
  0
VERTEX
  8
LAYER_1
 62
     7
  6
CONTINUOUS
 10
-1.061716
 20
5.756407
  0
VERTEX
  8
LAYER_1
 62
     7
  6
CONTINUOUS
 10
-1.076122
 20
5.578055
  0
SEQEND
  8
0
  0
POLYLINE
  8
LAYER_1
 62
     7
  6
CONTINUOUS
 66
     1
 40
0.011055
 41
0.011055
  0
VERTEX
  8
LAYER_1
 62
     7
  6
CONTINUOUS
 10
-1.076122
 20
5.578055
  0
VERTEX
  8
LAYER_1
 62
     7
  6
CONTINUOUS
 10
-1.061716
 20
5.399703
  0
VERTEX
  8
LAYER_1
 62
     7
  6
CONTINUOUS
 10
-1.020013
 20
5.230485
  0
VERTEX
  8
LAYER_1
 62
     7
  6
CONTINUOUS
 10
-0.953282
 20
5.072673
  0
VERTEX
  8
LAYER_1
 62
     7
  6
CONTINUOUS
 10
-0.863794
 20
4.928535
  0
VERTEX
  8
LAYER_1
 62
     7
  6
CONTINUOUS
 10
-0.753820
 20
4.800344
  0
VERTEX
  8
LAYER_1
 62
     7
  6
CONTINUOUS
 10
-0.625629
 20
4.690369
  0
VERTEX
  8
LAYER_1
 62
     7
  6
CONTINUOUS
 10
-0.481493
 20
4.600880
  0
VERTEX
  8
LAYER_1
 62
     7
  6
CONTINUOUS
 10
-0.323682
 20
4.534149
  0
VERTEX
  8
LAYER_1
 62
     7
  6
CONTINUOUS
 10
-0.154465
 20
4.492445
  0
VERTEX
  8
LAYER_1
 62
     7
  6
CONTINUOUS
 10
0.023886
 20
4.478039
  0
SEQEND
  8
0
  0
POLYLINE
  8
LAYER_1
 62
     7
  6
CONTINUOUS
 66
     1
 40
0.011055
 41
0.011055
  0
VERTEX
  8
LAYER_1
 62
     7
  6
CONTINUOUS
 10
0.023886
 20
4.478039
  0
VERTEX
  8
LAYER_1
 62
     7
  6
CONTINUOUS
 10
0.202238
 20
4.492445
  0
VERTEX
  8
LAYER_1
 62
     7
  6
CONTINUOUS
 10
0.371456
 20
4.534149
  0
VERTEX
  8
LAYER_1
 62
     7
  6
CONTINUOUS
 10
0.529268
 20
4.600880
  0
VERTEX
  8
LAYER_1
 62
     7
  6
CONTINUOUS
 10
0.673406
 20
4.690369
  0
VERTEX
  8
LAYER_1
 62
     7
  6
CONTINUOUS
 10
0.801597
 20
4.800344
  0
VERTEX
  8
LAYER_1
 62
     7
  6
CONTINUOUS
 10
0.911572
 20
4.928535
  0
VERTEX
  8
LAYER_1
 62
     7
  6
CONTINUOUS
 10
1.001061
 20
5.072673
  0
VERTEX
  8
LAYER_1
 62
     7
  6
CONTINUOUS
 10
1.067792
 20
5.230485
  0
VERTEX
  8
LAYER_1
 62
     7
  6
CONTINUOUS
 10
1.109496
 20
5.399703
  0
VERTEX
  8
LAYER_1
 62
     7
  6
CONTINUOUS
 10
1.123902
 20
5.578055
  0
SEQEND
  8
0
  0
ENDSEC
  0
EOF
