  0
SECTION
  2
HEADER
  9
$ACADVER
  1
AC1006
  9
$EXTMIN
 10
-3.941665
 20
-5.035846
  9
$EXTMAX
 10
3.948787
 20
5.028815
  9
$LTSCALE
 40
0.000394
  9
$PDMODE
 70
    35
  9
$PDSIZE
 40
0.000315
  0
ENDSEC
  0
SECTION
  2
TABLES
  0
TABLE
  2
LTYPE
 70
     9
  0
LTYPE
  2
CONTINUOUS
 70
    64
  3
Solid line
 72
    65
 73
     0
 40
0.000000
  0
LTYPE
  2
DASHED
 70
    64
  3
__ __ __ __ __ __ __ __ __ __ __ __ __ __ __
 72
    65
 73
     2
 40
0.000003
 49
0.000002
 49
-0.000001
  0
LTYPE
  2
HIDDEN
 70
    64
  3
 _ _ _ _ _ _ _ _ _ _ _ _ _ _ _ _ _ _ _ _ _ _
 72
    65
 73
     2
 40
0.000001
 49
0.000001
 49
-0.000000
  0
LTYPE
  2
CENTER
 70
    64
  3
____ _ ____ _ ____ _ ____ _ ____ _ ____ _ ____
 72
    65
 73
     4
 40
0.000008
 49
0.000005
 49
-0.000001
 49
0.000001
 49
-0.000001
  0
LTYPE
  2
PHANTOM
 70
    64
  3
_____ _ _ _____ _ _ _____ _ _ _____ _ _ ____
 72
    65
 73
     6
 40
0.000010
 49
0.000005
 49
-0.000001
 49
0.000001
 49
-0.000001
 49
0.000001
 49
-0.000001
  0
LTYPE
  2
DOT
 70
    64
  3
...............................................
 72
    65
 73
     2
 40
0.000001
 49
0.000000
 49
-0.000001
  0
LTYPE
  2
DASHDOT
 70
    64
  3
__ . __ . __ . __ . __ . __ . __ . __ . __ . __
 72
    65
 73
     4
 40
0.000004
 49
0.000002
 49
-0.000001
 49
0.000000
 49
-0.000001
  0
LTYPE
  2
BORDER
 70
    64
  3
__ __ . __ __ . __ __ . __ __ . __ __ . __ __
 72
    65
 73
     6
 40
0.000007
 49
0.000002
 49
-0.000001
 49
0.000002
 49
-0.000001
 49
0.000000
 49
-0.000001
  0
LTYPE
  2
DIVIDE
 70
    64
  3
__ . . __ . . __ . . __ . . __ . . __ . . __
 72
    65
 73
     6
 40
0.000005
 49
0.000002
 49
-0.000001
 49
0.000000
 49
-0.000001
 49
0.000000
 49
-0.000001
  0
LTYPE
  2
DOTDOT
 70
    64
  3
 . .  . .  . .  . .  . .  . . 
 72
    65
 73
     5
 40
0.000002
 49
-0.000001
 49
0.000000
 49
-0.000001
 49
0.000000
 49
-0.000001
  0
ENDTAB
  0
TABLE
  2
STYLE
 70
     2
  0
STYLE
 70
     0
  2
SN0
 40
0.000000
 41
0.000004
 50
0.000000
 71
     0
 42
0.000000
  3
ROMAND
  0
STYLE
 70
    68
  2
SV0
 40
0.000000
 41
0.000004
 50
0.000000
 71
     0
 42
0.000000
  3
ROMAND
  0
ENDTAB
  0
TABLE
  2
LAYER
 70
     3
  0
LAYER
  2
FOREGROUND
 70
    64
 62
     7
  6
CONTINUOUS
  0
LAYER
  2
BACKGROUND
 70
    65
 62
    -7
  6
CONTINUOUS
  0
LAYER
  2
LAYER_1
 70
    64
 62
     7
  6
CONTINUOUS
  0
ENDTAB
  0
ENDSEC
  0
SECTION
  2
ENTITIES
  0
POLYLINE
  8
LAYER_1
 62
     7
  6
CONTINUOUS
 66
     1
 40
0.044252
 41
0.044252
  0
VERTEX
  8
LAYER_1
 62
     7
  6
CONTINUOUS
 10
-1.238610
 20
3.476776
  0
VERTEX
  8
LAYER_1
 62
     7
  6
CONTINUOUS
 10
-1.308699
 20
3.488092
  0
VERTEX
  8
LAYER_1
 62
     7
  6
CONTINUOUS
 10
-1.369591
 20
3.519597
  0
VERTEX
  8
LAYER_1
 62
     7
  6
CONTINUOUS
 10
-1.417621
 20
3.567628
  0
VERTEX
  8
LAYER_1
 62
     7
  6
CONTINUOUS
 10
-1.449125
 20
3.628521
  0
VERTEX
  8
LAYER_1
 62
     7
  6
CONTINUOUS
 10
-1.460441
 20
3.698610
  0
SEQEND
  8
0
  0
POLYLINE
  8
LAYER_1
 62
     7
  6
CONTINUOUS
 66
     1
 40
0.044252
 41
0.044252
  0
VERTEX
  8
LAYER_1
 62
     7
  6
CONTINUOUS
 10
-1.460441
 20
3.698610
  0
VERTEX
  8
LAYER_1
 62
     7
  6
CONTINUOUS
 10
-1.449125
 20
3.768699
  0
VERTEX
  8
LAYER_1
 62
     7
  6
CONTINUOUS
 10
-1.417621
 20
3.829591
  0
VERTEX
  8
LAYER_1
 62
     7
  6
CONTINUOUS
 10
-1.369591
 20
3.877621
  0
VERTEX
  8
LAYER_1
 62
     7
  6
CONTINUOUS
 10
-1.308699
 20
3.909125
  0
VERTEX
  8
LAYER_1
 62
     7
  6
CONTINUOUS
 10
-1.238610
 20
3.920441
  0
SEQEND
  8
0
  0
POLYLINE
  8
LAYER_1
 62
     7
  6
CONTINUOUS
 66
     1
 40
0.044252
 41
0.044252
  0
VERTEX
  8
LAYER_1
 62
     7
  6
CONTINUOUS
 10
-1.238610
 20
3.920441
  0
VERTEX
  8
LAYER_1
 62
     7
  6
CONTINUOUS
 10
-1.168521
 20
3.909125
  0
VERTEX
  8
LAYER_1
 62
     7
  6
CONTINUOUS
 10
-1.107628
 20
3.877621
  0
VERTEX
  8
LAYER_1
 62
     7
  6
CONTINUOUS
 10
-1.059597
 20
3.829591
  0
VERTEX
  8
LAYER_1
 62
     7
  6
CONTINUOUS
 10
-1.028092
 20
3.768699
  0
VERTEX
  8
LAYER_1
 62
     7
  6
CONTINUOUS
 10
-1.016776
 20
3.698610
  0
SEQEND
  8
0
  0
POLYLINE
  8
LAYER_1
 62
     7
  6
CONTINUOUS
 66
     1
 40
0.044252
 41
0.044252
  0
VERTEX
  8
LAYER_1
 62
     7
  6
CONTINUOUS
 10
-1.016776
 20
3.698610
  0
VERTEX
  8
LAYER_1
 62
     7
  6
CONTINUOUS
 10
-1.028092
 20
3.628521
  0
VERTEX
  8
LAYER_1
 62
     7
  6
CONTINUOUS
 10
-1.059597
 20
3.567628
  0
VERTEX
  8
LAYER_1
 62
     7
  6
CONTINUOUS
 10
-1.107628
 20
3.519597
  0
VERTEX
  8
LAYER_1
 62
     7
  6
CONTINUOUS
 10
-1.168521
 20
3.488092
  0
VERTEX
  8
LAYER_1
 62
     7
  6
CONTINUOUS
 10
-1.238610
 20
3.476776
  0
SEQEND
  8
0
  0
POLYLINE
  8
LAYER_1
 62
     7
  6
CONTINUOUS
 66
     1
 40
0.044252
 41
0.044252
  0
VERTEX
  8
LAYER_1
 62
     7
  6
CONTINUOUS
 10
-0.992220
 20
3.691386
  0
VERTEX
  8
LAYER_1
 62
     7
  6
CONTINUOUS
 10
-0.622500
 20
3.691386
  0
SEQEND
  8
0
  0
POLYLINE
  8
LAYER_1
 62
     7
  6
CONTINUOUS
 66
     1
 40
0.044252
 41
0.044252
  0
VERTEX
  8
LAYER_1
 62
     7
  6
CONTINUOUS
 10
-0.622500
 20
3.691374
  0
VERTEX
  8
LAYER_1
 62
     7
  6
CONTINUOUS
 10
-0.499264
 20
3.444902
  0
VERTEX
  8
LAYER_1
 62
     7
  6
CONTINUOUS
 10
-0.252776
 20
3.444902
  0
VERTEX
  8
LAYER_1
 62
     7
  6
CONTINUOUS
 10
-0.252776
 20
3.321665
  0
SEQEND
  8
0
  0
POLYLINE
  8
LAYER_1
 62
     7
  6
CONTINUOUS
 66
     1
 40
0.044252
 41
0.044252
  0
VERTEX
  8
LAYER_1
 62
     7
  6
CONTINUOUS
 10
-1.238610
 20
1.628441
  0
VERTEX
  8
LAYER_1
 62
     7
  6
CONTINUOUS
 10
-1.308699
 20
1.639757
  0
VERTEX
  8
LAYER_1
 62
     7
  6
CONTINUOUS
 10
-1.369591
 20
1.671263
  0
VERTEX
  8
LAYER_1
 62
     7
  6
CONTINUOUS
 10
-1.417621
 20
1.719294
  0
VERTEX
  8
LAYER_1
 62
     7
  6
CONTINUOUS
 10
-1.449125
 20
1.780186
  0
VERTEX
  8
LAYER_1
 62
     7
  6
CONTINUOUS
 10
-1.460441
 20
1.850276
  0
SEQEND
  8
0
  0
POLYLINE
  8
LAYER_1
 62
     7
  6
CONTINUOUS
 66
     1
 40
0.044252
 41
0.044252
  0
VERTEX
  8
LAYER_1
 62
     7
  6
CONTINUOUS
 10
-1.460441
 20
1.850276
  0
VERTEX
  8
LAYER_1
 62
     7
  6
CONTINUOUS
 10
-1.449125
 20
1.920365
  0
VERTEX
  8
LAYER_1
 62
     7
  6
CONTINUOUS
 10
-1.417621
 20
1.981258
  0
VERTEX
  8
LAYER_1
 62
     7
  6
CONTINUOUS
 10
-1.369591
 20
2.029289
  0
VERTEX
  8
LAYER_1
 62
     7
  6
CONTINUOUS
 10
-1.308699
 20
2.060794
  0
VERTEX
  8
LAYER_1
 62
     7
  6
CONTINUOUS
 10
-1.238610
 20
2.072110
  0
SEQEND
  8
0
  0
POLYLINE
  8
LAYER_1
 62
     7
  6
CONTINUOUS
 66
     1
 40
0.044252
 41
0.044252
  0
VERTEX
  8
LAYER_1
 62
     7
  6
CONTINUOUS
 10
-1.238610
 20
2.072110
  0
VERTEX
  8
LAYER_1
 62
     7
  6
CONTINUOUS
 10
-1.168521
 20
2.060794
  0
VERTEX
  8
LAYER_1
 62
     7
  6
CONTINUOUS
 10
-1.107628
 20
2.029289
  0
VERTEX
  8
LAYER_1
 62
     7
  6
CONTINUOUS
 10
-1.059597
 20
1.981258
  0
VERTEX
  8
LAYER_1
 62
     7
  6
CONTINUOUS
 10
-1.028092
 20
1.920365
  0
VERTEX
  8
LAYER_1
 62
     7
  6
CONTINUOUS
 10
-1.016776
 20
1.850276
  0
SEQEND
  8
0
  0
POLYLINE
  8
LAYER_1
 62
     7
  6
CONTINUOUS
 66
     1
 40
0.044252
 41
0.044252
  0
VERTEX
  8
LAYER_1
 62
     7
  6
CONTINUOUS
 10
-1.016776
 20
1.850276
  0
VERTEX
  8
LAYER_1
 62
     7
  6
CONTINUOUS
 10
-1.028092
 20
1.780186
  0
VERTEX
  8
LAYER_1
 62
     7
  6
CONTINUOUS
 10
-1.059597
 20
1.719294
  0
VERTEX
  8
LAYER_1
 62
     7
  6
CONTINUOUS
 10
-1.107628
 20
1.671263
  0
VERTEX
  8
LAYER_1
 62
     7
  6
CONTINUOUS
 10
-1.168521
 20
1.639757
  0
VERTEX
  8
LAYER_1
 62
     7
  6
CONTINUOUS
 10
-1.238610
 20
1.628441
  0
SEQEND
  8
0
  0
POLYLINE
  8
LAYER_1
 62
     7
  6
CONTINUOUS
 66
     1
 40
0.044252
 41
0.044252
  0
VERTEX
  8
LAYER_1
 62
     7
  6
CONTINUOUS
 10
-0.622500
 20
1.850484
  0
VERTEX
  8
LAYER_1
 62
     7
  6
CONTINUOUS
 10
-0.376028
 20
1.604000
  0
VERTEX
  8
LAYER_1
 62
     7
  6
CONTINUOUS
 10
-0.129539
 20
1.727248
  0
VERTEX
  8
LAYER_1
 62
     7
  6
CONTINUOUS
 10
-0.129539
 20
1.604000
  0
SEQEND
  8
0
  0
POLYLINE
  8
LAYER_1
 62
     7
  6
CONTINUOUS
 66
     1
 40
0.044252
 41
0.044252
  0
VERTEX
  8
LAYER_1
 62
     7
  6
CONTINUOUS
 10
-0.622500
 20
1.850484
  0
VERTEX
  8
LAYER_1
 62
     7
  6
CONTINUOUS
 10
-0.499264
 20
1.604000
  0
VERTEX
  8
LAYER_1
 62
     7
  6
CONTINUOUS
 10
-0.252791
 20
1.480764
  0
VERTEX
  8
LAYER_1
 62
     7
  6
CONTINUOUS
 10
-0.376028
 20
1.480764
  0
SEQEND
  8
0
  0
POLYLINE
  8
LAYER_1
 62
     7
  6
CONTINUOUS
 66
     1
 40
0.044252
 41
0.044252
  0
VERTEX
  8
LAYER_1
 62
     7
  6
CONTINUOUS
 10
-0.992220
 20
1.850484
  0
VERTEX
  8
LAYER_1
 62
     7
  6
CONTINUOUS
 10
-0.622500
 20
1.850484
  0
SEQEND
  8
0
  0
POLYLINE
  8
LAYER_1
 62
     7
  6
CONTINUOUS
 66
     1
 40
0.044252
 41
0.044252
  0
VERTEX
  8
LAYER_1
 62
     7
  6
CONTINUOUS
 10
-0.622500
 20
2.096957
  0
VERTEX
  8
LAYER_1
 62
     7
  6
CONTINUOUS
 10
-0.745732
 20
2.096957
  0
VERTEX
  8
LAYER_1
 62
     7
  6
CONTINUOUS
 10
-0.992220
 20
1.973720
  0
VERTEX
  8
LAYER_1
 62
     7
  6
CONTINUOUS
 10
-0.868984
 20
1.596303
  0
VERTEX
  8
LAYER_1
 62
     7
  6
CONTINUOUS
 10
-0.868984
 20
1.480764
  0
VERTEX
  8
LAYER_1
 62
     7
  6
CONTINUOUS
 10
-0.992220
 20
1.357528
  0
SEQEND
  8
0
  0
POLYLINE
  8
LAYER_1
 62
     7
  6
CONTINUOUS
 66
     1
 40
0.044252
 41
0.044252
  0
VERTEX
  8
LAYER_1
 62
     7
  6
CONTINUOUS
 10
-1.116110
 20
-2.068220
  0
VERTEX
  8
LAYER_1
 62
     7
  6
CONTINUOUS
 10
-1.186199
 20
-2.056904
  0
VERTEX
  8
LAYER_1
 62
     7
  6
CONTINUOUS
 10
-1.247091
 20
-2.025399
  0
VERTEX
  8
LAYER_1
 62
     7
  6
CONTINUOUS
 10
-1.295121
 20
-1.977368
  0
VERTEX
  8
LAYER_1
 62
     7
  6
CONTINUOUS
 10
-1.326625
 20
-1.916475
  0
VERTEX
  8
LAYER_1
 62
     7
  6
CONTINUOUS
 10
-1.337941
 20
-1.846386
  0
SEQEND
  8
0
  0
POLYLINE
  8
LAYER_1
 62
     7
  6
CONTINUOUS
 66
     1
 40
0.044252
 41
0.044252
  0
VERTEX
  8
LAYER_1
 62
     7
  6
CONTINUOUS
 10
-1.337941
 20
-1.846386
  0
VERTEX
  8
LAYER_1
 62
     7
  6
CONTINUOUS
 10
-1.326625
 20
-1.776297
  0
VERTEX
  8
LAYER_1
 62
     7
  6
CONTINUOUS
 10
-1.295121
 20
-1.715405
  0
VERTEX
  8
LAYER_1
 62
     7
  6
CONTINUOUS
 10
-1.247091
 20
-1.667375
  0
VERTEX
  8
LAYER_1
 62
     7
  6
CONTINUOUS
 10
-1.186199
 20
-1.635871
  0
VERTEX
  8
LAYER_1
 62
     7
  6
CONTINUOUS
 10
-1.116110
 20
-1.624555
  0
SEQEND
  8
0
  0
POLYLINE
  8
LAYER_1
 62
     7
  6
CONTINUOUS
 66
     1
 40
0.044252
 41
0.044252
  0
VERTEX
  8
LAYER_1
 62
     7
  6
CONTINUOUS
 10
-1.116110
 20
-1.624555
  0
VERTEX
  8
LAYER_1
 62
     7
  6
CONTINUOUS
 10
-1.046021
 20
-1.635871
  0
VERTEX
  8
LAYER_1
 62
     7
  6
CONTINUOUS
 10
-0.985128
 20
-1.667375
  0
VERTEX
  8
LAYER_1
 62
     7
  6
CONTINUOUS
 10
-0.937097
 20
-1.715405
  0
VERTEX
  8
LAYER_1
 62
     7
  6
CONTINUOUS
 10
-0.905592
 20
-1.776297
  0
VERTEX
  8
LAYER_1
 62
     7
  6
CONTINUOUS
 10
-0.894276
 20
-1.846386
  0
SEQEND
  8
0
  0
POLYLINE
  8
LAYER_1
 62
     7
  6
CONTINUOUS
 66
     1
 40
0.044252
 41
0.044252
  0
VERTEX
  8
LAYER_1
 62
     7
  6
CONTINUOUS
 10
-0.894276
 20
-1.846386
  0
VERTEX
  8
LAYER_1
 62
     7
  6
CONTINUOUS
 10
-0.905592
 20
-1.916475
  0
VERTEX
  8
LAYER_1
 62
     7
  6
CONTINUOUS
 10
-0.937097
 20
-1.977368
  0
VERTEX
  8
LAYER_1
 62
     7
  6
CONTINUOUS
 10
-0.985128
 20
-2.025399
  0
VERTEX
  8
LAYER_1
 62
     7
  6
CONTINUOUS
 10
-1.046021
 20
-2.056904
  0
VERTEX
  8
LAYER_1
 62
     7
  6
CONTINUOUS
 10
-1.116110
 20
-2.068220
  0
SEQEND
  8
0
  0
POLYLINE
  8
LAYER_1
 62
     7
  6
CONTINUOUS
 66
     1
 40
0.044252
 41
0.044252
  0
VERTEX
  8
LAYER_1
 62
     7
  6
CONTINUOUS
 10
-0.622500
 20
-2.093165
  0
VERTEX
  8
LAYER_1
 62
     7
  6
CONTINUOUS
 10
-0.376028
 20
-2.339638
  0
VERTEX
  8
LAYER_1
 62
     7
  6
CONTINUOUS
 10
-0.129539
 20
-2.216402
  0
VERTEX
  8
LAYER_1
 62
     7
  6
CONTINUOUS
 10
-0.129539
 20
-2.339638
  0
SEQEND
  8
0
  0
POLYLINE
  8
LAYER_1
 62
     7
  6
CONTINUOUS
 66
     1
 40
0.044252
 41
0.044252
  0
VERTEX
  8
LAYER_1
 62
     7
  6
CONTINUOUS
 10
-0.868984
 20
-1.969929
  0
VERTEX
  8
LAYER_1
 62
     7
  6
CONTINUOUS
 10
-0.622500
 20
-2.093165
  0
SEQEND
  8
0
  0
POLYLINE
  8
LAYER_1
 62
     7
  6
CONTINUOUS
 66
     1
 40
0.044252
 41
0.044252
  0
VERTEX
  8
LAYER_1
 62
     7
  6
CONTINUOUS
 10
-0.622500
 20
-2.093165
  0
VERTEX
  8
LAYER_1
 62
     7
  6
CONTINUOUS
 10
-0.499264
 20
-1.846677
  0
VERTEX
  8
LAYER_1
 62
     7
  6
CONTINUOUS
 10
-0.252791
 20
-1.969929
  0
SEQEND
  8
0
  0
POLYLINE
  8
LAYER_1
 62
     7
  6
CONTINUOUS
 66
     1
 40
0.044252
 41
0.044252
  0
VERTEX
  8
LAYER_1
 62
     7
  6
CONTINUOUS
 10
-0.992776
 20
-4.039886
  0
VERTEX
  8
LAYER_1
 62
     7
  6
CONTINUOUS
 10
-1.062865
 20
-4.028570
  0
VERTEX
  8
LAYER_1
 62
     7
  6
CONTINUOUS
 10
-1.123758
 20
-3.997066
  0
VERTEX
  8
LAYER_1
 62
     7
  6
CONTINUOUS
 10
-1.171789
 20
-3.949036
  0
VERTEX
  8
LAYER_1
 62
     7
  6
CONTINUOUS
 10
-1.203294
 20
-3.888144
  0
VERTEX
  8
LAYER_1
 62
     7
  6
CONTINUOUS
 10
-1.214610
 20
-3.818055
  0
SEQEND
  8
0
  0
POLYLINE
  8
LAYER_1
 62
     7
  6
CONTINUOUS
 66
     1
 40
0.044252
 41
0.044252
  0
VERTEX
  8
LAYER_1
 62
     7
  6
CONTINUOUS
 10
-1.214610
 20
-3.818055
  0
VERTEX
  8
LAYER_1
 62
     7
  6
CONTINUOUS
 10
-1.203294
 20
-3.747965
  0
VERTEX
  8
LAYER_1
 62
     7
  6
CONTINUOUS
 10
-1.171789
 20
-3.687073
  0
VERTEX
  8
LAYER_1
 62
     7
  6
CONTINUOUS
 10
-1.123758
 20
-3.639042
  0
VERTEX
  8
LAYER_1
 62
     7
  6
CONTINUOUS
 10
-1.062865
 20
-3.607537
  0
VERTEX
  8
LAYER_1
 62
     7
  6
CONTINUOUS
 10
-0.992776
 20
-3.596220
  0
SEQEND
  8
0
  0
POLYLINE
  8
LAYER_1
 62
     7
  6
CONTINUOUS
 66
     1
 40
0.044252
 41
0.044252
  0
VERTEX
  8
LAYER_1
 62
     7
  6
CONTINUOUS
 10
-0.992776
 20
-3.596220
  0
VERTEX
  8
LAYER_1
 62
     7
  6
CONTINUOUS
 10
-0.922686
 20
-3.607537
  0
VERTEX
  8
LAYER_1
 62
     7
  6
CONTINUOUS
 10
-0.861794
 20
-3.639042
  0
VERTEX
  8
LAYER_1
 62
     7
  6
CONTINUOUS
 10
-0.813763
 20
-3.687073
  0
VERTEX
  8
LAYER_1
 62
     7
  6
CONTINUOUS
 10
-0.782257
 20
-3.747965
  0
VERTEX
  8
LAYER_1
 62
     7
  6
CONTINUOUS
 10
-0.770941
 20
-3.818055
  0
SEQEND
  8
0
  0
POLYLINE
  8
LAYER_1
 62
     7
  6
CONTINUOUS
 66
     1
 40
0.044252
 41
0.044252
  0
VERTEX
  8
LAYER_1
 62
     7
  6
CONTINUOUS
 10
-0.770941
 20
-3.818055
  0
VERTEX
  8
LAYER_1
 62
     7
  6
CONTINUOUS
 10
-0.782257
 20
-3.888144
  0
VERTEX
  8
LAYER_1
 62
     7
  6
CONTINUOUS
 10
-0.813763
 20
-3.949036
  0
VERTEX
  8
LAYER_1
 62
     7
  6
CONTINUOUS
 10
-0.861794
 20
-3.997066
  0
VERTEX
  8
LAYER_1
 62
     7
  6
CONTINUOUS
 10
-0.922686
 20
-4.028570
  0
VERTEX
  8
LAYER_1
 62
     7
  6
CONTINUOUS
 10
-0.992776
 20
-4.039886
  0
SEQEND
  8
0
  0
POLYLINE
  8
LAYER_1
 62
     7
  6
CONTINUOUS
 66
     1
 40
0.044252
 41
0.044252
  0
VERTEX
  8
LAYER_1
 62
     7
  6
CONTINUOUS
 10
-0.499264
 20
-4.072677
  0
VERTEX
  8
LAYER_1
 62
     7
  6
CONTINUOUS
 10
-0.376028
 20
-3.702969
  0
VERTEX
  8
LAYER_1
 62
     7
  6
CONTINUOUS
 10
-0.252791
 20
-3.702969
  0
VERTEX
  8
LAYER_1
 62
     7
  6
CONTINUOUS
 10
-0.252791
 20
-3.579720
  0
SEQEND
  8
0
  0
POLYLINE
  8
LAYER_1
 62
     7
  6
CONTINUOUS
 66
     1
 40
0.044252
 41
0.044252
  0
VERTEX
  8
LAYER_1
 62
     7
  6
CONTINUOUS
 10
-0.499264
 20
-4.064984
  0
VERTEX
  8
LAYER_1
 62
     7
  6
CONTINUOUS
 10
-0.376012
 20
-4.311457
  0
VERTEX
  8
LAYER_1
 62
     7
  6
CONTINUOUS
 10
-0.129539
 20
-4.188220
  0
VERTEX
  8
LAYER_1
 62
     7
  6
CONTINUOUS
 10
-0.129539
 20
-4.311457
  0
SEQEND
  8
0
  0
POLYLINE
  8
LAYER_1
 62
     7
  6
CONTINUOUS
 66
     1
 40
0.044252
 41
0.044252
  0
VERTEX
  8
LAYER_1
 62
     7
  6
CONTINUOUS
 10
-0.499264
 20
-3.572028
  0
VERTEX
  8
LAYER_1
 62
     7
  6
CONTINUOUS
 10
-0.499264
 20
-3.695264
  0
VERTEX
  8
LAYER_1
 62
     7
  6
CONTINUOUS
 10
-0.745732
 20
-3.941748
  0
VERTEX
  8
LAYER_1
 62
     7
  6
CONTINUOUS
 10
-0.745732
 20
-4.072693
  0
VERTEX
  8
LAYER_1
 62
     7
  6
CONTINUOUS
 10
-0.868969
 20
-4.195929
  0
VERTEX
  8
LAYER_1
 62
     7
  6
CONTINUOUS
 10
-0.868969
 20
-4.319165
  0
SEQEND
  8
0
  0
POLYLINE
  8
LAYER_1
 62
     7
  6
CONTINUOUS
 66
     1
 40
0.044252
 41
0.044252
  0
VERTEX
  8
LAYER_1
 62
     7
  6
CONTINUOUS
 10
-0.745732
 20
-3.941748
  0
VERTEX
  8
LAYER_1
 62
     7
  6
CONTINUOUS
 10
-0.499264
 20
-4.064984
  0
SEQEND
  8
0
  0
POLYLINE
  8
LAYER_1
 62
     7
  6
CONTINUOUS
 66
     1
 40
0.044252
 41
0.044252
  0
VERTEX
  8
LAYER_1
 62
     7
  6
CONTINUOUS
 10
-0.622500
 20
3.691413
  0
VERTEX
  8
LAYER_1
 62
     7
  6
CONTINUOUS
 10
-0.622500
 20
3.699110
  0
VERTEX
  8
LAYER_1
 62
     7
  6
CONTINUOUS
 10
-0.376012
 20
3.691413
  0
VERTEX
  8
LAYER_1
 62
     7
  6
CONTINUOUS
 10
-0.129539
 20
3.814650
  0
VERTEX
  8
LAYER_1
 62
     7
  6
CONTINUOUS
 10
-0.129539
 20
3.691413
  0
SEQEND
  8
0
  0
POLYLINE
  8
LAYER_1
 62
     7
  6
CONTINUOUS
 66
     1
 40
0.044252
 41
0.044252
  0
VERTEX
  8
LAYER_1
 62
     7
  6
CONTINUOUS
 10
-0.745732
 20
4.061110
  0
VERTEX
  8
LAYER_1
 62
     7
  6
CONTINUOUS
 10
-0.745732
 20
3.937874
  0
VERTEX
  8
LAYER_1
 62
     7
  6
CONTINUOUS
 10
-0.992205
 20
3.814638
  0
VERTEX
  8
LAYER_1
 62
     7
  6
CONTINUOUS
 10
-0.868969
 20
3.568150
  0
VERTEX
  8
LAYER_1
 62
     7
  6
CONTINUOUS
 10
-1.115457
 20
3.452622
  0
VERTEX
  8
LAYER_1
 62
     7
  6
CONTINUOUS
 10
-0.992205
 20
3.329374
  0
SEQEND
  8
0
  0
POLYLINE
  8
LAYER_1
 62
     7
  6
CONTINUOUS
 66
     1
 40
0.044252
 41
0.044252
  0
VERTEX
  8
LAYER_1
 62
     7
  6
CONTINUOUS
 10
-1.238610
 20
-0.343220
  0
VERTEX
  8
LAYER_1
 62
     7
  6
CONTINUOUS
 10
-1.308699
 20
-0.331904
  0
VERTEX
  8
LAYER_1
 62
     7
  6
CONTINUOUS
 10
-1.369591
 20
-0.300399
  0
VERTEX
  8
LAYER_1
 62
     7
  6
CONTINUOUS
 10
-1.417621
 20
-0.252368
  0
VERTEX
  8
LAYER_1
 62
     7
  6
CONTINUOUS
 10
-1.449125
 20
-0.191475
  0
VERTEX
  8
LAYER_1
 62
     7
  6
CONTINUOUS
 10
-1.460441
 20
-0.121386
  0
SEQEND
  8
0
  0
POLYLINE
  8
LAYER_1
 62
     7
  6
CONTINUOUS
 66
     1
 40
0.044252
 41
0.044252
  0
VERTEX
  8
LAYER_1
 62
     7
  6
CONTINUOUS
 10
-1.460441
 20
-0.121386
  0
VERTEX
  8
LAYER_1
 62
     7
  6
CONTINUOUS
 10
-1.449125
 20
-0.051299
  0
VERTEX
  8
LAYER_1
 62
     7
  6
CONTINUOUS
 10
-1.417621
 20
0.009592
  0
VERTEX
  8
LAYER_1
 62
     7
  6
CONTINUOUS
 10
-1.369591
 20
0.057621
  0
VERTEX
  8
LAYER_1
 62
     7
  6
CONTINUOUS
 10
-1.308699
 20
0.089125
  0
VERTEX
  8
LAYER_1
 62
     7
  6
CONTINUOUS
 10
-1.238610
 20
0.100441
  0
SEQEND
  8
0
  0
POLYLINE
  8
LAYER_1
 62
     7
  6
CONTINUOUS
 66
     1
 40
0.044252
 41
0.044252
  0
VERTEX
  8
LAYER_1
 62
     7
  6
CONTINUOUS
 10
-1.238610
 20
0.100441
  0
VERTEX
  8
LAYER_1
 62
     7
  6
CONTINUOUS
 10
-1.168521
 20
0.089125
  0
VERTEX
  8
LAYER_1
 62
     7
  6
CONTINUOUS
 10
-1.107628
 20
0.057621
  0
VERTEX
  8
LAYER_1
 62
     7
  6
CONTINUOUS
 10
-1.059597
 20
0.009592
  0
VERTEX
  8
LAYER_1
 62
     7
  6
CONTINUOUS
 10
-1.028092
 20
-0.051299
  0
VERTEX
  8
LAYER_1
 62
     7
  6
CONTINUOUS
 10
-1.016776
 20
-0.121386
  0
SEQEND
  8
0
  0
POLYLINE
  8
LAYER_1
 62
     7
  6
CONTINUOUS
 66
     1
 40
0.044252
 41
0.044252
  0
VERTEX
  8
LAYER_1
 62
     7
  6
CONTINUOUS
 10
-1.016776
 20
-0.121386
  0
VERTEX
  8
LAYER_1
 62
     7
  6
CONTINUOUS
 10
-1.028092
 20
-0.191475
  0
VERTEX
  8
LAYER_1
 62
     7
  6
CONTINUOUS
 10
-1.059597
 20
-0.252368
  0
VERTEX
  8
LAYER_1
 62
     7
  6
CONTINUOUS
 10
-1.107628
 20
-0.300399
  0
VERTEX
  8
LAYER_1
 62
     7
  6
CONTINUOUS
 10
-1.168521
 20
-0.331904
  0
VERTEX
  8
LAYER_1
 62
     7
  6
CONTINUOUS
 10
-1.238610
 20
-0.343220
  0
SEQEND
  8
0
  0
POLYLINE
  8
LAYER_1
 62
     7
  6
CONTINUOUS
 66
     1
 40
0.044252
 41
0.044252
  0
VERTEX
  8
LAYER_1
 62
     7
  6
CONTINUOUS
 10
-0.622500
 20
0.125150
  0
VERTEX
  8
LAYER_1
 62
     7
  6
CONTINUOUS
 10
-0.745732
 20
0.125150
  0
VERTEX
  8
LAYER_1
 62
     7
  6
CONTINUOUS
 10
-0.868969
 20
0.001902
  0
VERTEX
  8
LAYER_1
 62
     7
  6
CONTINUOUS
 10
-0.992205
 20
-0.244567
  0
VERTEX
  8
LAYER_1
 62
     7
  6
CONTINUOUS
 10
-0.868969
 20
-0.491039
  0
VERTEX
  8
LAYER_1
 62
     7
  6
CONTINUOUS
 10
-0.992205
 20
-0.614291
  0
SEQEND
  8
0
  0
POLYLINE
  8
LAYER_1
 62
     7
  6
CONTINUOUS
 66
     1
 40
0.044252
 41
0.044252
  0
VERTEX
  8
LAYER_1
 62
     7
  6
CONTINUOUS
 10
-0.622500
 20
-0.244567
  0
VERTEX
  8
LAYER_1
 62
     7
  6
CONTINUOUS
 10
-0.499264
 20
0.001902
  0
VERTEX
  8
LAYER_1
 62
     7
  6
CONTINUOUS
 10
-0.252776
 20
-0.244567
  0
VERTEX
  8
LAYER_1
 62
     7
  6
CONTINUOUS
 10
-0.252776
 20
-0.121331
  0
SEQEND
  8
0
  0
POLYLINE
  8
LAYER_1
 62
     7
  6
CONTINUOUS
 66
     1
 40
0.044252
 41
0.044252
  0
VERTEX
  8
LAYER_1
 62
     7
  6
CONTINUOUS
 10
-0.499264
 20
-1.731138
  0
VERTEX
  8
LAYER_1
 62
     7
  6
CONTINUOUS
 10
-0.745732
 20
-1.846677
  0
VERTEX
  8
LAYER_1
 62
     7
  6
CONTINUOUS
 10
-0.745732
 20
-2.100858
  0
VERTEX
  8
LAYER_1
 62
     7
  6
CONTINUOUS
 10
-0.992205
 20
-2.216386
  0
VERTEX
  8
LAYER_1
 62
     7
  6
CONTINUOUS
 10
-0.868969
 20
-2.339638
  0
SEQEND
  8
0
  0
POLYLINE
  8
LAYER_1
 62
     7
  6
CONTINUOUS
 66
     1
 40
0.044252
 41
0.044252
  0
VERTEX
  8
LAYER_1
 62
     7
  6
CONTINUOUS
 10
-0.992220
 20
-0.121331
  0
VERTEX
  8
LAYER_1
 62
     7
  6
CONTINUOUS
 10
-0.622500
 20
-0.244567
  0
SEQEND
  8
0
  0
POLYLINE
  8
LAYER_1
 62
     7
  6
CONTINUOUS
 66
     1
 40
0.044252
 41
0.044252
  0
VERTEX
  8
LAYER_1
 62
     7
  6
CONTINUOUS
 10
-0.622500
 20
-0.252276
  0
VERTEX
  8
LAYER_1
 62
     7
  6
CONTINUOUS
 10
-0.499264
 20
-0.252276
  0
VERTEX
  8
LAYER_1
 62
     7
  6
CONTINUOUS
 10
-0.376028
 20
-0.491055
  0
VERTEX
  8
LAYER_1
 62
     7
  6
CONTINUOUS
 10
-0.376028
 20
-0.622000
  0
SEQEND
  8
0
  0
POLYLINE
  8
LAYER_1
 62
     7
  6
CONTINUOUS
 66
     1
 40
0.003000
 41
0.003000
 70
     1
  0
VERTEX
  8
LAYER_1
 62
     7
  6
CONTINUOUS
 10
-1.968555
 20
-5.034122
  0
VERTEX
  8
LAYER_1
 62
     7
  6
CONTINUOUS
 10
0.003264
 20
-5.034122
  0
VERTEX
  8
LAYER_1
 62
     7
  6
CONTINUOUS
 10
0.003264
 20
4.824996
  0
VERTEX
  8
LAYER_1
 62
     7
  6
CONTINUOUS
 10
-1.968555
 20
4.824996
  0
SEQEND
  8
0
  0
POLYLINE
  8
LAYER_1
 62
     7
  6
CONTINUOUS
 66
     1
 40
0.044252
 41
0.044252
  0
VERTEX
  8
LAYER_1
 62
     7
  6
CONTINUOUS
 10
-3.469441
 20
1.510110
  0
VERTEX
  8
LAYER_1
 62
     7
  6
CONTINUOUS
 10
-3.539531
 20
1.521426
  0
VERTEX
  8
LAYER_1
 62
     7
  6
CONTINUOUS
 10
-3.600423
 20
1.552932
  0
VERTEX
  8
LAYER_1
 62
     7
  6
CONTINUOUS
 10
-3.648454
 20
1.600962
  0
VERTEX
  8
LAYER_1
 62
     7
  6
CONTINUOUS
 10
-3.679959
 20
1.661853
  0
VERTEX
  8
LAYER_1
 62
     7
  6
CONTINUOUS
 10
-3.691276
 20
1.731941
  0
SEQEND
  8
0
  0
POLYLINE
  8
LAYER_1
 62
     7
  6
CONTINUOUS
 66
     1
 40
0.044252
 41
0.044252
  0
VERTEX
  8
LAYER_1
 62
     7
  6
CONTINUOUS
 10
-3.691276
 20
1.731941
  0
VERTEX
  8
LAYER_1
 62
     7
  6
CONTINUOUS
 10
-3.679959
 20
1.802031
  0
VERTEX
  8
LAYER_1
 62
     7
  6
CONTINUOUS
 10
-3.648454
 20
1.862923
  0
VERTEX
  8
LAYER_1
 62
     7
  6
CONTINUOUS
 10
-3.600423
 20
1.910954
  0
VERTEX
  8
LAYER_1
 62
     7
  6
CONTINUOUS
 10
-3.539531
 20
1.942459
  0
VERTEX
  8
LAYER_1
 62
     7
  6
CONTINUOUS
 10
-3.469441
 20
1.953776
  0
SEQEND
  8
0
  0
POLYLINE
  8
LAYER_1
 62
     7
  6
CONTINUOUS
 66
     1
 40
0.044252
 41
0.044252
  0
VERTEX
  8
LAYER_1
 62
     7
  6
CONTINUOUS
 10
-3.469441
 20
1.953776
  0
VERTEX
  8
LAYER_1
 62
     7
  6
CONTINUOUS
 10
-3.399353
 20
1.942459
  0
VERTEX
  8
LAYER_1
 62
     7
  6
CONTINUOUS
 10
-3.338462
 20
1.910954
  0
VERTEX
  8
LAYER_1
 62
     7
  6
CONTINUOUS
 10
-3.290432
 20
1.862923
  0
VERTEX
  8
LAYER_1
 62
     7
  6
CONTINUOUS
 10
-3.258926
 20
1.802031
  0
VERTEX
  8
LAYER_1
 62
     7
  6
CONTINUOUS
 10
-3.247610
 20
1.731941
  0
SEQEND
  8
0
  0
POLYLINE
  8
LAYER_1
 62
     7
  6
CONTINUOUS
 66
     1
 40
0.044252
 41
0.044252
  0
VERTEX
  8
LAYER_1
 62
     7
  6
CONTINUOUS
 10
-3.247610
 20
1.731941
  0
VERTEX
  8
LAYER_1
 62
     7
  6
CONTINUOUS
 10
-3.258926
 20
1.661853
  0
VERTEX
  8
LAYER_1
 62
     7
  6
CONTINUOUS
 10
-3.290432
 20
1.600962
  0
VERTEX
  8
LAYER_1
 62
     7
  6
CONTINUOUS
 10
-3.338462
 20
1.552932
  0
VERTEX
  8
LAYER_1
 62
     7
  6
CONTINUOUS
 10
-3.399353
 20
1.521426
  0
VERTEX
  8
LAYER_1
 62
     7
  6
CONTINUOUS
 10
-3.469441
 20
1.510110
  0
SEQEND
  8
0
  0
POLYLINE
  8
LAYER_1
 62
     7
  6
CONTINUOUS
 66
     1
 40
0.044252
 41
0.044252
  0
VERTEX
  8
LAYER_1
 62
     7
  6
CONTINUOUS
 10
-2.729776
 20
1.855803
  0
VERTEX
  8
LAYER_1
 62
     7
  6
CONTINUOUS
 10
-2.360067
 20
1.609319
  0
VERTEX
  8
LAYER_1
 62
     7
  6
CONTINUOUS
 10
-2.113583
 20
1.609319
  0
VERTEX
  8
LAYER_1
 62
     7
  6
CONTINUOUS
 10
-2.113583
 20
1.486083
  0
SEQEND
  8
0
  0
POLYLINE
  8
LAYER_1
 62
     7
  6
CONTINUOUS
 66
     1
 40
0.044252
 41
0.044252
  0
VERTEX
  8
LAYER_1
 62
     7
  6
CONTINUOUS
 10
-3.099500
 20
2.348764
  0
VERTEX
  8
LAYER_1
 62
     7
  6
CONTINUOUS
 10
-3.099500
 20
2.225512
  0
VERTEX
  8
LAYER_1
 62
     7
  6
CONTINUOUS
 10
-3.222732
 20
1.979039
  0
VERTEX
  8
LAYER_1
 62
     7
  6
CONTINUOUS
 10
-2.976264
 20
1.732567
  0
VERTEX
  8
LAYER_1
 62
     7
  6
CONTINUOUS
 10
-3.099500
 20
1.486083
  0
VERTEX
  8
LAYER_1
 62
     7
  6
CONTINUOUS
 10
-3.099500
 20
1.362846
  0
SEQEND
  8
0
  0
POLYLINE
  8
LAYER_1
 62
     7
  6
CONTINUOUS
 66
     1
 40
0.044252
 41
0.044252
  0
VERTEX
  8
LAYER_1
 62
     7
  6
CONTINUOUS
 10
-3.469441
 20
-0.584886
  0
VERTEX
  8
LAYER_1
 62
     7
  6
CONTINUOUS
 10
-3.539531
 20
-0.573570
  0
VERTEX
  8
LAYER_1
 62
     7
  6
CONTINUOUS
 10
-3.600423
 20
-0.542066
  0
VERTEX
  8
LAYER_1
 62
     7
  6
CONTINUOUS
 10
-3.648454
 20
-0.494036
  0
VERTEX
  8
LAYER_1
 62
     7
  6
CONTINUOUS
 10
-3.679959
 20
-0.433144
  0
VERTEX
  8
LAYER_1
 62
     7
  6
CONTINUOUS
 10
-3.691276
 20
-0.363055
  0
SEQEND
  8
0
  0
POLYLINE
  8
LAYER_1
 62
     7
  6
CONTINUOUS
 66
     1
 40
0.044252
 41
0.044252
  0
VERTEX
  8
LAYER_1
 62
     7
  6
CONTINUOUS
 10
-3.691276
 20
-0.363055
  0
VERTEX
  8
LAYER_1
 62
     7
  6
CONTINUOUS
 10
-3.679959
 20
-0.292965
  0
VERTEX
  8
LAYER_1
 62
     7
  6
CONTINUOUS
 10
-3.648454
 20
-0.232073
  0
VERTEX
  8
LAYER_1
 62
     7
  6
CONTINUOUS
 10
-3.600423
 20
-0.184042
  0
VERTEX
  8
LAYER_1
 62
     7
  6
CONTINUOUS
 10
-3.539531
 20
-0.152537
  0
VERTEX
  8
LAYER_1
 62
     7
  6
CONTINUOUS
 10
-3.469441
 20
-0.141220
  0
SEQEND
  8
0
  0
POLYLINE
  8
LAYER_1
 62
     7
  6
CONTINUOUS
 66
     1
 40
0.044252
 41
0.044252
  0
VERTEX
  8
LAYER_1
 62
     7
  6
CONTINUOUS
 10
-3.469441
 20
-0.141220
  0
VERTEX
  8
LAYER_1
 62
     7
  6
CONTINUOUS
 10
-3.399353
 20
-0.152537
  0
VERTEX
  8
LAYER_1
 62
     7
  6
CONTINUOUS
 10
-3.338462
 20
-0.184042
  0
VERTEX
  8
LAYER_1
 62
     7
  6
CONTINUOUS
 10
-3.290432
 20
-0.232073
  0
VERTEX
  8
LAYER_1
 62
     7
  6
CONTINUOUS
 10
-3.258926
 20
-0.292965
  0
VERTEX
  8
LAYER_1
 62
     7
  6
CONTINUOUS
 10
-3.247610
 20
-0.363055
  0
SEQEND
  8
0
  0
POLYLINE
  8
LAYER_1
 62
     7
  6
CONTINUOUS
 66
     1
 40
0.044252
 41
0.044252
  0
VERTEX
  8
LAYER_1
 62
     7
  6
CONTINUOUS
 10
-3.247610
 20
-0.363055
  0
VERTEX
  8
LAYER_1
 62
     7
  6
CONTINUOUS
 10
-3.258926
 20
-0.433144
  0
VERTEX
  8
LAYER_1
 62
     7
  6
CONTINUOUS
 10
-3.290432
 20
-0.494036
  0
VERTEX
  8
LAYER_1
 62
     7
  6
CONTINUOUS
 10
-3.338462
 20
-0.542066
  0
VERTEX
  8
LAYER_1
 62
     7
  6
CONTINUOUS
 10
-3.399353
 20
-0.573570
  0
VERTEX
  8
LAYER_1
 62
     7
  6
CONTINUOUS
 10
-3.469441
 20
-0.584886
  0
SEQEND
  8
0
  0
POLYLINE
  8
LAYER_1
 62
     7
  6
CONTINUOUS
 66
     1
 40
0.044252
 41
0.044252
  0
VERTEX
  8
LAYER_1
 62
     7
  6
CONTINUOUS
 10
-3.222732
 20
1.855803
  0
VERTEX
  8
LAYER_1
 62
     7
  6
CONTINUOUS
 10
-2.729776
 20
1.855803
  0
SEQEND
  8
0
  0
POLYLINE
  8
LAYER_1
 62
     7
  6
CONTINUOUS
 66
     1
 40
0.044252
 41
0.044252
  0
VERTEX
  8
LAYER_1
 62
     7
  6
CONTINUOUS
 10
-2.729776
 20
-0.116028
  0
VERTEX
  8
LAYER_1
 62
     7
  6
CONTINUOUS
 10
-2.360067
 20
-0.362500
  0
VERTEX
  8
LAYER_1
 62
     7
  6
CONTINUOUS
 10
-2.113583
 20
-0.239264
  0
VERTEX
  8
LAYER_1
 62
     7
  6
CONTINUOUS
 10
-2.113583
 20
-0.362500
  0
SEQEND
  8
0
  0
POLYLINE
  8
LAYER_1
 62
     7
  6
CONTINUOUS
 66
     1
 40
0.044252
 41
0.044252
  0
VERTEX
  8
LAYER_1
 62
     7
  6
CONTINUOUS
 10
-3.222732
 20
-0.239264
  0
VERTEX
  8
LAYER_1
 62
     7
  6
CONTINUOUS
 10
-3.099500
 20
-0.239264
  0
VERTEX
  8
LAYER_1
 62
     7
  6
CONTINUOUS
 10
-2.853028
 20
-0.116028
  0
VERTEX
  8
LAYER_1
 62
     7
  6
CONTINUOUS
 10
-2.729776
 20
-0.116028
  0
SEQEND
  8
0
  0
POLYLINE
  8
LAYER_1
 62
     7
  6
CONTINUOUS
 66
     1
 40
0.044252
 41
0.044252
  0
VERTEX
  8
LAYER_1
 62
     7
  6
CONTINUOUS
 10
-3.346110
 20
-2.679886
  0
VERTEX
  8
LAYER_1
 62
     7
  6
CONTINUOUS
 10
-3.416199
 20
-2.668570
  0
VERTEX
  8
LAYER_1
 62
     7
  6
CONTINUOUS
 10
-3.477091
 20
-2.637064
  0
VERTEX
  8
LAYER_1
 62
     7
  6
CONTINUOUS
 10
-3.525121
 20
-2.589034
  0
VERTEX
  8
LAYER_1
 62
     7
  6
CONTINUOUS
 10
-3.556625
 20
-2.528143
  0
VERTEX
  8
LAYER_1
 62
     7
  6
CONTINUOUS
 10
-3.567941
 20
-2.458055
  0
SEQEND
  8
0
  0
POLYLINE
  8
LAYER_1
 62
     7
  6
CONTINUOUS
 66
     1
 40
0.044252
 41
0.044252
  0
VERTEX
  8
LAYER_1
 62
     7
  6
CONTINUOUS
 10
-3.567941
 20
-2.458055
  0
VERTEX
  8
LAYER_1
 62
     7
  6
CONTINUOUS
 10
-3.556625
 20
-2.387965
  0
VERTEX
  8
LAYER_1
 62
     7
  6
CONTINUOUS
 10
-3.525121
 20
-2.327073
  0
VERTEX
  8
LAYER_1
 62
     7
  6
CONTINUOUS
 10
-3.477091
 20
-2.279042
  0
VERTEX
  8
LAYER_1
 62
     7
  6
CONTINUOUS
 10
-3.416199
 20
-2.247537
  0
VERTEX
  8
LAYER_1
 62
     7
  6
CONTINUOUS
 10
-3.346110
 20
-2.236220
  0
SEQEND
  8
0
  0
POLYLINE
  8
LAYER_1
 62
     7
  6
CONTINUOUS
 66
     1
 40
0.044252
 41
0.044252
  0
VERTEX
  8
LAYER_1
 62
     7
  6
CONTINUOUS
 10
-3.346110
 20
-2.236220
  0
VERTEX
  8
LAYER_1
 62
     7
  6
CONTINUOUS
 10
-3.276021
 20
-2.247537
  0
VERTEX
  8
LAYER_1
 62
     7
  6
CONTINUOUS
 10
-3.215128
 20
-2.279042
  0
VERTEX
  8
LAYER_1
 62
     7
  6
CONTINUOUS
 10
-3.167097
 20
-2.327073
  0
VERTEX
  8
LAYER_1
 62
     7
  6
CONTINUOUS
 10
-3.135592
 20
-2.387965
  0
VERTEX
  8
LAYER_1
 62
     7
  6
CONTINUOUS
 10
-3.124276
 20
-2.458055
  0
SEQEND
  8
0
  0
POLYLINE
  8
LAYER_1
 62
     7
  6
CONTINUOUS
 66
     1
 40
0.044252
 41
0.044252
  0
VERTEX
  8
LAYER_1
 62
     7
  6
CONTINUOUS
 10
-3.124276
 20
-2.458055
  0
VERTEX
  8
LAYER_1
 62
     7
  6
CONTINUOUS
 10
-3.135592
 20
-2.528143
  0
VERTEX
  8
LAYER_1
 62
     7
  6
CONTINUOUS
 10
-3.167097
 20
-2.589034
  0
VERTEX
  8
LAYER_1
 62
     7
  6
CONTINUOUS
 10
-3.215128
 20
-2.637064
  0
VERTEX
  8
LAYER_1
 62
     7
  6
CONTINUOUS
 10
-3.276021
 20
-2.668570
  0
VERTEX
  8
LAYER_1
 62
     7
  6
CONTINUOUS
 10
-3.346110
 20
-2.679886
  0
SEQEND
  8
0
  0
POLYLINE
  8
LAYER_1
 62
     7
  6
CONTINUOUS
 66
     1
 40
0.044252
 41
0.044252
  0
VERTEX
  8
LAYER_1
 62
     7
  6
CONTINUOUS
 10
-2.729791
 20
-2.095528
  0
VERTEX
  8
LAYER_1
 62
     7
  6
CONTINUOUS
 10
-2.360067
 20
-2.342000
  0
VERTEX
  8
LAYER_1
 62
     7
  6
CONTINUOUS
 10
-2.113594
 20
-2.342000
  0
VERTEX
  8
LAYER_1
 62
     7
  6
CONTINUOUS
 10
-2.113594
 20
-2.465232
  0
SEQEND
  8
0
  0
POLYLINE
  8
LAYER_1
 62
     7
  6
CONTINUOUS
 66
     1
 40
0.044252
 41
0.044252
  0
VERTEX
  8
LAYER_1
 62
     7
  6
CONTINUOUS
 10
-2.729791
 20
-0.116012
  0
VERTEX
  8
LAYER_1
 62
     7
  6
CONTINUOUS
 10
-2.360067
 20
-0.116012
  0
VERTEX
  8
LAYER_1
 62
     7
  6
CONTINUOUS
 10
-2.236831
 20
0.130457
  0
VERTEX
  8
LAYER_1
 62
     7
  6
CONTINUOUS
 10
-2.113583
 20
0.007220
  0
SEQEND
  8
0
  0
POLYLINE
  8
LAYER_1
 62
     7
  6
CONTINUOUS
 66
     1
 40
0.044252
 41
0.044252
  0
VERTEX
  8
LAYER_1
 62
     7
  6
CONTINUOUS
 10
-2.729776
 20
-2.095555
  0
VERTEX
  8
LAYER_1
 62
     7
  6
CONTINUOUS
 10
-2.360067
 20
-2.095555
  0
VERTEX
  8
LAYER_1
 62
     7
  6
CONTINUOUS
 10
-2.113583
 20
-1.972303
  0
VERTEX
  8
LAYER_1
 62
     7
  6
CONTINUOUS
 10
-2.113583
 20
-2.095555
  0
SEQEND
  8
0
  0
POLYLINE
  8
LAYER_1
 62
     7
  6
CONTINUOUS
 66
     1
 40
0.044252
 41
0.044252
  0
VERTEX
  8
LAYER_1
 62
     7
  6
CONTINUOUS
 10
-2.976264
 20
0.122748
  0
VERTEX
  8
LAYER_1
 62
     7
  6
CONTINUOUS
 10
-3.099500
 20
0.122748
  0
VERTEX
  8
LAYER_1
 62
     7
  6
CONTINUOUS
 10
-3.222732
 20
-0.123720
  0
VERTEX
  8
LAYER_1
 62
     7
  6
CONTINUOUS
 10
-2.976264
 20
-0.370205
  0
VERTEX
  8
LAYER_1
 62
     7
  6
CONTINUOUS
 10
-3.222732
 20
-0.616677
  0
VERTEX
  8
LAYER_1
 62
     7
  6
CONTINUOUS
 10
-3.222732
 20
-0.739913
  0
SEQEND
  8
0
  0
POLYLINE
  8
LAYER_1
 62
     7
  6
CONTINUOUS
 66
     1
 40
0.044252
 41
0.044252
  0
VERTEX
  8
LAYER_1
 62
     7
  6
CONTINUOUS
 10
-3.222732
 20
-2.218791
  0
VERTEX
  8
LAYER_1
 62
     7
  6
CONTINUOUS
 10
-3.099500
 20
-2.218791
  0
VERTEX
  8
LAYER_1
 62
     7
  6
CONTINUOUS
 10
-2.853028
 20
-2.095555
  0
VERTEX
  8
LAYER_1
 62
     7
  6
CONTINUOUS
 10
-2.729776
 20
-2.095555
  0
SEQEND
  8
0
  0
POLYLINE
  8
LAYER_1
 62
     7
  6
CONTINUOUS
 66
     1
 40
0.044252
 41
0.044252
  0
VERTEX
  8
LAYER_1
 62
     7
  6
CONTINUOUS
 10
-2.606539
 20
-4.190610
  0
VERTEX
  8
LAYER_1
 62
     7
  6
CONTINUOUS
 10
-2.360067
 20
-4.437094
  0
VERTEX
  8
LAYER_1
 62
     7
  6
CONTINUOUS
 10
-2.113583
 20
-4.313846
  0
VERTEX
  8
LAYER_1
 62
     7
  6
CONTINUOUS
 10
-2.113583
 20
-4.437094
  0
SEQEND
  8
0
  0
POLYLINE
  8
LAYER_1
 62
     7
  6
CONTINUOUS
 66
     1
 40
0.044252
 41
0.044252
  0
VERTEX
  8
LAYER_1
 62
     7
  6
CONTINUOUS
 10
-2.606539
 20
-4.190610
  0
VERTEX
  8
LAYER_1
 62
     7
  6
CONTINUOUS
 10
-2.483303
 20
-4.067374
  0
VERTEX
  8
LAYER_1
 62
     7
  6
CONTINUOUS
 10
-2.236831
 20
-4.190610
  0
VERTEX
  8
LAYER_1
 62
     7
  6
CONTINUOUS
 10
-2.113583
 20
-3.944138
  0
VERTEX
  8
LAYER_1
 62
     7
  6
CONTINUOUS
 10
-2.113583
 20
-4.067374
  0
SEQEND
  8
0
  0
POLYLINE
  8
LAYER_1
 62
     7
  6
CONTINUOUS
 66
     1
 40
0.044252
 41
0.044252
  0
VERTEX
  8
LAYER_1
 62
     7
  6
CONTINUOUS
 10
-3.222776
 20
-4.528220
  0
VERTEX
  8
LAYER_1
 62
     7
  6
CONTINUOUS
 10
-3.292865
 20
-4.516904
  0
VERTEX
  8
LAYER_1
 62
     7
  6
CONTINUOUS
 10
-3.353758
 20
-4.485399
  0
VERTEX
  8
LAYER_1
 62
     7
  6
CONTINUOUS
 10
-3.401789
 20
-4.437368
  0
VERTEX
  8
LAYER_1
 62
     7
  6
CONTINUOUS
 10
-3.433294
 20
-4.376475
  0
VERTEX
  8
LAYER_1
 62
     7
  6
CONTINUOUS
 10
-3.444610
 20
-4.306386
  0
SEQEND
  8
0
  0
POLYLINE
  8
LAYER_1
 62
     7
  6
CONTINUOUS
 66
     1
 40
0.044252
 41
0.044252
  0
VERTEX
  8
LAYER_1
 62
     7
  6
CONTINUOUS
 10
-3.444610
 20
-4.306386
  0
VERTEX
  8
LAYER_1
 62
     7
  6
CONTINUOUS
 10
-3.433294
 20
-4.236297
  0
VERTEX
  8
LAYER_1
 62
     7
  6
CONTINUOUS
 10
-3.401789
 20
-4.175405
  0
VERTEX
  8
LAYER_1
 62
     7
  6
CONTINUOUS
 10
-3.353758
 20
-4.127375
  0
VERTEX
  8
LAYER_1
 62
     7
  6
CONTINUOUS
 10
-3.292865
 20
-4.095871
  0
VERTEX
  8
LAYER_1
 62
     7
  6
CONTINUOUS
 10
-3.222776
 20
-4.084555
  0
SEQEND
  8
0
  0
POLYLINE
  8
LAYER_1
 62
     7
  6
CONTINUOUS
 66
     1
 40
0.044252
 41
0.044252
  0
VERTEX
  8
LAYER_1
 62
     7
  6
CONTINUOUS
 10
-3.222776
 20
-4.084555
  0
VERTEX
  8
LAYER_1
 62
     7
  6
CONTINUOUS
 10
-3.152686
 20
-4.095871
  0
VERTEX
  8
LAYER_1
 62
     7
  6
CONTINUOUS
 10
-3.091794
 20
-4.127375
  0
VERTEX
  8
LAYER_1
 62
     7
  6
CONTINUOUS
 10
-3.043763
 20
-4.175405
  0
VERTEX
  8
LAYER_1
 62
     7
  6
CONTINUOUS
 10
-3.012257
 20
-4.236297
  0
VERTEX
  8
LAYER_1
 62
     7
  6
CONTINUOUS
 10
-3.000941
 20
-4.306386
  0
SEQEND
  8
0
  0
POLYLINE
  8
LAYER_1
 62
     7
  6
CONTINUOUS
 66
     1
 40
0.044252
 41
0.044252
  0
VERTEX
  8
LAYER_1
 62
     7
  6
CONTINUOUS
 10
-3.000941
 20
-4.306386
  0
VERTEX
  8
LAYER_1
 62
     7
  6
CONTINUOUS
 10
-3.012257
 20
-4.376475
  0
VERTEX
  8
LAYER_1
 62
     7
  6
CONTINUOUS
 10
-3.043763
 20
-4.437368
  0
VERTEX
  8
LAYER_1
 62
     7
  6
CONTINUOUS
 10
-3.091794
 20
-4.485399
  0
VERTEX
  8
LAYER_1
 62
     7
  6
CONTINUOUS
 10
-3.152686
 20
-4.516904
  0
VERTEX
  8
LAYER_1
 62
     7
  6
CONTINUOUS
 10
-3.222776
 20
-4.528220
  0
SEQEND
  8
0
  0
POLYLINE
  8
LAYER_1
 62
     7
  6
CONTINUOUS
 66
     1
 40
0.044252
 41
0.044252
  0
VERTEX
  8
LAYER_1
 62
     7
  6
CONTINUOUS
 10
-2.976264
 20
-4.190610
  0
VERTEX
  8
LAYER_1
 62
     7
  6
CONTINUOUS
 10
-2.606539
 20
-4.190610
  0
SEQEND
  8
0
  0
POLYLINE
  8
LAYER_1
 62
     7
  6
CONTINUOUS
 66
     1
 40
0.044252
 41
0.044252
  0
VERTEX
  8
LAYER_1
 62
     7
  6
CONTINUOUS
 10
-2.729791
 20
1.851941
  0
VERTEX
  8
LAYER_1
 62
     7
  6
CONTINUOUS
 10
-2.360067
 20
1.979028
  0
VERTEX
  8
LAYER_1
 62
     7
  6
CONTINUOUS
 10
-2.236831
 20
2.098413
  0
SEQEND
  8
0
  0
POLYLINE
  8
LAYER_1
 62
     7
  6
CONTINUOUS
 66
     1
 40
0.044252
 41
0.044252
  0
VERTEX
  8
LAYER_1
 62
     7
  6
CONTINUOUS
 10
-3.592776
 20
4.048776
  0
VERTEX
  8
LAYER_1
 62
     7
  6
CONTINUOUS
 10
-3.662865
 20
4.037459
  0
VERTEX
  8
LAYER_1
 62
     7
  6
CONTINUOUS
 10
-3.723758
 20
4.005954
  0
VERTEX
  8
LAYER_1
 62
     7
  6
CONTINUOUS
 10
-3.771789
 20
3.957923
  0
VERTEX
  8
LAYER_1
 62
     7
  6
CONTINUOUS
 10
-3.803294
 20
3.897031
  0
VERTEX
  8
LAYER_1
 62
     7
  6
CONTINUOUS
 10
-3.814610
 20
3.826941
  0
SEQEND
  8
0
  0
POLYLINE
  8
LAYER_1
 62
     7
  6
CONTINUOUS
 66
     1
 40
0.044252
 41
0.044252
  0
VERTEX
  8
LAYER_1
 62
     7
  6
CONTINUOUS
 10
-3.814610
 20
3.826941
  0
VERTEX
  8
LAYER_1
 62
     7
  6
CONTINUOUS
 10
-3.803294
 20
3.756853
  0
VERTEX
  8
LAYER_1
 62
     7
  6
CONTINUOUS
 10
-3.771789
 20
3.695962
  0
VERTEX
  8
LAYER_1
 62
     7
  6
CONTINUOUS
 10
-3.723758
 20
3.647932
  0
VERTEX
  8
LAYER_1
 62
     7
  6
CONTINUOUS
 10
-3.662865
 20
3.616426
  0
VERTEX
  8
LAYER_1
 62
     7
  6
CONTINUOUS
 10
-3.592776
 20
3.605110
  0
SEQEND
  8
0
  0
POLYLINE
  8
LAYER_1
 62
     7
  6
CONTINUOUS
 66
     1
 40
0.044252
 41
0.044252
  0
VERTEX
  8
LAYER_1
 62
     7
  6
CONTINUOUS
 10
-3.592776
 20
3.605110
  0
VERTEX
  8
LAYER_1
 62
     7
  6
CONTINUOUS
 10
-3.522686
 20
3.616426
  0
VERTEX
  8
LAYER_1
 62
     7
  6
CONTINUOUS
 10
-3.461794
 20
3.647932
  0
VERTEX
  8
LAYER_1
 62
     7
  6
CONTINUOUS
 10
-3.413763
 20
3.695962
  0
VERTEX
  8
LAYER_1
 62
     7
  6
CONTINUOUS
 10
-3.382257
 20
3.756853
  0
VERTEX
  8
LAYER_1
 62
     7
  6
CONTINUOUS
 10
-3.370941
 20
3.826941
  0
SEQEND
  8
0
  0
POLYLINE
  8
LAYER_1
 62
     7
  6
CONTINUOUS
 66
     1
 40
0.044252
 41
0.044252
  0
VERTEX
  8
LAYER_1
 62
     7
  6
CONTINUOUS
 10
-3.370941
 20
3.826941
  0
VERTEX
  8
LAYER_1
 62
     7
  6
CONTINUOUS
 10
-3.382257
 20
3.897031
  0
VERTEX
  8
LAYER_1
 62
     7
  6
CONTINUOUS
 10
-3.413763
 20
3.957923
  0
VERTEX
  8
LAYER_1
 62
     7
  6
CONTINUOUS
 10
-3.461794
 20
4.005954
  0
VERTEX
  8
LAYER_1
 62
     7
  6
CONTINUOUS
 10
-3.522686
 20
4.037459
  0
VERTEX
  8
LAYER_1
 62
     7
  6
CONTINUOUS
 10
-3.592776
 20
4.048776
  0
SEQEND
  8
0
  0
POLYLINE
  8
LAYER_1
 62
     7
  6
CONTINUOUS
 66
     1
 40
0.044252
 41
0.044252
  0
VERTEX
  8
LAYER_1
 62
     7
  6
CONTINUOUS
 10
-2.729776
 20
3.827638
  0
VERTEX
  8
LAYER_1
 62
     7
  6
CONTINUOUS
 10
-2.360067
 20
4.074110
  0
VERTEX
  8
LAYER_1
 62
     7
  6
CONTINUOUS
 10
-2.113583
 20
4.074110
  0
VERTEX
  8
LAYER_1
 62
     7
  6
CONTINUOUS
 10
-2.113583
 20
4.197346
  0
SEQEND
  8
0
  0
POLYLINE
  8
LAYER_1
 62
     7
  6
CONTINUOUS
 66
     1
 40
0.044252
 41
0.044252
  0
VERTEX
  8
LAYER_1
 62
     7
  6
CONTINUOUS
 10
-3.345969
 20
3.827638
  0
VERTEX
  8
LAYER_1
 62
     7
  6
CONTINUOUS
 10
-2.729776
 20
3.827638
  0
SEQEND
  8
0
  0
POLYLINE
  8
LAYER_1
 62
     7
  6
CONTINUOUS
 66
     1
 40
0.044252
 41
0.044252
  0
VERTEX
  8
LAYER_1
 62
     7
  6
CONTINUOUS
 10
-3.222732
 20
3.334665
  0
VERTEX
  8
LAYER_1
 62
     7
  6
CONTINUOUS
 10
-3.099500
 20
3.457902
  0
VERTEX
  8
LAYER_1
 62
     7
  6
CONTINUOUS
 10
-3.222732
 20
3.704386
  0
VERTEX
  8
LAYER_1
 62
     7
  6
CONTINUOUS
 10
-3.222732
 20
3.950858
  0
VERTEX
  8
LAYER_1
 62
     7
  6
CONTINUOUS
 10
-3.099500
 20
4.197346
  0
VERTEX
  8
LAYER_1
 62
     7
  6
CONTINUOUS
 10
-3.099500
 20
4.320583
  0
SEQEND
  8
0
  0
POLYLINE
  8
LAYER_1
 62
     7
  6
CONTINUOUS
 66
     1
 40
0.044252
 41
0.044252
  0
VERTEX
  8
LAYER_1
 62
     7
  6
CONTINUOUS
 10
-2.729776
 20
3.827622
  0
VERTEX
  8
LAYER_1
 62
     7
  6
CONTINUOUS
 10
-2.606539
 20
3.581150
  0
VERTEX
  8
LAYER_1
 62
     7
  6
CONTINUOUS
 10
-2.360067
 20
3.581150
  0
VERTEX
  8
LAYER_1
 62
     7
  6
CONTINUOUS
 10
-2.236819
 20
3.457902
  0
SEQEND
  8
0
  0
POLYLINE
  8
LAYER_1
 62
     7
  6
CONTINUOUS
 66
     1
 40
0.044252
 41
0.044252
  0
VERTEX
  8
LAYER_1
 62
     7
  6
CONTINUOUS
 10
-3.099500
 20
-1.718122
  0
VERTEX
  8
LAYER_1
 62
     7
  6
CONTINUOUS
 10
-3.099500
 20
-1.841358
  0
VERTEX
  8
LAYER_1
 62
     7
  6
CONTINUOUS
 10
-3.222732
 20
-2.095539
  0
VERTEX
  8
LAYER_1
 62
     7
  6
CONTINUOUS
 10
-2.976264
 20
-2.465264
  0
VERTEX
  8
LAYER_1
 62
     7
  6
CONTINUOUS
 10
-3.099500
 20
-2.588500
  0
VERTEX
  8
LAYER_1
 62
     7
  6
CONTINUOUS
 10
-3.099500
 20
-2.834969
  0
SEQEND
  8
0
  0
POLYLINE
  8
LAYER_1
 62
     7
  6
CONTINUOUS
 66
     1
 40
0.044252
 41
0.044252
  0
VERTEX
  8
LAYER_1
 62
     7
  6
CONTINUOUS
 10
-2.853012
 20
-3.697650
  0
VERTEX
  8
LAYER_1
 62
     7
  6
CONTINUOUS
 10
-3.099500
 20
-3.944138
  0
VERTEX
  8
LAYER_1
 62
     7
  6
CONTINUOUS
 10
-2.853012
 20
-4.313846
  0
VERTEX
  8
LAYER_1
 62
     7
  6
CONTINUOUS
 10
-2.976264
 20
-4.552622
  0
VERTEX
  8
LAYER_1
 62
     7
  6
CONTINUOUS
 10
-2.976264
 20
-4.683567
  0
SEQEND
  8
0
  0
POLYLINE
  8
LAYER_1
 62
     7
  6
CONTINUOUS
 66
     1
 40
0.003000
 41
0.003000
 70
     1
  0
VERTEX
  8
LAYER_1
 62
     7
  6
CONTINUOUS
 10
-3.940165
 20
-5.034346
  0
VERTEX
  8
LAYER_1
 62
     7
  6
CONTINUOUS
 10
-1.968346
 20
-5.034346
  0
VERTEX
  8
LAYER_1
 62
     7
  6
CONTINUOUS
 10
-1.968346
 20
4.824772
  0
VERTEX
  8
LAYER_1
 62
     7
  6
CONTINUOUS
 10
-3.940165
 20
4.824772
  0
SEQEND
  8
0
  0
POLYLINE
  8
LAYER_1
 62
     7
  6
CONTINUOUS
 66
     1
 40
0.044252
 41
0.044252
  0
VERTEX
  8
LAYER_1
 62
     7
  6
CONTINUOUS
 10
0.855555
 20
3.721776
  0
VERTEX
  8
LAYER_1
 62
     7
  6
CONTINUOUS
 10
0.785465
 20
3.733092
  0
VERTEX
  8
LAYER_1
 62
     7
  6
CONTINUOUS
 10
0.724573
 20
3.764597
  0
VERTEX
  8
LAYER_1
 62
     7
  6
CONTINUOUS
 10
0.676542
 20
3.812628
  0
VERTEX
  8
LAYER_1
 62
     7
  6
CONTINUOUS
 10
0.645037
 20
3.873521
  0
VERTEX
  8
LAYER_1
 62
     7
  6
CONTINUOUS
 10
0.633720
 20
3.943610
  0
SEQEND
  8
0
  0
POLYLINE
  8
LAYER_1
 62
     7
  6
CONTINUOUS
 66
     1
 40
0.044252
 41
0.044252
  0
VERTEX
  8
LAYER_1
 62
     7
  6
CONTINUOUS
 10
0.633720
 20
3.943610
  0
VERTEX
  8
LAYER_1
 62
     7
  6
CONTINUOUS
 10
0.645037
 20
4.013699
  0
VERTEX
  8
LAYER_1
 62
     7
  6
CONTINUOUS
 10
0.676542
 20
4.074591
  0
VERTEX
  8
LAYER_1
 62
     7
  6
CONTINUOUS
 10
0.724573
 20
4.122621
  0
VERTEX
  8
LAYER_1
 62
     7
  6
CONTINUOUS
 10
0.785465
 20
4.154125
  0
VERTEX
  8
LAYER_1
 62
     7
  6
CONTINUOUS
 10
0.855555
 20
4.165441
  0
SEQEND
  8
0
  0
POLYLINE
  8
LAYER_1
 62
     7
  6
CONTINUOUS
 66
     1
 40
0.044252
 41
0.044252
  0
VERTEX
  8
LAYER_1
 62
     7
  6
CONTINUOUS
 10
0.855555
 20
4.165441
  0
VERTEX
  8
LAYER_1
 62
     7
  6
CONTINUOUS
 10
0.925644
 20
4.154125
  0
VERTEX
  8
LAYER_1
 62
     7
  6
CONTINUOUS
 10
0.986536
 20
4.122621
  0
VERTEX
  8
LAYER_1
 62
     7
  6
CONTINUOUS
 10
1.034566
 20
4.074591
  0
VERTEX
  8
LAYER_1
 62
     7
  6
CONTINUOUS
 10
1.066070
 20
4.013699
  0
VERTEX
  8
LAYER_1
 62
     7
  6
CONTINUOUS
 10
1.077386
 20
3.943610
  0
SEQEND
  8
0
  0
POLYLINE
  8
LAYER_1
 62
     7
  6
CONTINUOUS
 66
     1
 40
0.044252
 41
0.044252
  0
VERTEX
  8
LAYER_1
 62
     7
  6
CONTINUOUS
 10
1.077386
 20
3.943610
  0
VERTEX
  8
LAYER_1
 62
     7
  6
CONTINUOUS
 10
1.066070
 20
3.873521
  0
VERTEX
  8
LAYER_1
 62
     7
  6
CONTINUOUS
 10
1.034566
 20
3.812628
  0
VERTEX
  8
LAYER_1
 62
     7
  6
CONTINUOUS
 10
0.986536
 20
3.764597
  0
VERTEX
  8
LAYER_1
 62
     7
  6
CONTINUOUS
 10
0.925644
 20
3.733092
  0
VERTEX
  8
LAYER_1
 62
     7
  6
CONTINUOUS
 10
0.855555
 20
3.721776
  0
SEQEND
  8
0
  0
POLYLINE
  8
LAYER_1
 62
     7
  6
CONTINUOUS
 66
     1
 40
0.044252
 41
0.044252
  0
VERTEX
  8
LAYER_1
 62
     7
  6
CONTINUOUS
 10
1.101776
 20
3.944193
  0
VERTEX
  8
LAYER_1
 62
     7
  6
CONTINUOUS
 10
1.348264
 20
3.820957
  0
SEQEND
  8
0
  0
POLYLINE
  8
LAYER_1
 62
     7
  6
CONTINUOUS
 66
     1
 40
0.044252
 41
0.044252
  0
VERTEX
  8
LAYER_1
 62
     7
  6
CONTINUOUS
 10
1.348264
 20
3.820957
  0
VERTEX
  8
LAYER_1
 62
     7
  6
CONTINUOUS
 10
1.594732
 20
3.574469
  0
VERTEX
  8
LAYER_1
 62
     7
  6
CONTINUOUS
 10
1.841205
 20
3.697720
  0
VERTEX
  8
LAYER_1
 62
     7
  6
CONTINUOUS
 10
1.841205
 20
3.574469
  0
SEQEND
  8
0
  0
POLYLINE
  8
LAYER_1
 62
     7
  6
CONTINUOUS
 66
     1
 40
0.044252
 41
0.044252
  0
VERTEX
  8
LAYER_1
 62
     7
  6
CONTINUOUS
 10
0.732220
 20
1.503441
  0
VERTEX
  8
LAYER_1
 62
     7
  6
CONTINUOUS
 10
0.662131
 20
1.514757
  0
VERTEX
  8
LAYER_1
 62
     7
  6
CONTINUOUS
 10
0.601238
 20
1.546263
  0
VERTEX
  8
LAYER_1
 62
     7
  6
CONTINUOUS
 10
0.553207
 20
1.594294
  0
VERTEX
  8
LAYER_1
 62
     7
  6
CONTINUOUS
 10
0.521702
 20
1.655186
  0
VERTEX
  8
LAYER_1
 62
     7
  6
CONTINUOUS
 10
0.510386
 20
1.725276
  0
SEQEND
  8
0
  0
POLYLINE
  8
LAYER_1
 62
     7
  6
CONTINUOUS
 66
     1
 40
0.044252
 41
0.044252
  0
VERTEX
  8
LAYER_1
 62
     7
  6
CONTINUOUS
 10
0.510386
 20
1.725276
  0
VERTEX
  8
LAYER_1
 62
     7
  6
CONTINUOUS
 10
0.521702
 20
1.795365
  0
VERTEX
  8
LAYER_1
 62
     7
  6
CONTINUOUS
 10
0.553207
 20
1.856258
  0
VERTEX
  8
LAYER_1
 62
     7
  6
CONTINUOUS
 10
0.601238
 20
1.904289
  0
VERTEX
  8
LAYER_1
 62
     7
  6
CONTINUOUS
 10
0.662131
 20
1.935794
  0
VERTEX
  8
LAYER_1
 62
     7
  6
CONTINUOUS
 10
0.732220
 20
1.947110
  0
SEQEND
  8
0
  0
POLYLINE
  8
LAYER_1
 62
     7
  6
CONTINUOUS
 66
     1
 40
0.044252
 41
0.044252
  0
VERTEX
  8
LAYER_1
 62
     7
  6
CONTINUOUS
 10
0.732220
 20
1.947110
  0
VERTEX
  8
LAYER_1
 62
     7
  6
CONTINUOUS
 10
0.802310
 20
1.935794
  0
VERTEX
  8
LAYER_1
 62
     7
  6
CONTINUOUS
 10
0.863202
 20
1.904289
  0
VERTEX
  8
LAYER_1
 62
     7
  6
CONTINUOUS
 10
0.911233
 20
1.856258
  0
VERTEX
  8
LAYER_1
 62
     7
  6
CONTINUOUS
 10
0.942739
 20
1.795365
  0
VERTEX
  8
LAYER_1
 62
     7
  6
CONTINUOUS
 10
0.954055
 20
1.725276
  0
SEQEND
  8
0
  0
POLYLINE
  8
LAYER_1
 62
     7
  6
CONTINUOUS
 66
     1
 40
0.044252
 41
0.044252
  0
VERTEX
  8
LAYER_1
 62
     7
  6
CONTINUOUS
 10
0.954055
 20
1.725276
  0
VERTEX
  8
LAYER_1
 62
     7
  6
CONTINUOUS
 10
0.942739
 20
1.655186
  0
VERTEX
  8
LAYER_1
 62
     7
  6
CONTINUOUS
 10
0.911233
 20
1.594294
  0
VERTEX
  8
LAYER_1
 62
     7
  6
CONTINUOUS
 10
0.863202
 20
1.546263
  0
VERTEX
  8
LAYER_1
 62
     7
  6
CONTINUOUS
 10
0.802310
 20
1.514757
  0
VERTEX
  8
LAYER_1
 62
     7
  6
CONTINUOUS
 10
0.732220
 20
1.503441
  0
SEQEND
  8
0
  0
POLYLINE
  8
LAYER_1
 62
     7
  6
CONTINUOUS
 66
     1
 40
0.044252
 41
0.044252
  0
VERTEX
  8
LAYER_1
 62
     7
  6
CONTINUOUS
 10
1.348264
 20
1.849150
  0
VERTEX
  8
LAYER_1
 62
     7
  6
CONTINUOUS
 10
1.594732
 20
1.602677
  0
VERTEX
  8
LAYER_1
 62
     7
  6
CONTINUOUS
 10
1.841205
 20
1.725913
  0
VERTEX
  8
LAYER_1
 62
     7
  6
CONTINUOUS
 10
1.841205
 20
1.602677
  0
SEQEND
  8
0
  0
POLYLINE
  8
LAYER_1
 62
     7
  6
CONTINUOUS
 66
     1
 40
0.044252
 41
0.044252
  0
VERTEX
  8
LAYER_1
 62
     7
  6
CONTINUOUS
 10
0.978539
 20
1.849150
  0
VERTEX
  8
LAYER_1
 62
     7
  6
CONTINUOUS
 10
1.348264
 20
1.849150
  0
SEQEND
  8
0
  0
POLYLINE
  8
LAYER_1
 62
     7
  6
CONTINUOUS
 66
     1
 40
0.044252
 41
0.044252
  0
VERTEX
  8
LAYER_1
 62
     7
  6
CONTINUOUS
 10
1.225012
 20
2.218874
  0
VERTEX
  8
LAYER_1
 62
     7
  6
CONTINUOUS
 10
0.978539
 20
1.972402
  0
VERTEX
  8
LAYER_1
 62
     7
  6
CONTINUOUS
 10
1.225012
 20
1.725913
  0
VERTEX
  8
LAYER_1
 62
     7
  6
CONTINUOUS
 10
1.348264
 20
1.725913
  0
SEQEND
  8
0
  0
POLYLINE
  8
LAYER_1
 62
     7
  6
CONTINUOUS
 66
     1
 40
0.044252
 41
0.044252
  0
VERTEX
  8
LAYER_1
 62
     7
  6
CONTINUOUS
 10
1.348264
 20
1.849165
  0
VERTEX
  8
LAYER_1
 62
     7
  6
CONTINUOUS
 10
1.471500
 20
1.972402
  0
VERTEX
  8
LAYER_1
 62
     7
  6
CONTINUOUS
 10
1.717984
 20
2.095638
  0
SEQEND
  8
0
  0
POLYLINE
  8
LAYER_1
 62
     7
  6
CONTINUOUS
 66
     1
 40
0.044252
 41
0.044252
  0
VERTEX
  8
LAYER_1
 62
     7
  6
CONTINUOUS
 10
0.732220
 20
-0.591555
  0
VERTEX
  8
LAYER_1
 62
     7
  6
CONTINUOUS
 10
0.662131
 20
-0.580239
  0
VERTEX
  8
LAYER_1
 62
     7
  6
CONTINUOUS
 10
0.601238
 20
-0.548733
  0
VERTEX
  8
LAYER_1
 62
     7
  6
CONTINUOUS
 10
0.553207
 20
-0.500702
  0
VERTEX
  8
LAYER_1
 62
     7
  6
CONTINUOUS
 10
0.521702
 20
-0.439810
  0
VERTEX
  8
LAYER_1
 62
     7
  6
CONTINUOUS
 10
0.510386
 20
-0.369720
  0
SEQEND
  8
0
  0
POLYLINE
  8
LAYER_1
 62
     7
  6
CONTINUOUS
 66
     1
 40
0.044252
 41
0.044252
  0
VERTEX
  8
LAYER_1
 62
     7
  6
CONTINUOUS
 10
0.510386
 20
-0.369720
  0
VERTEX
  8
LAYER_1
 62
     7
  6
CONTINUOUS
 10
0.521702
 20
-0.299631
  0
VERTEX
  8
LAYER_1
 62
     7
  6
CONTINUOUS
 10
0.553207
 20
-0.238738
  0
VERTEX
  8
LAYER_1
 62
     7
  6
CONTINUOUS
 10
0.601238
 20
-0.190707
  0
VERTEX
  8
LAYER_1
 62
     7
  6
CONTINUOUS
 10
0.662131
 20
-0.159202
  0
VERTEX
  8
LAYER_1
 62
     7
  6
CONTINUOUS
 10
0.732220
 20
-0.147886
  0
SEQEND
  8
0
  0
POLYLINE
  8
LAYER_1
 62
     7
  6
CONTINUOUS
 66
     1
 40
0.044252
 41
0.044252
  0
VERTEX
  8
LAYER_1
 62
     7
  6
CONTINUOUS
 10
0.732220
 20
-0.147886
  0
VERTEX
  8
LAYER_1
 62
     7
  6
CONTINUOUS
 10
0.802310
 20
-0.159202
  0
VERTEX
  8
LAYER_1
 62
     7
  6
CONTINUOUS
 10
0.863202
 20
-0.190707
  0
VERTEX
  8
LAYER_1
 62
     7
  6
CONTINUOUS
 10
0.911233
 20
-0.238738
  0
VERTEX
  8
LAYER_1
 62
     7
  6
CONTINUOUS
 10
0.942739
 20
-0.299631
  0
VERTEX
  8
LAYER_1
 62
     7
  6
CONTINUOUS
 10
0.954055
 20
-0.369720
  0
SEQEND
  8
0
  0
POLYLINE
  8
LAYER_1
 62
     7
  6
CONTINUOUS
 66
     1
 40
0.044252
 41
0.044252
  0
VERTEX
  8
LAYER_1
 62
     7
  6
CONTINUOUS
 10
0.954055
 20
-0.369720
  0
VERTEX
  8
LAYER_1
 62
     7
  6
CONTINUOUS
 10
0.942739
 20
-0.439810
  0
VERTEX
  8
LAYER_1
 62
     7
  6
CONTINUOUS
 10
0.911233
 20
-0.500702
  0
VERTEX
  8
LAYER_1
 62
     7
  6
CONTINUOUS
 10
0.863202
 20
-0.548733
  0
VERTEX
  8
LAYER_1
 62
     7
  6
CONTINUOUS
 10
0.802310
 20
-0.580239
  0
VERTEX
  8
LAYER_1
 62
     7
  6
CONTINUOUS
 10
0.732220
 20
-0.591555
  0
SEQEND
  8
0
  0
POLYLINE
  8
LAYER_1
 62
     7
  6
CONTINUOUS
 66
     1
 40
0.044252
 41
0.044252
  0
VERTEX
  8
LAYER_1
 62
     7
  6
CONTINUOUS
 10
0.978555
 20
-0.245913
  0
VERTEX
  8
LAYER_1
 62
     7
  6
CONTINUOUS
 10
1.348264
 20
-0.122665
  0
SEQEND
  8
0
  0
POLYLINE
  8
LAYER_1
 62
     7
  6
CONTINUOUS
 66
     1
 40
0.044252
 41
0.044252
  0
VERTEX
  8
LAYER_1
 62
     7
  6
CONTINUOUS
 10
0.855303
 20
0.247039
  0
VERTEX
  8
LAYER_1
 62
     7
  6
CONTINUOUS
 10
0.855303
 20
0.123803
  0
VERTEX
  8
LAYER_1
 62
     7
  6
CONTINUOUS
 10
0.978555
 20
-0.122665
  0
VERTEX
  8
LAYER_1
 62
     7
  6
CONTINUOUS
 10
1.101791
 20
-0.245913
  0
VERTEX
  8
LAYER_1
 62
     7
  6
CONTINUOUS
 10
1.225028
 20
-0.245913
  0
VERTEX
  8
LAYER_1
 62
     7
  6
CONTINUOUS
 10
1.225028
 20
0.000567
  0
SEQEND
  8
0
  0
POLYLINE
  8
LAYER_1
 62
     7
  6
CONTINUOUS
 66
     1
 40
0.044252
 41
0.044252
  0
VERTEX
  8
LAYER_1
 62
     7
  6
CONTINUOUS
 10
1.348264
 20
-0.122665
  0
VERTEX
  8
LAYER_1
 62
     7
  6
CONTINUOUS
 10
1.471500
 20
0.000567
  0
VERTEX
  8
LAYER_1
 62
     7
  6
CONTINUOUS
 10
1.841220
 20
0.000567
  0
VERTEX
  8
LAYER_1
 62
     7
  6
CONTINUOUS
 10
1.841220
 20
0.123803
  0
SEQEND
  8
0
  0
POLYLINE
  8
LAYER_1
 62
     7
  6
CONTINUOUS
 66
     1
 40
0.044252
 41
0.044252
  0
VERTEX
  8
LAYER_1
 62
     7
  6
CONTINUOUS
 10
0.608886
 20
-2.686555
  0
VERTEX
  8
LAYER_1
 62
     7
  6
CONTINUOUS
 10
0.538797
 20
-2.675239
  0
VERTEX
  8
LAYER_1
 62
     7
  6
CONTINUOUS
 10
0.477905
 20
-2.643733
  0
VERTEX
  8
LAYER_1
 62
     7
  6
CONTINUOUS
 10
0.429875
 20
-2.595702
  0
VERTEX
  8
LAYER_1
 62
     7
  6
CONTINUOUS
 10
0.398371
 20
-2.534810
  0
VERTEX
  8
LAYER_1
 62
     7
  6
CONTINUOUS
 10
0.387055
 20
-2.464720
  0
SEQEND
  8
0
  0
POLYLINE
  8
LAYER_1
 62
     7
  6
CONTINUOUS
 66
     1
 40
0.044252
 41
0.044252
  0
VERTEX
  8
LAYER_1
 62
     7
  6
CONTINUOUS
 10
0.387055
 20
-2.464720
  0
VERTEX
  8
LAYER_1
 62
     7
  6
CONTINUOUS
 10
0.398371
 20
-2.394631
  0
VERTEX
  8
LAYER_1
 62
     7
  6
CONTINUOUS
 10
0.429875
 20
-2.333738
  0
VERTEX
  8
LAYER_1
 62
     7
  6
CONTINUOUS
 10
0.477905
 20
-2.285707
  0
VERTEX
  8
LAYER_1
 62
     7
  6
CONTINUOUS
 10
0.538797
 20
-2.254202
  0
VERTEX
  8
LAYER_1
 62
     7
  6
CONTINUOUS
 10
0.608886
 20
-2.242886
  0
SEQEND
  8
0
  0
POLYLINE
  8
LAYER_1
 62
     7
  6
CONTINUOUS
 66
     1
 40
0.044252
 41
0.044252
  0
VERTEX
  8
LAYER_1
 62
     7
  6
CONTINUOUS
 10
0.608886
 20
-2.242886
  0
VERTEX
  8
LAYER_1
 62
     7
  6
CONTINUOUS
 10
0.678975
 20
-2.254202
  0
VERTEX
  8
LAYER_1
 62
     7
  6
CONTINUOUS
 10
0.739868
 20
-2.285707
  0
VERTEX
  8
LAYER_1
 62
     7
  6
CONTINUOUS
 10
0.787899
 20
-2.333738
  0
VERTEX
  8
LAYER_1
 62
     7
  6
CONTINUOUS
 10
0.819404
 20
-2.394631
  0
VERTEX
  8
LAYER_1
 62
     7
  6
CONTINUOUS
 10
0.830720
 20
-2.464720
  0
SEQEND
  8
0
  0
POLYLINE
  8
LAYER_1
 62
     7
  6
CONTINUOUS
 66
     1
 40
0.044252
 41
0.044252
  0
VERTEX
  8
LAYER_1
 62
     7
  6
CONTINUOUS
 10
0.830720
 20
-2.464720
  0
VERTEX
  8
LAYER_1
 62
     7
  6
CONTINUOUS
 10
0.819404
 20
-2.534810
  0
VERTEX
  8
LAYER_1
 62
     7
  6
CONTINUOUS
 10
0.787899
 20
-2.595702
  0
VERTEX
  8
LAYER_1
 62
     7
  6
CONTINUOUS
 10
0.739868
 20
-2.643733
  0
VERTEX
  8
LAYER_1
 62
     7
  6
CONTINUOUS
 10
0.678975
 20
-2.675239
  0
VERTEX
  8
LAYER_1
 62
     7
  6
CONTINUOUS
 10
0.608886
 20
-2.686555
  0
SEQEND
  8
0
  0
POLYLINE
  8
LAYER_1
 62
     7
  6
CONTINUOUS
 66
     1
 40
0.044252
 41
0.044252
  0
VERTEX
  8
LAYER_1
 62
     7
  6
CONTINUOUS
 10
1.348264
 20
-0.122665
  0
VERTEX
  8
LAYER_1
 62
     7
  6
CONTINUOUS
 10
1.594732
 20
-0.245913
  0
VERTEX
  8
LAYER_1
 62
     7
  6
CONTINUOUS
 10
1.841205
 20
-0.245913
  0
VERTEX
  8
LAYER_1
 62
     7
  6
CONTINUOUS
 10
1.841205
 20
-0.369150
  0
SEQEND
  8
0
  0
POLYLINE
  8
LAYER_1
 62
     7
  6
CONTINUOUS
 66
     1
 40
0.044252
 41
0.044252
  0
VERTEX
  8
LAYER_1
 62
     7
  6
CONTINUOUS
 10
1.348264
 20
3.821012
  0
VERTEX
  8
LAYER_1
 62
     7
  6
CONTINUOUS
 10
1.471500
 20
3.944248
  0
VERTEX
  8
LAYER_1
 62
     7
  6
CONTINUOUS
 10
1.717969
 20
4.067500
  0
VERTEX
  8
LAYER_1
 62
     7
  6
CONTINUOUS
 10
1.717969
 20
4.190732
  0
SEQEND
  8
0
  0
POLYLINE
  8
LAYER_1
 62
     7
  6
CONTINUOUS
 66
     1
 40
0.044252
 41
0.044252
  0
VERTEX
  8
LAYER_1
 62
     7
  6
CONTINUOUS
 10
1.348264
 20
4.190732
  0
VERTEX
  8
LAYER_1
 62
     7
  6
CONTINUOUS
 10
1.225012
 20
4.067500
  0
VERTEX
  8
LAYER_1
 62
     7
  6
CONTINUOUS
 10
1.225012
 20
3.813319
  0
VERTEX
  8
LAYER_1
 62
     7
  6
CONTINUOUS
 10
1.101776
 20
3.690067
  0
VERTEX
  8
LAYER_1
 62
     7
  6
CONTINUOUS
 10
1.101776
 20
3.566831
  0
SEQEND
  8
0
  0
POLYLINE
  8
LAYER_1
 62
     7
  6
CONTINUOUS
 66
     1
 40
0.044252
 41
0.044252
  0
VERTEX
  8
LAYER_1
 62
     7
  6
CONTINUOUS
 10
1.348248
 20
-2.094500
  0
VERTEX
  8
LAYER_1
 62
     7
  6
CONTINUOUS
 10
1.594732
 20
-2.094500
  0
VERTEX
  8
LAYER_1
 62
     7
  6
CONTINUOUS
 10
1.841205
 20
-2.213886
  0
VERTEX
  8
LAYER_1
 62
     7
  6
CONTINUOUS
 10
1.841205
 20
-2.090650
  0
SEQEND
  8
0
  0
POLYLINE
  8
LAYER_1
 62
     7
  6
CONTINUOUS
 66
     1
 40
0.044252
 41
0.044252
  0
VERTEX
  8
LAYER_1
 62
     7
  6
CONTINUOUS
 10
0.724358
 20
-1.851858
  0
VERTEX
  8
LAYER_1
 62
     7
  6
CONTINUOUS
 10
0.724358
 20
-1.975094
  0
VERTEX
  8
LAYER_1
 62
     7
  6
CONTINUOUS
 10
0.847594
 20
-2.236969
  0
VERTEX
  8
LAYER_1
 62
     7
  6
CONTINUOUS
 10
0.970831
 20
-2.360220
  0
VERTEX
  8
LAYER_1
 62
     7
  6
CONTINUOUS
 10
1.094083
 20
-2.098331
  0
VERTEX
  8
LAYER_1
 62
     7
  6
CONTINUOUS
 10
1.217319
 20
-1.975094
  0
SEQEND
  8
0
  0
POLYLINE
  8
LAYER_1
 62
     7
  6
CONTINUOUS
 66
     1
 40
0.044252
 41
0.044252
  0
VERTEX
  8
LAYER_1
 62
     7
  6
CONTINUOUS
 10
1.348264
 20
-2.094484
  0
VERTEX
  8
LAYER_1
 62
     7
  6
CONTINUOUS
 10
1.710276
 20
-1.975094
  0
VERTEX
  8
LAYER_1
 62
     7
  6
CONTINUOUS
 10
1.833512
 20
-1.975094
  0
VERTEX
  8
LAYER_1
 62
     7
  6
CONTINUOUS
 10
1.833512
 20
-1.851858
  0
SEQEND
  8
0
  0
POLYLINE
  8
LAYER_1
 62
     7
  6
CONTINUOUS
 66
     1
 40
0.044252
 41
0.044252
  0
VERTEX
  8
LAYER_1
 62
     7
  6
CONTINUOUS
 10
0.855303
 20
-2.340957
  0
VERTEX
  8
LAYER_1
 62
     7
  6
CONTINUOUS
 10
1.348264
 20
-2.094484
  0
SEQEND
  8
0
  0
POLYLINE
  8
LAYER_1
 62
     7
  6
CONTINUOUS
 66
     1
 40
0.044252
 41
0.044252
  0
VERTEX
  8
LAYER_1
 62
     7
  6
CONTINUOUS
 10
0.608886
 20
-4.658220
  0
VERTEX
  8
LAYER_1
 62
     7
  6
CONTINUOUS
 10
0.538797
 20
-4.646904
  0
VERTEX
  8
LAYER_1
 62
     7
  6
CONTINUOUS
 10
0.477905
 20
-4.615399
  0
VERTEX
  8
LAYER_1
 62
     7
  6
CONTINUOUS
 10
0.429875
 20
-4.567368
  0
VERTEX
  8
LAYER_1
 62
     7
  6
CONTINUOUS
 10
0.398371
 20
-4.506475
  0
VERTEX
  8
LAYER_1
 62
     7
  6
CONTINUOUS
 10
0.387055
 20
-4.436386
  0
SEQEND
  8
0
  0
POLYLINE
  8
LAYER_1
 62
     7
  6
CONTINUOUS
 66
     1
 40
0.044252
 41
0.044252
  0
VERTEX
  8
LAYER_1
 62
     7
  6
CONTINUOUS
 10
0.387055
 20
-4.436386
  0
VERTEX
  8
LAYER_1
 62
     7
  6
CONTINUOUS
 10
0.398371
 20
-4.366297
  0
VERTEX
  8
LAYER_1
 62
     7
  6
CONTINUOUS
 10
0.429875
 20
-4.305405
  0
VERTEX
  8
LAYER_1
 62
     7
  6
CONTINUOUS
 10
0.477905
 20
-4.257375
  0
VERTEX
  8
LAYER_1
 62
     7
  6
CONTINUOUS
 10
0.538797
 20
-4.225871
  0
VERTEX
  8
LAYER_1
 62
     7
  6
CONTINUOUS
 10
0.608886
 20
-4.214555
  0
SEQEND
  8
0
  0
POLYLINE
  8
LAYER_1
 62
     7
  6
CONTINUOUS
 66
     1
 40
0.044252
 41
0.044252
  0
VERTEX
  8
LAYER_1
 62
     7
  6
CONTINUOUS
 10
0.608886
 20
-4.214555
  0
VERTEX
  8
LAYER_1
 62
     7
  6
CONTINUOUS
 10
0.678975
 20
-4.225871
  0
VERTEX
  8
LAYER_1
 62
     7
  6
CONTINUOUS
 10
0.739868
 20
-4.257375
  0
VERTEX
  8
LAYER_1
 62
     7
  6
CONTINUOUS
 10
0.787899
 20
-4.305405
  0
VERTEX
  8
LAYER_1
 62
     7
  6
CONTINUOUS
 10
0.819404
 20
-4.366297
  0
VERTEX
  8
LAYER_1
 62
     7
  6
CONTINUOUS
 10
0.830720
 20
-4.436386
  0
SEQEND
  8
0
  0
POLYLINE
  8
LAYER_1
 62
     7
  6
CONTINUOUS
 66
     1
 40
0.044252
 41
0.044252
  0
VERTEX
  8
LAYER_1
 62
     7
  6
CONTINUOUS
 10
0.830720
 20
-4.436386
  0
VERTEX
  8
LAYER_1
 62
     7
  6
CONTINUOUS
 10
0.819404
 20
-4.506475
  0
VERTEX
  8
LAYER_1
 62
     7
  6
CONTINUOUS
 10
0.787899
 20
-4.567368
  0
VERTEX
  8
LAYER_1
 62
     7
  6
CONTINUOUS
 10
0.739868
 20
-4.615399
  0
VERTEX
  8
LAYER_1
 62
     7
  6
CONTINUOUS
 10
0.678975
 20
-4.646904
  0
VERTEX
  8
LAYER_1
 62
     7
  6
CONTINUOUS
 10
0.608886
 20
-4.658220
  0
SEQEND
  8
0
  0
POLYLINE
  8
LAYER_1
 62
     7
  6
CONTINUOUS
 66
     1
 40
0.044252
 41
0.044252
  0
VERTEX
  8
LAYER_1
 62
     7
  6
CONTINUOUS
 10
0.855303
 20
-4.312776
  0
VERTEX
  8
LAYER_1
 62
     7
  6
CONTINUOUS
 10
1.348264
 20
-4.066303
  0
SEQEND
  8
0
  0
POLYLINE
  8
LAYER_1
 62
     7
  6
CONTINUOUS
 66
     1
 40
0.044252
 41
0.044252
  0
VERTEX
  8
LAYER_1
 62
     7
  6
CONTINUOUS
 10
1.348264
 20
-4.066303
  0
VERTEX
  8
LAYER_1
 62
     7
  6
CONTINUOUS
 10
1.471500
 20
-4.189539
  0
VERTEX
  8
LAYER_1
 62
     7
  6
CONTINUOUS
 10
1.841220
 20
-4.189539
  0
VERTEX
  8
LAYER_1
 62
     7
  6
CONTINUOUS
 10
1.841220
 20
-4.312791
  0
SEQEND
  8
0
  0
POLYLINE
  8
LAYER_1
 62
     7
  6
CONTINUOUS
 66
     1
 40
0.044252
 41
0.044252
  0
VERTEX
  8
LAYER_1
 62
     7
  6
CONTINUOUS
 10
1.348264
 20
-4.066303
  0
VERTEX
  8
LAYER_1
 62
     7
  6
CONTINUOUS
 10
1.594732
 20
-3.819831
  0
VERTEX
  8
LAYER_1
 62
     7
  6
CONTINUOUS
 10
1.833512
 20
-3.950776
  0
VERTEX
  8
LAYER_1
 62
     7
  6
CONTINUOUS
 10
1.833512
 20
-3.827528
  0
SEQEND
  8
0
  0
POLYLINE
  8
LAYER_1
 62
     7
  6
CONTINUOUS
 66
     1
 40
0.044252
 41
0.044252
  0
VERTEX
  8
LAYER_1
 62
     7
  6
CONTINUOUS
 10
0.608831
 20
-4.066303
  0
VERTEX
  8
LAYER_1
 62
     7
  6
CONTINUOUS
 10
0.724358
 20
-3.950776
  0
VERTEX
  8
LAYER_1
 62
     7
  6
CONTINUOUS
 10
0.847594
 20
-4.212650
  0
VERTEX
  8
LAYER_1
 62
     7
  6
CONTINUOUS
 10
0.970846
 20
-4.335886
  0
VERTEX
  8
LAYER_1
 62
     7
  6
CONTINUOUS
 10
1.225028
 20
-4.436028
  0
VERTEX
  8
LAYER_1
 62
     7
  6
CONTINUOUS
 10
1.101776
 20
-4.559264
  0
SEQEND
  8
0
  0
POLYLINE
  8
LAYER_1
 62
     7
  6
CONTINUOUS
 66
     1
 40
0.003000
 41
0.003000
 70
     1
  0
VERTEX
  8
LAYER_1
 62
     7
  6
CONTINUOUS
 10
0.003469
 20
-5.034122
  0
VERTEX
  8
LAYER_1
 62
     7
  6
CONTINUOUS
 10
1.975287
 20
-5.034122
  0
VERTEX
  8
LAYER_1
 62
     7
  6
CONTINUOUS
 10
1.975287
 20
4.824996
  0
VERTEX
  8
LAYER_1
 62
     7
  6
CONTINUOUS
 10
0.003469
 20
4.824996
  0
SEQEND
  8
0
  0
POLYLINE
  8
LAYER_1
 62
     7
  6
CONTINUOUS
 66
     1
 40
0.044252
 41
0.044252
  0
VERTEX
  8
LAYER_1
 62
     7
  6
CONTINUOUS
 10
2.585555
 20
3.333441
  0
VERTEX
  8
LAYER_1
 62
     7
  6
CONTINUOUS
 10
2.515465
 20
3.344757
  0
VERTEX
  8
LAYER_1
 62
     7
  6
CONTINUOUS
 10
2.454573
 20
3.376263
  0
VERTEX
  8
LAYER_1
 62
     7
  6
CONTINUOUS
 10
2.406542
 20
3.424294
  0
VERTEX
  8
LAYER_1
 62
     7
  6
CONTINUOUS
 10
2.375037
 20
3.485186
  0
VERTEX
  8
LAYER_1
 62
     7
  6
CONTINUOUS
 10
2.363720
 20
3.555276
  0
SEQEND
  8
0
  0
POLYLINE
  8
LAYER_1
 62
     7
  6
CONTINUOUS
 66
     1
 40
0.044252
 41
0.044252
  0
VERTEX
  8
LAYER_1
 62
     7
  6
CONTINUOUS
 10
2.363720
 20
3.555276
  0
VERTEX
  8
LAYER_1
 62
     7
  6
CONTINUOUS
 10
2.375037
 20
3.625365
  0
VERTEX
  8
LAYER_1
 62
     7
  6
CONTINUOUS
 10
2.406542
 20
3.686258
  0
VERTEX
  8
LAYER_1
 62
     7
  6
CONTINUOUS
 10
2.454573
 20
3.734289
  0
VERTEX
  8
LAYER_1
 62
     7
  6
CONTINUOUS
 10
2.515465
 20
3.765794
  0
VERTEX
  8
LAYER_1
 62
     7
  6
CONTINUOUS
 10
2.585555
 20
3.777110
  0
SEQEND
  8
0
  0
POLYLINE
  8
LAYER_1
 62
     7
  6
CONTINUOUS
 66
     1
 40
0.044252
 41
0.044252
  0
VERTEX
  8
LAYER_1
 62
     7
  6
CONTINUOUS
 10
2.585555
 20
3.777110
  0
VERTEX
  8
LAYER_1
 62
     7
  6
CONTINUOUS
 10
2.655644
 20
3.765794
  0
VERTEX
  8
LAYER_1
 62
     7
  6
CONTINUOUS
 10
2.716536
 20
3.734289
  0
VERTEX
  8
LAYER_1
 62
     7
  6
CONTINUOUS
 10
2.764566
 20
3.686258
  0
VERTEX
  8
LAYER_1
 62
     7
  6
CONTINUOUS
 10
2.796070
 20
3.625365
  0
VERTEX
  8
LAYER_1
 62
     7
  6
CONTINUOUS
 10
2.807386
 20
3.555276
  0
SEQEND
  8
0
  0
POLYLINE
  8
LAYER_1
 62
     7
  6
CONTINUOUS
 66
     1
 40
0.044252
 41
0.044252
  0
VERTEX
  8
LAYER_1
 62
     7
  6
CONTINUOUS
 10
2.807386
 20
3.555276
  0
VERTEX
  8
LAYER_1
 62
     7
  6
CONTINUOUS
 10
2.796070
 20
3.485186
  0
VERTEX
  8
LAYER_1
 62
     7
  6
CONTINUOUS
 10
2.764566
 20
3.424294
  0
VERTEX
  8
LAYER_1
 62
     7
  6
CONTINUOUS
 10
2.716536
 20
3.376263
  0
VERTEX
  8
LAYER_1
 62
     7
  6
CONTINUOUS
 10
2.655644
 20
3.344757
  0
VERTEX
  8
LAYER_1
 62
     7
  6
CONTINUOUS
 10
2.585555
 20
3.333441
  0
SEQEND
  8
0
  0
POLYLINE
  8
LAYER_1
 62
     7
  6
CONTINUOUS
 66
     1
 40
0.044252
 41
0.044252
  0
VERTEX
  8
LAYER_1
 62
     7
  6
CONTINUOUS
 10
3.201067
 20
3.802429
  0
VERTEX
  8
LAYER_1
 62
     7
  6
CONTINUOUS
 10
3.570791
 20
3.679177
  0
VERTEX
  8
LAYER_1
 62
     7
  6
CONTINUOUS
 10
3.817264
 20
3.679177
  0
SEQEND
  8
0
  0
POLYLINE
  8
LAYER_1
 62
     7
  6
CONTINUOUS
 66
     1
 40
0.044252
 41
0.044252
  0
VERTEX
  8
LAYER_1
 62
     7
  6
CONTINUOUS
 10
3.201067
 20
3.802429
  0
VERTEX
  8
LAYER_1
 62
     7
  6
CONTINUOUS
 10
3.570791
 20
3.925665
  0
VERTEX
  8
LAYER_1
 62
     7
  6
CONTINUOUS
 10
3.817264
 20
3.925665
  0
VERTEX
  8
LAYER_1
 62
     7
  6
CONTINUOUS
 10
3.817264
 20
4.048902
  0
SEQEND
  8
0
  0
POLYLINE
  8
LAYER_1
 62
     7
  6
CONTINUOUS
 66
     1
 40
0.044252
 41
0.044252
  0
VERTEX
  8
LAYER_1
 62
     7
  6
CONTINUOUS
 10
2.585555
 20
1.485110
  0
VERTEX
  8
LAYER_1
 62
     7
  6
CONTINUOUS
 10
2.515465
 20
1.496426
  0
VERTEX
  8
LAYER_1
 62
     7
  6
CONTINUOUS
 10
2.454573
 20
1.527932
  0
VERTEX
  8
LAYER_1
 62
     7
  6
CONTINUOUS
 10
2.406542
 20
1.575962
  0
VERTEX
  8
LAYER_1
 62
     7
  6
CONTINUOUS
 10
2.375037
 20
1.636853
  0
VERTEX
  8
LAYER_1
 62
     7
  6
CONTINUOUS
 10
2.363720
 20
1.706941
  0
SEQEND
  8
0
  0
POLYLINE
  8
LAYER_1
 62
     7
  6
CONTINUOUS
 66
     1
 40
0.044252
 41
0.044252
  0
VERTEX
  8
LAYER_1
 62
     7
  6
CONTINUOUS
 10
2.363720
 20
1.706941
  0
VERTEX
  8
LAYER_1
 62
     7
  6
CONTINUOUS
 10
2.375037
 20
1.777031
  0
VERTEX
  8
LAYER_1
 62
     7
  6
CONTINUOUS
 10
2.406542
 20
1.837923
  0
VERTEX
  8
LAYER_1
 62
     7
  6
CONTINUOUS
 10
2.454573
 20
1.885954
  0
VERTEX
  8
LAYER_1
 62
     7
  6
CONTINUOUS
 10
2.515465
 20
1.917459
  0
VERTEX
  8
LAYER_1
 62
     7
  6
CONTINUOUS
 10
2.585555
 20
1.928776
  0
SEQEND
  8
0
  0
POLYLINE
  8
LAYER_1
 62
     7
  6
CONTINUOUS
 66
     1
 40
0.044252
 41
0.044252
  0
VERTEX
  8
LAYER_1
 62
     7
  6
CONTINUOUS
 10
2.585555
 20
1.928776
  0
VERTEX
  8
LAYER_1
 62
     7
  6
CONTINUOUS
 10
2.655644
 20
1.917459
  0
VERTEX
  8
LAYER_1
 62
     7
  6
CONTINUOUS
 10
2.716536
 20
1.885954
  0
VERTEX
  8
LAYER_1
 62
     7
  6
CONTINUOUS
 10
2.764566
 20
1.837923
  0
VERTEX
  8
LAYER_1
 62
     7
  6
CONTINUOUS
 10
2.796070
 20
1.777031
  0
VERTEX
  8
LAYER_1
 62
     7
  6
CONTINUOUS
 10
2.807386
 20
1.706941
  0
SEQEND
  8
0
  0
POLYLINE
  8
LAYER_1
 62
     7
  6
CONTINUOUS
 66
     1
 40
0.044252
 41
0.044252
  0
VERTEX
  8
LAYER_1
 62
     7
  6
CONTINUOUS
 10
2.807386
 20
1.706941
  0
VERTEX
  8
LAYER_1
 62
     7
  6
CONTINUOUS
 10
2.796070
 20
1.636853
  0
VERTEX
  8
LAYER_1
 62
     7
  6
CONTINUOUS
 10
2.764566
 20
1.575962
  0
VERTEX
  8
LAYER_1
 62
     7
  6
CONTINUOUS
 10
2.716536
 20
1.527932
  0
VERTEX
  8
LAYER_1
 62
     7
  6
CONTINUOUS
 10
2.655644
 20
1.496426
  0
VERTEX
  8
LAYER_1
 62
     7
  6
CONTINUOUS
 10
2.585555
 20
1.485110
  0
SEQEND
  8
0
  0
POLYLINE
  8
LAYER_1
 62
     7
  6
CONTINUOUS
 66
     1
 40
0.044252
 41
0.044252
  0
VERTEX
  8
LAYER_1
 62
     7
  6
CONTINUOUS
 10
3.201094
 20
1.707303
  0
VERTEX
  8
LAYER_1
 62
     7
  6
CONTINUOUS
 10
3.817291
 20
1.707303
  0
VERTEX
  8
LAYER_1
 62
     7
  6
CONTINUOUS
 10
3.817291
 20
1.830539
  0
SEQEND
  8
0
  0
POLYLINE
  8
LAYER_1
 62
     7
  6
CONTINUOUS
 66
     1
 40
0.044252
 41
0.044252
  0
VERTEX
  8
LAYER_1
 62
     7
  6
CONTINUOUS
 10
2.831374
 20
1.830555
  0
VERTEX
  8
LAYER_1
 62
     7
  6
CONTINUOUS
 10
3.077858
 20
1.830555
  0
VERTEX
  8
LAYER_1
 62
     7
  6
CONTINUOUS
 10
3.201094
 20
1.707319
  0
SEQEND
  8
0
  0
POLYLINE
  8
LAYER_1
 62
     7
  6
CONTINUOUS
 66
     1
 40
0.044252
 41
0.044252
  0
VERTEX
  8
LAYER_1
 62
     7
  6
CONTINUOUS
 10
3.201094
 20
1.707346
  0
VERTEX
  8
LAYER_1
 62
     7
  6
CONTINUOUS
 10
3.447583
 20
1.953831
  0
VERTEX
  8
LAYER_1
 62
     7
  6
CONTINUOUS
 10
3.817291
 20
1.953831
  0
VERTEX
  8
LAYER_1
 62
     7
  6
CONTINUOUS
 10
3.817291
 20
2.077067
  0
SEQEND
  8
0
  0
POLYLINE
  8
LAYER_1
 62
     7
  6
CONTINUOUS
 66
     1
 40
0.044252
 41
0.044252
  0
VERTEX
  8
LAYER_1
 62
     7
  6
CONTINUOUS
 10
2.831374
 20
4.048831
  0
VERTEX
  8
LAYER_1
 62
     7
  6
CONTINUOUS
 10
2.708138
 20
3.925583
  0
VERTEX
  8
LAYER_1
 62
     7
  6
CONTINUOUS
 10
2.831374
 20
3.679110
  0
VERTEX
  8
LAYER_1
 62
     7
  6
CONTINUOUS
 10
2.954610
 20
3.555874
  0
VERTEX
  8
LAYER_1
 62
     7
  6
CONTINUOUS
 10
3.077858
 20
3.802346
  0
VERTEX
  8
LAYER_1
 62
     7
  6
CONTINUOUS
 10
3.324331
 20
3.555874
  0
SEQEND
  8
0
  0
POLYLINE
  8
LAYER_1
 62
     7
  6
CONTINUOUS
 66
     1
 40
0.044252
 41
0.044252
  0
VERTEX
  8
LAYER_1
 62
     7
  6
CONTINUOUS
 10
2.831374
 20
3.555874
  0
VERTEX
  8
LAYER_1
 62
     7
  6
CONTINUOUS
 10
3.201094
 20
3.802346
  0
SEQEND
  8
0
  0
POLYLINE
  8
LAYER_1
 62
     7
  6
CONTINUOUS
 66
     1
 40
0.044252
 41
0.044252
  0
VERTEX
  8
LAYER_1
 62
     7
  6
CONTINUOUS
 10
2.091941
 20
2.077039
  0
VERTEX
  8
LAYER_1
 62
     7
  6
CONTINUOUS
 10
2.215193
 20
2.077039
  0
VERTEX
  8
LAYER_1
 62
     7
  6
CONTINUOUS
 10
2.708138
 20
1.953791
  0
VERTEX
  8
LAYER_1
 62
     7
  6
CONTINUOUS
 10
2.954622
 20
1.707319
  0
VERTEX
  8
LAYER_1
 62
     7
  6
CONTINUOUS
 10
3.201094
 20
1.584083
  0
VERTEX
  8
LAYER_1
 62
     7
  6
CONTINUOUS
 10
3.324331
 20
1.584083
  0
SEQEND
  8
0
  0
POLYLINE
  8
LAYER_1
 62
     7
  6
CONTINUOUS
 66
     1
 40
0.003000
 41
0.003000
 70
     1
  0
VERTEX
  8
LAYER_1
 62
     7
  6
CONTINUOUS
 10
1.975469
 20
0.881122
  0
VERTEX
  8
LAYER_1
 62
     7
  6
CONTINUOUS
 10
3.947287
 20
0.881122
  0
VERTEX
  8
LAYER_1
 62
     7
  6
CONTINUOUS
 10
3.947287
 20
4.824768
  0
VERTEX
  8
LAYER_1
 62
     7
  6
CONTINUOUS
 10
1.975469
 20
4.824768
  0
SEQEND
  8
0
  0
TEXT
  8
LAYER_1
 62
     7
 10
-2.997000
 20
4.951299
 40
0.128707
  1
1
 50
90.000660
 41
1.000000
  7
SN0
 71
     0
 72
     5
 11
-2.997000
 21
5.037352
  0
TEXT
  8
LAYER_1
 62
     7
 10
-0.950508
 20
4.929169
 40
0.128707
  1
2
 50
90.000660
 41
1.000000
  7
SN0
 71
     0
 72
     5
 11
-0.950508
 21
5.015222
  0
TEXT
  8
LAYER_1
 62
     7
 10
1.018547
 20
4.951299
 40
0.128707
  1
3
 50
90.000660
 41
1.000000
  7
SN0
 71
     0
 72
     5
 11
1.018547
 21
5.037352
  0
TEXT
  8
LAYER_1
 62
     7
 10
3.053980
 20
4.929169
 40
0.128707
  1
4
 50
90.000660
 41
1.000000
  7
SN0
 71
     0
 72
     5
 11
3.053980
 21
5.015222
  0
ENDSEC
  0
EOF
