  0
SECTION
  2
HEADER
  9
$ACADVER
  1
AC1006
  9
$EXTMIN
 10
-0.528500
 20
-5.342339
  9
$EXTMAX
 10
62.492831
 20
5.170929
  9
$LTSCALE
 40
0.000394
  9
$PDMODE
 70
    35
  9
$PDSIZE
 40
0.000315
  0
ENDSEC
  0
SECTION
  2
TABLES
  0
TABLE
  2
LTYPE
 70
     9
  0
LTYPE
  2
CONTINUOUS
 70
    64
  3
Solid line
 72
    65
 73
     0
 40
0.000000
  0
LTYPE
  2
DASHED
 70
    64
  3
__ __ __ __ __ __ __ __ __ __ __ __ __ __ __
 72
    65
 73
     2
 40
0.000003
 49
0.000002
 49
-0.000001
  0
LTYPE
  2
HIDDEN
 70
    64
  3
 _ _ _ _ _ _ _ _ _ _ _ _ _ _ _ _ _ _ _ _ _ _
 72
    65
 73
     2
 40
0.000001
 49
0.000001
 49
-0.000000
  0
LTYPE
  2
CENTER
 70
    64
  3
____ _ ____ _ ____ _ ____ _ ____ _ ____ _ ____
 72
    65
 73
     4
 40
0.000008
 49
0.000005
 49
-0.000001
 49
0.000001
 49
-0.000001
  0
LTYPE
  2
PHANTOM
 70
    64
  3
_____ _ _ _____ _ _ _____ _ _ _____ _ _ ____
 72
    65
 73
     6
 40
0.000010
 49
0.000005
 49
-0.000001
 49
0.000001
 49
-0.000001
 49
0.000001
 49
-0.000001
  0
LTYPE
  2
DOT
 70
    64
  3
...............................................
 72
    65
 73
     2
 40
0.000001
 49
0.000000
 49
-0.000001
  0
LTYPE
  2
DASHDOT
 70
    64
  3
__ . __ . __ . __ . __ . __ . __ . __ . __ . __
 72
    65
 73
     4
 40
0.000004
 49
0.000002
 49
-0.000001
 49
0.000000
 49
-0.000001
  0
LTYPE
  2
BORDER
 70
    64
  3
__ __ . __ __ . __ __ . __ __ . __ __ . __ __
 72
    65
 73
     6
 40
0.000007
 49
0.000002
 49
-0.000001
 49
0.000002
 49
-0.000001
 49
0.000000
 49
-0.000001
  0
LTYPE
  2
DIVIDE
 70
    64
  3
__ . . __ . . __ . . __ . . __ . . __ . . __
 72
    65
 73
     6
 40
0.000005
 49
0.000002
 49
-0.000001
 49
0.000000
 49
-0.000001
 49
0.000000
 49
-0.000001
  0
LTYPE
  2
DOTDOT
 70
    64
  3
 . .  . .  . .  . .  . .  . . 
 72
    65
 73
     5
 40
0.000002
 49
-0.000001
 49
0.000000
 49
-0.000001
 49
0.000000
 49
-0.000001
  0
ENDTAB
  0
TABLE
  2
STYLE
 70
     2
  0
STYLE
 70
     0
  2
SN0
 40
0.000000
 41
0.000004
 50
0.000000
 71
     0
 42
0.000000
  3
ROMAND
  0
STYLE
 70
    68
  2
SV0
 40
0.000000
 41
0.000004
 50
0.000000
 71
     0
 42
0.000000
  3
ROMAND
  0
ENDTAB
  0
TABLE
  2
LAYER
 70
     3
  0
LAYER
  2
FOREGROUND
 70
    64
 62
     7
  6
CONTINUOUS
  0
LAYER
  2
BACKGROUND
 70
    65
 62
    -7
  6
CONTINUOUS
  0
LAYER
  2
LAYER_1
 70
    64
 62
     7
  6
CONTINUOUS
  0
ENDTAB
  0
ENDSEC
  0
SECTION
  2
ENTITIES
  0
POLYLINE
  8
LAYER_1
 62
     7
  6
CONTINUOUS
 66
     1
 40
0.011055
 41
0.011055
  0
VERTEX
  8
LAYER_1
 62
     7
  6
CONTINUOUS
 10
62.491358
 20
-5.336831
  0
VERTEX
  8
LAYER_1
 62
     7
  6
CONTINUOUS
 10
44.493303
 20
-5.002205
  0
VERTEX
  8
LAYER_1
 62
     7
  6
CONTINUOUS
 10
20.496819
 20
-3.649858
  0
VERTEX
  8
LAYER_1
 62
     7
  6
CONTINUOUS
 10
2.448984
 20
-1.624110
  0
SEQEND
  8
0
  0
POLYLINE
  8
LAYER_1
 62
     7
  6
CONTINUOUS
 66
     1
 40
0.011055
 41
0.011055
  0
VERTEX
  8
LAYER_1
 62
     7
  6
CONTINUOUS
 10
5.499358
 20
3.540512
  0
VERTEX
  8
LAYER_1
 62
     7
  6
CONTINUOUS
 10
5.497190
 20
3.540426
  0
VERTEX
  8
LAYER_1
 62
     7
  6
CONTINUOUS
 10
5.482013
 20
3.539828
  0
VERTEX
  8
LAYER_1
 62
     7
  6
CONTINUOUS
 10
5.440819
 20
3.538205
  0
SEQEND
  8
0
  0
POLYLINE
  8
LAYER_1
 62
     7
  6
CONTINUOUS
 66
     1
 40
0.011055
 41
0.011055
  0
VERTEX
  8
LAYER_1
 62
     7
  6
CONTINUOUS
 10
5.440819
 20
3.538205
  0
VERTEX
  8
LAYER_1
 62
     7
  6
CONTINUOUS
 10
5.360144
 20
3.533784
  0
VERTEX
  8
LAYER_1
 62
     7
  6
CONTINUOUS
 10
5.224667
 20
3.519735
  0
VERTEX
  8
LAYER_1
 62
     7
  6
CONTINUOUS
 10
5.018622
 20
3.487969
  0
SEQEND
  8
0
  0
POLYLINE
  8
LAYER_1
 62
     7
  6
CONTINUOUS
 66
     1
 40
0.011055
 41
0.011055
  0
VERTEX
  8
LAYER_1
 62
     7
  6
CONTINUOUS
 10
5.018622
 20
3.487969
  0
VERTEX
  8
LAYER_1
 62
     7
  6
CONTINUOUS
 10
4.735086
 20
3.429907
  0
VERTEX
  8
LAYER_1
 62
     7
  6
CONTINUOUS
 10
4.402591
 20
3.335075
  0
VERTEX
  8
LAYER_1
 62
     7
  6
CONTINUOUS
 10
4.058528
 20
3.192512
  0
SEQEND
  8
0
  0
POLYLINE
  8
LAYER_1
 62
     7
  6
CONTINUOUS
 66
     1
 40
0.011055
 41
0.011055
  0
VERTEX
  8
LAYER_1
 62
     7
  6
CONTINUOUS
 10
4.058528
 20
3.192512
  0
VERTEX
  8
LAYER_1
 62
     7
  6
CONTINUOUS
 10
3.734338
 20
2.994571
  0
VERTEX
  8
LAYER_1
 62
     7
  6
CONTINUOUS
 10
3.437810
 20
2.746853
  0
VERTEX
  8
LAYER_1
 62
     7
  6
CONTINUOUS
 10
3.170791
 20
2.458264
  0
SEQEND
  8
0
  0
POLYLINE
  8
LAYER_1
 62
     7
  6
CONTINUOUS
 66
     1
 40
0.011055
 41
0.011055
  0
VERTEX
  8
LAYER_1
 62
     7
  6
CONTINUOUS
 10
3.170791
 20
2.458264
  0
VERTEX
  8
LAYER_1
 62
     7
  6
CONTINUOUS
 10
2.936467
 20
2.132566
  0
VERTEX
  8
LAYER_1
 62
     7
  6
CONTINUOUS
 10
2.743527
 20
1.752884
  0
VERTEX
  8
LAYER_1
 62
     7
  6
CONTINUOUS
 10
2.602012
 20
1.297205
  0
SEQEND
  8
0
  0
POLYLINE
  8
LAYER_1
 62
     7
  6
CONTINUOUS
 66
     1
 40
0.011055
 41
0.011055
  0
VERTEX
  8
LAYER_1
 62
     7
  6
CONTINUOUS
 10
2.602012
 20
1.297205
  0
VERTEX
  8
LAYER_1
 62
     7
  6
CONTINUOUS
 10
2.533662
 20
0.898306
  0
VERTEX
  8
LAYER_1
 62
     7
  6
CONTINUOUS
 10
2.492193
 20
0.470912
  0
VERTEX
  8
LAYER_1
 62
     7
  6
CONTINUOUS
 10
2.469911
 20
0.041663
  0
VERTEX
  8
LAYER_1
 62
     7
  6
CONTINUOUS
 10
2.459122
 20
-0.362803
  0
SEQEND
  8
0
  0
POLYLINE
  8
LAYER_1
 62
     7
  6
CONTINUOUS
 66
     1
 40
0.011055
 41
0.011055
  0
VERTEX
  8
LAYER_1
 62
     7
  6
CONTINUOUS
 10
2.459122
 20
-0.362803
  0
VERTEX
  8
LAYER_1
 62
     7
  6
CONTINUOUS
 10
2.451988
 20
-0.826181
  0
VERTEX
  8
LAYER_1
 62
     7
  6
CONTINUOUS
 10
2.449360
 20
-1.187081
  0
VERTEX
  8
LAYER_1
 62
     7
  6
CONTINUOUS
 10
2.448984
 20
-1.434441
  0
SEQEND
  8
0
  0
POLYLINE
  8
LAYER_1
 62
     7
  6
CONTINUOUS
 66
     1
 40
0.011055
 41
0.011055
  0
VERTEX
  8
LAYER_1
 62
     7
  6
CONTINUOUS
 10
2.448984
 20
-1.434441
  0
VERTEX
  8
LAYER_1
 62
     7
  6
CONTINUOUS
 10
2.448984
 20
-1.565967
  0
VERTEX
  8
LAYER_1
 62
     7
  6
CONTINUOUS
 10
2.448984
 20
-1.614424
  0
VERTEX
  8
LAYER_1
 62
     7
  6
CONTINUOUS
 10
2.448984
 20
-1.621346
  0
SEQEND
  8
0
  0
POLYLINE
  8
LAYER_1
 62
     7
  6
CONTINUOUS
 66
     1
 40
0.003000
 41
0.003000
  0
VERTEX
  8
LAYER_1
 62
     7
  6
CONTINUOUS
 10
2.905291
 20
-1.039205
  0
VERTEX
  8
LAYER_1
 62
     7
  6
CONTINUOUS
 10
2.447594
 20
-1.621346
  0
SEQEND
  8
0
  0
POLYLINE
  8
LAYER_1
 62
     7
  6
CONTINUOUS
 66
     1
 40
0.003000
 41
0.003000
  0
VERTEX
  8
LAYER_1
 62
     7
  6
CONTINUOUS
 10
62.491358
 20
-3.752177
  0
VERTEX
  8
LAYER_1
 62
     7
  6
CONTINUOUS
 10
44.493303
 20
-3.752177
  0
VERTEX
  8
LAYER_1
 62
     7
  6
CONTINUOUS
 10
20.466402
 20
-2.767650
  0
VERTEX
  8
LAYER_1
 62
     7
  6
CONTINUOUS
 10
2.910831
 20
-1.039205
  0
SEQEND
  8
0
  0
POLYLINE
  8
LAYER_1
 62
     7
  6
CONTINUOUS
 66
     1
 40
0.003000
 41
0.003000
  0
VERTEX
  8
LAYER_1
 62
     7
  6
CONTINUOUS
 10
62.491358
 20
4.950929
  0
VERTEX
  8
LAYER_1
 62
     7
  6
CONTINUOUS
 10
44.493303
 20
4.785000
  0
VERTEX
  8
LAYER_1
 62
     7
  6
CONTINUOUS
 10
20.499583
 20
4.132331
  0
VERTEX
  8
LAYER_1
 62
     7
  6
CONTINUOUS
 10
4.195413
 20
3.252886
  0
SEQEND
  8
0
  0
POLYLINE
  8
LAYER_1
 62
     7
  6
CONTINUOUS
 66
     1
 40
0.003000
 41
0.003000
 70
     1
  0
VERTEX
  8
LAYER_1
 62
     7
  6
CONTINUOUS
 10
2.924650
 20
1.875665
  0
VERTEX
  8
LAYER_1
 62
     7
  6
CONTINUOUS
 10
2.827858
 20
1.626764
  0
VERTEX
  8
LAYER_1
 62
     7
  6
CONTINUOUS
 10
20.496819
 20
1.626764
  0
VERTEX
  8
LAYER_1
 62
     7
  6
CONTINUOUS
 10
20.491291
 20
1.875665
  0
SEQEND
  8
0
  0
POLYLINE
  8
LAYER_1
 62
     7
  6
CONTINUOUS
 66
     1
 40
0.003000
 41
0.003000
  0
VERTEX
  8
LAYER_1
 62
     7
  6
CONTINUOUS
 10
2.913622
 20
-0.876039
  0
VERTEX
  8
LAYER_1
 62
     7
  6
CONTINUOUS
 10
3.068500
 20
1.126205
  0
VERTEX
  8
LAYER_1
 62
     7
  6
CONTINUOUS
 10
2.985528
 20
1.126205
  0
VERTEX
  8
LAYER_1
 62
     7
  6
CONTINUOUS
 10
3.074028
 20
2.265594
  0
SEQEND
  8
0
  0
POLYLINE
  8
LAYER_1
 62
     7
  6
CONTINUOUS
 66
     1
 40
0.003000
 41
0.003000
  0
VERTEX
  8
LAYER_1
 62
     7
  6
CONTINUOUS
 10
3.068500
 20
2.254539
  0
VERTEX
  8
LAYER_1
 62
     7
  6
CONTINUOUS
 10
3.067612
 20
2.253378
  0
VERTEX
  8
LAYER_1
 62
     7
  6
CONTINUOUS
 10
3.061397
 20
2.245252
  0
VERTEX
  8
LAYER_1
 62
     7
  6
CONTINUOUS
 10
3.044528
 20
2.223193
  0
SEQEND
  8
0
  0
POLYLINE
  8
LAYER_1
 62
     7
  6
CONTINUOUS
 66
     1
 40
0.003000
 41
0.003000
  0
VERTEX
  8
LAYER_1
 62
     7
  6
CONTINUOUS
 10
3.044528
 20
2.223193
  0
VERTEX
  8
LAYER_1
 62
     7
  6
CONTINUOUS
 10
3.013353
 20
2.181577
  0
VERTEX
  8
LAYER_1
 62
     7
  6
CONTINUOUS
 10
2.970912
 20
2.120086
  0
VERTEX
  8
LAYER_1
 62
     7
  6
CONTINUOUS
 10
2.921913
 20
2.039748
  0
SEQEND
  8
0
  0
POLYLINE
  8
LAYER_1
 62
     7
  6
CONTINUOUS
 66
     1
 40
0.003000
 41
0.003000
  0
VERTEX
  8
LAYER_1
 62
     7
  6
CONTINUOUS
 10
2.921913
 20
2.039748
  0
VERTEX
  8
LAYER_1
 62
     7
  6
CONTINUOUS
 10
2.870602
 20
1.942204
  0
VERTEX
  8
LAYER_1
 62
     7
  6
CONTINUOUS
 10
2.819288
 20
1.831549
  0
VERTEX
  8
LAYER_1
 62
     7
  6
CONTINUOUS
 10
2.769819
 20
1.712496
  0
SEQEND
  8
0
  0
POLYLINE
  8
LAYER_1
 62
     7
  6
CONTINUOUS
 66
     1
 40
0.003000
 41
0.003000
  0
VERTEX
  8
LAYER_1
 62
     7
  6
CONTINUOUS
 10
2.769819
 20
1.712496
  0
VERTEX
  8
LAYER_1
 62
     7
  6
CONTINUOUS
 10
2.723862
 20
1.588937
  0
VERTEX
  8
LAYER_1
 62
     7
  6
CONTINUOUS
 10
2.682411
 20
1.461481
  0
VERTEX
  8
LAYER_1
 62
     7
  6
CONTINUOUS
 10
2.646291
 20
1.329929
  0
SEQEND
  8
0
  0
POLYLINE
  8
LAYER_1
 62
     7
  6
CONTINUOUS
 66
     1
 40
0.003000
 41
0.003000
  0
VERTEX
  8
LAYER_1
 62
     7
  6
CONTINUOUS
 10
2.646291
 20
1.329929
  0
VERTEX
  8
LAYER_1
 62
     7
  6
CONTINUOUS
 10
2.616043
 20
1.194077
  0
VERTEX
  8
LAYER_1
 62
     7
  6
CONTINUOUS
 10
2.591117
 20
1.053717
  0
VERTEX
  8
LAYER_1
 62
     7
  6
CONTINUOUS
 10
2.570693
 20
0.908650
  0
SEQEND
  8
0
  0
POLYLINE
  8
LAYER_1
 62
     7
  6
CONTINUOUS
 66
     1
 40
0.003000
 41
0.003000
  0
VERTEX
  8
LAYER_1
 62
     7
  6
CONTINUOUS
 10
2.570693
 20
0.908650
  0
VERTEX
  8
LAYER_1
 62
     7
  6
CONTINUOUS
 10
2.554037
 20
0.757467
  0
VERTEX
  8
LAYER_1
 62
     7
  6
CONTINUOUS
 10
2.540655
 20
0.593997
  0
VERTEX
  8
LAYER_1
 62
     7
  6
CONTINUOUS
 10
2.530138
 20
0.410858
  0
SEQEND
  8
0
  0
POLYLINE
  8
LAYER_1
 62
     7
  6
CONTINUOUS
 66
     1
 40
0.003000
 41
0.003000
  0
VERTEX
  8
LAYER_1
 62
     7
  6
CONTINUOUS
 10
2.530138
 20
0.410858
  0
VERTEX
  8
LAYER_1
 62
     7
  6
CONTINUOUS
 10
2.522350
 20
0.205595
  0
VERTEX
  8
LAYER_1
 62
     7
  6
CONTINUOUS
 10
2.518256
 20
-0.004586
  0
VERTEX
  8
LAYER_1
 62
     7
  6
CONTINUOUS
 10
2.519083
 20
-0.197555
  0
SEQEND
  8
0
  0
POLYLINE
  8
LAYER_1
 62
     7
  6
CONTINUOUS
 66
     1
 40
0.003000
 41
0.003000
  0
VERTEX
  8
LAYER_1
 62
     7
  6
CONTINUOUS
 10
2.519083
 20
-0.197555
  0
VERTEX
  8
LAYER_1
 62
     7
  6
CONTINUOUS
 10
2.526111
 20
-0.356186
  0
VERTEX
  8
LAYER_1
 62
     7
  6
CONTINUOUS
 10
2.540925
 20
-0.483267
  0
VERTEX
  8
LAYER_1
 62
     7
  6
CONTINUOUS
 10
2.565165
 20
-0.586583
  0
SEQEND
  8
0
  0
POLYLINE
  8
LAYER_1
 62
     7
  6
CONTINUOUS
 66
     1
 40
0.003000
 41
0.003000
  0
VERTEX
  8
LAYER_1
 62
     7
  6
CONTINUOUS
 10
2.565165
 20
-0.586583
  0
VERTEX
  8
LAYER_1
 62
     7
  6
CONTINUOUS
 10
2.600095
 20
-0.672620
  0
VERTEX
  8
LAYER_1
 62
     7
  6
CONTINUOUS
 10
2.645472
 20
-0.742679
  0
VERTEX
  8
LAYER_1
 62
     7
  6
CONTINUOUS
 10
2.700677
 20
-0.796764
  0
SEQEND
  8
0
  0
POLYLINE
  8
LAYER_1
 62
     7
  6
CONTINUOUS
 66
     1
 40
0.003000
 41
0.003000
  0
VERTEX
  8
LAYER_1
 62
     7
  6
CONTINUOUS
 10
2.700677
 20
-0.796764
  0
VERTEX
  8
LAYER_1
 62
     7
  6
CONTINUOUS
 10
2.763328
 20
-0.835338
  0
VERTEX
  8
LAYER_1
 62
     7
  6
CONTINUOUS
 10
2.823932
 20
-0.860807
  0
VERTEX
  8
LAYER_1
 62
     7
  6
CONTINUOUS
 10
2.871220
 20
-0.876039
  0
SEQEND
  8
0
  0
POLYLINE
  8
LAYER_1
 62
     7
  6
CONTINUOUS
 66
     1
 40
0.003000
 41
0.003000
  0
VERTEX
  8
LAYER_1
 62
     7
  6
CONTINUOUS
 10
2.871220
 20
-0.876039
  0
VERTEX
  8
LAYER_1
 62
     7
  6
CONTINUOUS
 10
2.897169
 20
-0.883819
  0
VERTEX
  8
LAYER_1
 62
     7
  6
CONTINUOUS
 10
2.906729
 20
-0.886685
  0
VERTEX
  8
LAYER_1
 62
     7
  6
CONTINUOUS
 10
2.908094
 20
-0.887094
  0
SEQEND
  8
0
  0
POLYLINE
  8
LAYER_1
 62
     7
  6
CONTINUOUS
 66
     1
 40
0.003000
 41
0.003000
 70
     1
  0
VERTEX
  8
LAYER_1
 62
     7
  6
CONTINUOUS
 10
2.999319
 20
0.106539
  0
VERTEX
  8
LAYER_1
 62
     7
  6
CONTINUOUS
 10
2.993791
 20
0.009748
  0
VERTEX
  8
LAYER_1
 62
     7
  6
CONTINUOUS
 10
20.496819
 20
-0.941594
  0
VERTEX
  8
LAYER_1
 62
     7
  6
CONTINUOUS
 10
20.496819
 20
-0.850331
  0
SEQEND
  8
0
  0
POLYLINE
  8
LAYER_1
 62
     7
  6
CONTINUOUS
 66
     1
 40
0.003000
 41
0.003000
  0
VERTEX
  8
LAYER_1
 62
     7
  6
CONTINUOUS
 10
5.018193
 20
3.292303
  0
VERTEX
  8
LAYER_1
 62
     7
  6
CONTINUOUS
 10
5.013481
 20
3.290596
  0
VERTEX
  8
LAYER_1
 62
     7
  6
CONTINUOUS
 10
4.980497
 20
3.278644
  0
VERTEX
  8
LAYER_1
 62
     7
  6
CONTINUOUS
 10
4.890969
 20
3.246205
  0
SEQEND
  8
0
  0
POLYLINE
  8
LAYER_1
 62
     7
  6
CONTINUOUS
 66
     1
 40
0.003000
 41
0.003000
  0
VERTEX
  8
LAYER_1
 62
     7
  6
CONTINUOUS
 10
4.890969
 20
3.246205
  0
VERTEX
  8
LAYER_1
 62
     7
  6
CONTINUOUS
 10
4.728115
 20
3.186523
  0
VERTEX
  8
LAYER_1
 62
     7
  6
CONTINUOUS
 10
4.521010
 20
3.106766
  0
VERTEX
  8
LAYER_1
 62
     7
  6
CONTINUOUS
 10
4.310220
 20
3.017583
  0
SEQEND
  8
0
  0
POLYLINE
  8
LAYER_1
 62
     7
  6
CONTINUOUS
 66
     1
 40
0.003000
 41
0.003000
  0
VERTEX
  8
LAYER_1
 62
     7
  6
CONTINUOUS
 10
4.310220
 20
3.017583
  0
VERTEX
  8
LAYER_1
 62
     7
  6
CONTINUOUS
 10
4.127623
 20
2.926972
  0
VERTEX
  8
LAYER_1
 62
     7
  6
CONTINUOUS
 10
3.970430
 20
2.832260
  0
VERTEX
  8
LAYER_1
 62
     7
  6
CONTINUOUS
 10
3.827165
 20
2.728122
  0
SEQEND
  8
0
  0
POLYLINE
  8
LAYER_1
 62
     7
  6
CONTINUOUS
 66
     1
 40
0.003000
 41
0.003000
  0
VERTEX
  8
LAYER_1
 62
     7
  6
CONTINUOUS
 10
3.827165
 20
2.728122
  0
VERTEX
  8
LAYER_1
 62
     7
  6
CONTINUOUS
 10
3.688964
 20
2.610474
  0
VERTEX
  8
LAYER_1
 62
     7
  6
CONTINUOUS
 10
3.557311
 20
2.480120
  0
VERTEX
  8
LAYER_1
 62
     7
  6
CONTINUOUS
 10
3.436303
 20
2.339110
  0
SEQEND
  8
0
  0
POLYLINE
  8
LAYER_1
 62
     7
  6
CONTINUOUS
 66
     1
 40
0.003000
 41
0.003000
  0
VERTEX
  8
LAYER_1
 62
     7
  6
CONTINUOUS
 10
3.436303
 20
2.339110
  0
VERTEX
  8
LAYER_1
 62
     7
  6
CONTINUOUS
 10
3.330260
 20
2.192570
  0
VERTEX
  8
LAYER_1
 62
     7
  6
CONTINUOUS
 10
3.244291
 20
2.057913
  0
VERTEX
  8
LAYER_1
 62
     7
  6
CONTINUOUS
 10
3.183720
 20
1.955622
  0
SEQEND
  8
0
  0
POLYLINE
  8
LAYER_1
 62
     7
  6
CONTINUOUS
 66
     1
 40
0.003000
 41
0.003000
  0
VERTEX
  8
LAYER_1
 62
     7
  6
CONTINUOUS
 10
3.183720
 20
1.955622
  0
VERTEX
  8
LAYER_1
 62
     7
  6
CONTINUOUS
 10
3.151292
 20
1.899836
  0
VERTEX
  8
LAYER_1
 62
     7
  6
CONTINUOUS
 10
3.139345
 20
1.879283
  0
VERTEX
  8
LAYER_1
 62
     7
  6
CONTINUOUS
 10
3.137638
 20
1.876346
  0
SEQEND
  8
0
  0
POLYLINE
  8
LAYER_1
 62
     7
  6
DASHED
 66
     1
 40
0.003000
 41
0.003000
  0
VERTEX
  8
LAYER_1
 62
     7
  6
DASHED
 10
2.989594
 20
1.129650
  0
VERTEX
  8
LAYER_1
 62
     7
  6
DASHED
 10
3.083622
 20
2.338193
  0
SEQEND
  8
0
  0
POLYLINE
  8
LAYER_1
 62
     7
  6
CONTINUOUS
 66
     1
 40
0.003000
 41
0.003000
  0
VERTEX
  8
LAYER_1
 62
     7
  6
CONTINUOUS
 10
2.906622
 20
-1.035748
  0
VERTEX
  8
LAYER_1
 62
     7
  6
CONTINUOUS
 10
3.177650
 20
2.454346
  0
SEQEND
  8
0
  0
TEXT
  8
LAYER_1
 62
     7
 10
1.965016
 20
2.289386
 40
0.129986
  1
(21)
 41
1.000000
  7
SN0
 71
     0
 72
     5
 11
2.236007
 21
2.289386
  0
POLYLINE
  8
LAYER_1
 62
     7
  6
DASHED
 66
     1
 40
0.003000
 41
0.003000
  0
VERTEX
  8
LAYER_1
 62
     7
  6
DASHED
 10
2.497358
 20
3.369732
  0
VERTEX
  8
LAYER_1
 62
     7
  6
DASHED
 10
2.497358
 20
1.245803
  0
SEQEND
  8
0
  0
POLYLINE
  8
LAYER_1
 62
     7
  6
DASHED
 66
     1
 40
0.003000
 41
0.003000
  0
VERTEX
  8
LAYER_1
 62
     7
  6
DASHED
 10
2.276110
 20
-1.597150
  0
VERTEX
  8
LAYER_1
 62
     7
  6
DASHED
 10
-0.522594
 20
-1.287413
  0
SEQEND
  8
0
  0
POLYLINE
  8
LAYER_1
 62
     7
  6
DASHED
 66
     1
 40
0.003000
 41
0.003000
  0
VERTEX
  8
LAYER_1
 62
     7
  6
DASHED
 10
2.508413
 20
3.369732
  0
VERTEX
  8
LAYER_1
 62
     7
  6
DASHED
 10
2.506297
 20
3.369664
  0
VERTEX
  8
LAYER_1
 62
     7
  6
DASHED
 10
2.491480
 20
3.369185
  0
VERTEX
  8
LAYER_1
 62
     7
  6
DASHED
 10
2.451264
 20
3.367886
  0
SEQEND
  8
0
  0
POLYLINE
  8
LAYER_1
 62
     7
  6
DASHED
 66
     1
 40
0.003000
 41
0.003000
  0
VERTEX
  8
LAYER_1
 62
     7
  6
DASHED
 10
2.451264
 20
3.367886
  0
VERTEX
  8
LAYER_1
 62
     7
  6
DASHED
 10
2.372328
 20
3.364062
  0
VERTEX
  8
LAYER_1
 62
     7
  6
DASHED
 10
2.238901
 20
3.350818
  0
VERTEX
  8
LAYER_1
 62
     7
  6
DASHED
 10
2.034594
 20
3.319957
  0
SEQEND
  8
0
  0
POLYLINE
  8
LAYER_1
 62
     7
  6
DASHED
 66
     1
 40
0.003000
 41
0.003000
  0
VERTEX
  8
LAYER_1
 62
     7
  6
DASHED
 10
2.034594
 20
3.319957
  0
VERTEX
  8
LAYER_1
 62
     7
  6
DASHED
 10
1.752034
 20
3.262803
  0
VERTEX
  8
LAYER_1
 62
     7
  6
DASHED
 10
1.419897
 20
3.168773
  0
VERTEX
  8
LAYER_1
 62
     7
  6
DASHED
 10
1.075874
 20
3.026803
  0
SEQEND
  8
0
  0
POLYLINE
  8
LAYER_1
 62
     7
  6
DASHED
 66
     1
 40
0.003000
 41
0.003000
  0
VERTEX
  8
LAYER_1
 62
     7
  6
DASHED
 10
1.075874
 20
3.026803
  0
VERTEX
  8
LAYER_1
 62
     7
  6
DASHED
 10
0.751661
 20
2.829191
  0
VERTEX
  8
LAYER_1
 62
     7
  6
DASHED
 10
0.454896
 20
2.581592
  0
VERTEX
  8
LAYER_1
 62
     7
  6
DASHED
 10
0.187220
 20
2.293028
  0
SEQEND
  8
0
  0
POLYLINE
  8
LAYER_1
 62
     7
  6
DASHED
 66
     1
 40
0.003000
 41
0.003000
  0
VERTEX
  8
LAYER_1
 62
     7
  6
DASHED
 10
0.187220
 20
2.293028
  0
VERTEX
  8
LAYER_1
 62
     7
  6
DASHED
 10
-0.048222
 20
1.967305
  0
VERTEX
  8
LAYER_1
 62
     7
  6
DASHED
 10
-0.242288
 20
1.587506
  0
VERTEX
  8
LAYER_1
 62
     7
  6
DASHED
 10
-0.384319
 20
1.131500
  0
SEQEND
  8
0
  0
POLYLINE
  8
LAYER_1
 62
     7
  6
DASHED
 66
     1
 40
0.003000
 41
0.003000
  0
VERTEX
  8
LAYER_1
 62
     7
  6
DASHED
 10
-0.384319
 20
1.131500
  0
VERTEX
  8
LAYER_1
 62
     7
  6
DASHED
 10
-0.468517
 20
0.594576
  0
VERTEX
  8
LAYER_1
 62
     7
  6
DASHED
 10
-0.508462
 20
0.041678
  0
VERTEX
  8
LAYER_1
 62
     7
  6
DASHED
 10
-0.522594
 20
-0.444846
  0
SEQEND
  8
0
  0
POLYLINE
  8
LAYER_1
 62
     7
  6
DASHED
 66
     1
 40
0.003000
 41
0.003000
  0
VERTEX
  8
LAYER_1
 62
     7
  6
DASHED
 10
-0.522594
 20
-0.444846
  0
VERTEX
  8
LAYER_1
 62
     7
  6
DASHED
 10
-0.526758
 20
-0.800879
  0
VERTEX
  8
LAYER_1
 62
     7
  6
DASHED
 10
-0.526416
 20
-1.035231
  0
VERTEX
  8
LAYER_1
 62
     7
  6
DASHED
 10
-0.524441
 20
-1.174941
  0
SEQEND
  8
0
  0
POLYLINE
  8
LAYER_1
 62
     7
  6
DASHED
 66
     1
 40
0.003000
 41
0.003000
  0
VERTEX
  8
LAYER_1
 62
     7
  6
DASHED
 10
-0.524441
 20
-1.174941
  0
VERTEX
  8
LAYER_1
 62
     7
  6
DASHED
 10
-0.523142
 20
-1.246300
  0
VERTEX
  8
LAYER_1
 62
     7
  6
DASHED
 10
-0.522663
 20
-1.272591
  0
VERTEX
  8
LAYER_1
 62
     7
  6
DASHED
 10
-0.522594
 20
-1.276346
  0
SEQEND
  8
0
  0
POLYLINE
  8
LAYER_1
 62
     7
  6
DASHED
 66
     1
 40
0.003000
 41
0.003000
  0
VERTEX
  8
LAYER_1
 62
     7
  6
DASHED
 10
4.997386
 20
3.502484
  0
VERTEX
  8
LAYER_1
 62
     7
  6
DASHED
 10
2.497358
 20
3.369732
  0
SEQEND
  8
0
  0
POLYLINE
  8
LAYER_1
 62
     7
  6
CONTINUOUS
 66
     1
 40
0.003000
 41
0.003000
  0
VERTEX
  8
LAYER_1
 62
     7
  6
CONTINUOUS
 10
42.995748
 20
5.006929
  0
VERTEX
  8
LAYER_1
 62
     7
  6
CONTINUOUS
 10
-0.500469
 20
5.006929
  0
SEQEND
  8
0
  0
POLYLINE
  8
LAYER_1
 62
     7
  6
CONTINUOUS
 66
     1
 40
0.003000
 41
0.003000
  0
VERTEX
  8
LAYER_1
 62
     7
  6
CONTINUOUS
 10
42.995748
 20
-4.993220
  0
VERTEX
  8
LAYER_1
 62
     7
  6
CONTINUOUS
 10
-0.500469
 20
-4.993220
  0
SEQEND
  8
0
  0
POLYLINE
  8
LAYER_1
 62
     7
  6
CONTINUOUS
 66
     1
 40
0.003000
 41
0.003000
  0
VERTEX
  8
LAYER_1
 62
     7
  6
CONTINUOUS
 10
19.492748
 20
4.351500
  0
VERTEX
  8
LAYER_1
 62
     7
  6
CONTINUOUS
 10
-0.507555
 20
4.351500
  0
SEQEND
  8
0
  0
POLYLINE
  8
LAYER_1
 62
     7
  6
CONTINUOUS
 66
     1
 40
0.003000
 41
0.003000
  0
VERTEX
  8
LAYER_1
 62
     7
  6
CONTINUOUS
 10
19.496831
 20
-3.650539
  0
VERTEX
  8
LAYER_1
 62
     7
  6
CONTINUOUS
 10
-0.503457
 20
-3.650539
  0
SEQEND
  8
0
  0
POLYLINE
  8
LAYER_1
 62
     7
  6
CONTINUOUS
 66
     1
 40
0.003000
 41
0.003000
  0
VERTEX
  8
LAYER_1
 62
     7
  6
CONTINUOUS
 10
61.491594
 20
5.169429
  0
VERTEX
  8
LAYER_1
 62
     7
  6
CONTINUOUS
 10
-0.500469
 20
5.169429
  0
SEQEND
  8
0
  0
POLYLINE
  8
LAYER_1
 62
     7
  6
CONTINUOUS
 66
     1
 40
0.003000
 41
0.003000
  0
VERTEX
  8
LAYER_1
 62
     7
  6
CONTINUOUS
 10
61.491594
 20
-5.330567
  0
VERTEX
  8
LAYER_1
 62
     7
  6
CONTINUOUS
 10
-0.500469
 20
-5.330567
  0
SEQEND
  8
0
  0
POLYLINE
  8
LAYER_1
 62
     7
  6
DASHED
 66
     1
 40
0.003000
 41
0.003000
  0
VERTEX
  8
LAYER_1
 62
     7
  6
DASHED
 10
62.492831
 20
0.497748
  0
VERTEX
  8
LAYER_1
 62
     7
  6
DASHED
 10
44.494776
 20
0.497748
  0
VERTEX
  8
LAYER_1
 62
     7
  6
DASHED
 10
20.501055
 20
0.746638
  0
VERTEX
  8
LAYER_1
 62
     7
  6
DASHED
 10
2.995264
 20
1.128276
  0
SEQEND
  8
0
  0
ENDSEC
  0
EOF
